  0
SECTION
  2
HEADER
  9
$ACADVER
  1
AC1009
  9
$INSBASE
 10
509.9391017861535147
 20
-118.0350180316795985
 30
403.1361558984037856
  9
$EXTMIN
 10
-42.3220704507624319
 20
-42.3220704507624177
 30
-0.0000000000000689
  9
$EXTMAX
 10
42.3220704507625172
 20
400.0004159163694908
 30
300.0004159163694908
  9
$LIMMIN
 10
0.0
 20
0.000000000000008
  9
$LIMMAX
 10
594.0
 20
840.0
  9
$ORTHOMODE
 70
     1
  9
$REGENMODE
 70
     1
  9
$FILLMODE
 70
     1
  9
$QTEXTMODE
 70
     0
  9
$MIRRTEXT
 70
     1
  9
$DRAGMODE
 70
     2
  9
$LTSCALE
 40
20.0
  9
$OSMODE
 70
  1335
  9
$ATTMODE
 70
     1
  9
$TEXTSIZE
 40
2.0
  9
$TRACEWID
 40
1.0
  9
$TEXTSTYLE
  7
STANDARD
  9
$CLAYER
  8
STEMPEL
  9
$CELTYPE
  6
BYLAYER
  9
$CECOLOR
 62
   256
  9
$DIMSCALE
 40
0.5
  9
$DIMASZ
 40
3.5
  9
$DIMEXO
 40
1.0
  9
$DIMDLI
 40
7.0
  9
$DIMRND
 40
0.0
  9
$DIMDLE
 40
0.0
  9
$DIMEXE
 40
1.0
  9
$DIMTP
 40
0.0
  9
$DIMTM
 40
0.0
  9
$DIMTXT
 40
3.5
  9
$DIMCEN
 40
1.5
  9
$DIMTSZ
 40
0.0
  9
$DIMTOL
 70
     0
  9
$DIMLIM
 70
     0
  9
$DIMTIH
 70
     0
  9
$DIMTOH
 70
     0
  9
$DIMSE1
 70
     0
  9
$DIMSE2
 70
     0
  9
$DIMTAD
 70
     1
  9
$DIMZIN
 70
     8
  9
$DIMBLK
  1

  9
$DIMASO
 70
     1
  9
$DIMSHO
 70
     0
  9
$DIMPOST
  1

  9
$DIMAPOST
  1

  9
$DIMALT
 70
     0
  9
$DIMALTD
 70
     2
  9
$DIMALTF
 40
25.3999999999999986
  9
$DIMLFAC
 40
2.0
  9
$DIMTOFL
 70
     1
  9
$DIMTVP
 40
0.0
  9
$DIMTIX
 70
     0
  9
$DIMSOXD
 70
     0
  9
$DIMSAH
 70
     0
  9
$DIMBLK1
  1

  9
$DIMBLK2
  1

  9
$DIMSTYLE
  2
STANDARD
  9
$DIMCLRD
 70
     0
  9
$DIMCLRE
 70
     0
  9
$DIMCLRT
 70
     1
  9
$DIMTFAC
 40
0.5142857142857143
  9
$DIMGAP
 40
1.5
  9
$LUNITS
 70
     2
  9
$LUPREC
 70
     2
  9
$SKETCHINC
 40
1.0
  9
$FILLETRAD
 40
6.5
  9
$AUNITS
 70
     0
  9
$AUPREC
 70
     0
  9
$MENU
  1
ACAD
  9
$ELEVATION
 40
0.0
  9
$PELEVATION
 40
0.0
  9
$THICKNESS
 40
0.0
  9
$LIMCHECK
 70
     0
  9
$BLIPMODE
 70
     0
  9
$CHAMFERA
 40
0.0
  9
$CHAMFERB
 40
0.0
  9
$SKPOLY
 70
     0
  9
$TDCREATE
 40
2455397.867048610933125
  9
$TDUPDATE
 40
2460879.3648495371453464
  9
$TDINDWG
 40
1.1004698727
  9
$TDUSRTIMER
 40
1.1004698727
  9
$USRTIMER
 70
     1
  9
$ANGBASE
 50
0.0
  9
$ANGDIR
 70
     0
  9
$PDMODE
 70
     0
  9
$PDSIZE
 40
0.0
  9
$PLINEWID
 40
0.0
  9
$COORDS
 70
     1
  9
$SPLFRAME
 70
     0
  9
$SPLINETYPE
 70
     6
  9
$SPLINESEGS
 70
     8
  9
$ATTDIA
 70
     1
  9
$ATTREQ
 70
     0
  9
$HANDLING
 70
     1
  9
$HANDSEED
  5
916E
  9
$SURFTAB1
 70
     6
  9
$SURFTAB2
 70
     6
  9
$SURFTYPE
 70
     6
  9
$SURFU
 70
     6
  9
$SURFV
 70
     6
  9
$UCSNAME
  2

  9
$UCSORG
 10
0.0
 20
0.0
 30
0.0
  9
$UCSXDIR
 10
1.0
 20
0.0
 30
0.0
  9
$UCSYDIR
 10
0.0
 20
1.0
 30
0.0
  9
$PUCSNAME
  2

  9
$PUCSORG
 10
0.0
 20
0.0
 30
0.0
  9
$PUCSXDIR
 10
1.0
 20
0.0
 30
0.0
  9
$PUCSYDIR
 10
0.0
 20
1.0
 30
0.0
  9
$USERI1
 70
     0
  9
$USERI2
 70
     0
  9
$USERI3
 70
     0
  9
$USERI4
 70
     0
  9
$USERI5
 70
     0
  9
$USERR1
 40
0.0
  9
$USERR2
 40
0.0
  9
$USERR3
 40
0.0
  9
$USERR4
 40
0.0
  9
$USERR5
 40
0.0
  9
$WORLDVIEW
 70
     1
  9
$SHADEDGE
 70
     3
  9
$SHADEDIF
 70
    70
  9
$TILEMODE
 70
     1
  9
$MAXACTVP
 70
    16
  9
$PLIMCHECK
 70
     0
  9
$PEXTMIN
 10
-0.5400633377942086
 20
-0.6248010283241002
 30
-0.0015258207003583
  9
$PEXTMAX
 10
196.259495608136092
 20
286.3444754684034024
 30
0.0000000349246037
  9
$PLIMMIN
 10
-7.1432706260560863
 20
-5.5855754794936274
  9
$PLIMMAX
 10
202.8048119364698039
 20
291.3409984303643796
  9
$UNITMODE
 70
     0
  9
$VISRETAIN
 70
     0
  9
$PLINEGEN
 70
     0
  9
$PSLTSCALE
 70
     0
  0
ENDSEC
  0
SECTION
  2
TABLES
  0
TABLE
  2
VPORT
 70
     1
  0
VPORT
  2
*ACTIVE
 70
     0
 10
0.0
 20
0.0
 11
1.0
 21
1.0
 12
0.0
 22
0.0
 13
0.0
 23
0.0
 14
1.0
 24
1.0
 15
10.0
 25
10.0
 16
-0.0000000000004476
 26
0.0
 36
1936.437692453461068
 17
31.2126927305856796
 27
146.3914775637495893
 37
-0.0000000000000244
 40
705.9307972988491429
 41
2.0758974358974349
 42
50.0
 43
0.0
 44
0.0
 50
0.0
 51
0.0
 71
     0
 72
  1500
 73
     1
 74
     0
 75
     0
 76
     0
 77
     0
 78
     0
  0
ENDTAB
  0
TABLE
  2
LTYPE
 70
    31
  0
LTYPE
  2
CONTINUOUS
 70
     0
  3
Solid line
 72
    65
 73
     0
 40
0.0
  0
LTYPE
  2
STRICHPUNKT
 70
     0
  3
__ . __ . __ . __ . __ . __ . __ . __ . __ . __
 72
    65
 73
     4
 40
1.0
 49
0.5
 49
-0.25
 49
0.0
 49
-0.25
  0
LTYPE
  2
HIDDEN
 70
     0
  3
Hidden __ __ __ __ __ __ __ __ __ __ __ __ __ __
 72
    65
 73
     2
 40
0.375
 49
0.25
 49
-0.125
  0
LTYPE
  2
PHANTOM2
 70
     0
  3
Phantom (.5x) ___ _ _ ___ _ _ ___ _ _ ___ _ _
 72
    65
 73
     6
 40
1.25
 49
0.625
 49
-0.125
 49
0.125
 49
-0.125
 49
0.125
 49
-0.125
  0
LTYPE
  2
CENTER
 70
     0
  3
Center ____ _ ____ _ ____ _ ____ _ ____ _ ____
 72
    65
 73
     4
 40
2.0
 49
1.25
 49
-0.25
 49
0.25
 49
-0.25
  0
LTYPE
  2
AMCONSTR
 70
     0
  3
_______________________
 72
    65
 73
     2
 40
9999.0
 49
9999.0
 49
0.0
  0
LTYPE
  2
CENTER2
 70
     0
  3
Center (.5x) ___ _ ___ _ ___ _ ___ _ ___ _ ___
 72
    65
 73
     4
 40
1.125
 49
0.75
 49
-0.125
 49
0.125
 49
-0.125
  0
LTYPE
  2
HIDDEN2
 70
     0
  3
Hidden (.5x) _ _ _ _ _ _ _ _ _ _ _ _ _ _ _ _ _
 72
    65
 73
     2
 40
0.1875
 49
0.125
 49
-0.0625
  0
LTYPE
  2
AMZIGZAG2
 70
     0
  3
/\/-/\/-/\/-/\/-/\/-/\/
 72
    65
 73
     2
 40
0.4401
 49
0.0001
 49
-0.4400000000000001
  0
LTYPE
  2
ACANSTGB
 70
     0
  3
__ . . __ . .
 72
    65
 73
     6
 40
0.35433070866
 49
0.15748031496
 49
-0.03937007874
 49
0.03937007874
 49
-0.03937007874
 49
0.03937007874
 49
-0.03937007874
  0
LTYPE
  2
ACANSTGL
 70
     0
  3
_ _ _ _ _
 72
    65
 73
     2
 40
0.11811023622
 49
0.07874015748
 49
-0.03937007874
  0
LTYPE
  2
AUSGEZOGEN
 70
     0
  3
Ausgezogene Linie
 72
    65
 73
     0
 40
0.0
  0
ENDTAB
  0
TABLE
  2
LAYER
 70
    32
  0
LAYER
  2
0
 70
     0
 62
     7
  6
CONTINUOUS
  0
LAYER
  2
STEMPEL
 70
     0
 62
     3
  6
CONTINUOUS
  0
LAYER
  2
DEFPOINTS
 70
     0
 62
   255
  6
CONTINUOUS
  0
LAYER
  2
ROHR
 70
     0
 62
   254
  6
CONTINUOUS
  0
LAYER
  2
ADSK_ASSOC_ENTITY_BACKUPS
 70
     1
 62
    -7
  6
CONTINUOUS
  0
ENDTAB
  0
TABLE
  2
STYLE
 70
    10
  0
STYLE
  2
STANDARD
 70
     0
 40
0.0
 41
0.8
 50
0.0
 71
     0
 42
2.0
  3
simplex.shx
  4

  0
STYLE
  2
GREEKS
 70
     0
 40
0.0
 41
0.8
 50
0.0
 71
     0
 42
2.5
  3
SIMPLEX.shx
  4

  0
STYLE
  2

 70
     1
 40
0.0
 41
1.0
 50
0.0
 71
     0
 42
2.5
  3
genltshp.shx
  4

  0
STYLE
  2
ACANSGDT
 70
     0
 40
0.0
 41
1.0
 50
0.0
 71
     0
 42
2.5
  3
amgdt.shx
  4

  0
ENDTAB
  0
TABLE
  2
VIEW
 70
     1
  0
ENDTAB
  0
TABLE
  2
UCS
 70
     0
  0
ENDTAB
  0
TABLE
  2
APPID
 70
    47
  0
APPID
  2
ACAD
 70
     0
  0
APPID
  2
ACAD_NAV_VCDISPLAY
 70
     0
  0
APPID
  2
GRADIENTCOLOR1ACI
 70
     0
  0
APPID
  2
GRADIENTCOLOR2ACI
 70
     0
  0
APPID
  2
ACAD_DSTYLE_DIMRADIAL_EXTENSION
 70
     0
  0
APPID
  2
ACADANNOMONITORALERTICONDI
 70
     0
  0
APPID
  2
ACAD_EXEMPT_FROM_CAD_STANDARDS
 70
     0
  0
APPID
  2
ACAD_MLEADERVER
 70
     0
  0
APPID
  2
ACAD_PSEXT
 70
     0
  0
APPID
  2
ACAECLAYERSTANDARD
 70
     0
  0
APPID
  2
ACCMTRANSPARENCY
 70
     0
  0
APPID
  2
ACAD_OBJECT_CHANGE_GUID
 70
     0
  0
APPID
  2
MCAD_NO_VIS
 70
     0
  0
APPID
  2
ACAD_TEMP_GRAPHIC
 70
     0
  0
APPID
  2
ACATTRIBSERVICES
 70
     0
  0
APPID
  2
DESIGNERASSEMBLIES
 70
     0
  0
APPID
  2
ACAD_DSTYLE_DIMJAG
 70
     0
  0
APPID
  2
ACAD_DSTYLE_DIMBREAK
 70
     0
  0
APPID
  2
GENIUS_GENSCREG_15
 70
     0
  0
APPID
  2
GENIUS_GENOBJ-N-SDF_13
 70
     0
  0
APPID
  2
GENIUS_GENODEF_13
 70
     0
  0
APPID
  2
ACAD_STEPID
 70
     0
  0
APPID
  2
ACAD_DSTYLE_DIMARC_LENGTH_
 70
     0
  0
APPID
  2
ACAD_DSTYLE_DIM_LINETYPE
 70
     0
  0
APPID
  2
ACAD_DSTYLE_DIM_EXT1_LINETYPE
 70
     0
  0
APPID
  2
ACAD_DSTYLE_DIM_EXT2_LINETYPE
 70
     0
  0
APPID
  2
RAK
 70
     0
  0
APPID
  2
ACADANNOPO
 70
     0
  0
APPID
  2
ACSYNERGY
 70
     0
  0
APPID
  2
SYNERGY_BODY_TBR_ID
 70
     0
  0
APPID
  2
ACAD_VIEW_EDGE_ID
 70
     0
  0
APPID
  2
ACSYNERGYSKETCH
 70
     0
  0
APPID
  2
ACAD_MODELDOC_XFORM
 70
     0
  0
APPID
  2
GENIUS_GENDTOL_13
 70
     0
  0
APPID
  2
ACAD_DSTYLE_DIMINSPECT
 70
     0
  0
APPID
  2
ACAD_DSTYLE_DIMANGULAR_EXT
 70
     0
  0
APPID
  2
PLOTTRANSPARENCY
 70
     0
  0
APPID
  2
ACAUTHENVIRON
 70
     0
  0
APPID
  2
ACDBDYNAMICBLOCKTRUENAME
 70
     0
  0
APPID
  2
ACDBDYNAMICBLOCKGUID
 70
     0
  0
APPID
  2
PE_URL
 70
     0
  0
APPID
  2
ACADANNOAV
 70
     0
  0
APPID
  2
ACAD_DSTYLE_DIMTALN
 70
     0
  0
APPID
  2
ACAD_DIMASSOC_CALC_DIMLFAC
 70
     0
  0
APPID
  2
ACAD_DIMASSOC_DIMLFAC
 70
     0
  0
APPID
  2
ACAD_DIMASSOC_OVERRIDDEN_D
 70
     0
  0
APPID
  2
AcDbAttr
 70
     0
  0
ENDTAB
  0
TABLE
  2
DIMSTYLE
 70
    21
  0
DIMSTYLE
  2
STANDARD
 70
     0
  3

  4

  5

  6

  7

 40
1.0
 41
0.18
 42
0.0625
 43
0.38
 44
0.18
 45
0.0
 46
0.0
 47
0.0
 48
0.0
140
0.18
141
0.09
142
0.0
143
25.3999999999999986
144
1.0
145
0.0
146
1.0
147
0.09
 71
     0
 72
     0
 73
     1
 74
     1
 75
     0
 76
     0
 77
     0
 78
     0
170
     0
171
     2
172
     0
173
     0
174
     0
175
     0
176
     0
177
     0
178
     0
  0
DIMSTYLE
  2
AM_ANSI
 70
     0
  3

  4
mm
  5

  6

  7

 40
1.0
 41
0.12
 42
0.05
 43
0.5
 44
0.1
 45
0.0
 46
0.0
 47
0.1
 48
0.1
140
0.12
141
0.0
142
0.0
143
25.3999999999999986
144
1.0
145
0.0
146
0.71
147
0.06
 71
     0
 72
     0
 73
     1
 74
     1
 75
     0
 76
     0
 77
     0
 78
     7
170
     0
171
     2
172
     0
173
     0
174
     0
175
     0
176
   256
177
   256
178
   255
  0
DIMSTYLE
  2
AM_ANSI$3
 70
     0
  3

  4
mm
  5

  6

  7

 40
1.0
 41
0.12
 42
0.05
 43
0.5
 44
0.1
 45
0.0
 46
0.0
 47
0.1
 48
0.1
140
0.12
141
0.0
142
0.0
143
25.3999999999999986
144
1.0
145
0.0
146
0.71
147
0.06
 71
     0
 72
     0
 73
     1
 74
     1
 75
     0
 76
     0
 77
     0
 78
     7
170
     0
171
     2
172
     0
173
     0
174
     0
175
     0
176
   256
177
   256
178
   255
  0
DIMSTYLE
  2
AM_ANSI$4
 70
     0
  3

  4
mm
  5

  6

  7

 40
1.0
 41
0.12
 42
0.05
 43
0.5
 44
0.1
 45
0.0
 46
0.0
 47
0.1
 48
0.1
140
0.12
141
0.0
142
0.0
143
25.3999999999999986
144
1.0
145
0.0
146
0.71
147
0.06
 71
     0
 72
     0
 73
     1
 74
     1
 75
     0
 76
     0
 77
     0
 78
     7
170
     0
171
     2
172
     0
173
     0
174
     0
175
     0
176
   256
177
   256
178
   255
  0
DIMSTYLE
  2
AM_ANSI$7
 70
     0
  3

  4
mm
  5

  6

  7

 40
1.0
 41
0.12
 42
0.05
 43
0.5
 44
0.1
 45
0.0
 46
0.0
 47
0.1
 48
0.1
140
0.12
141
0.0
142
0.0
143
25.3999999999999986
144
1.0
145
0.0
146
0.71
147
0.06
 71
     0
 72
     0
 73
     1
 74
     1
 75
     0
 76
     0
 77
     0
 78
     7
170
     0
171
     2
172
     0
173
     0
174
     0
175
     0
176
   256
177
   256
178
   255
  0
DIMSTYLE
  2
AM_ANSI$SF
 70
     0
  3

  4
mm
  5

  6

  7

 40
1.0
 41
0.12
 42
0.05
 43
0.5
 44
0.1
 45
0.0
 46
0.0
 47
0.1
 48
0.1
140
0.12
141
0.0
142
0.0
143
25.3999999999999986
144
1.0
145
0.0
146
0.71
147
0.06
 71
     0
 72
     0
 73
     1
 74
     1
 75
     1
 76
     1
 77
     0
 78
     7
170
     0
171
     2
172
     0
173
     0
174
     0
175
     0
176
   256
177
   256
178
   255
  0
DIMSTYLE
  2
AM_ANSI$SH
 70
     0
  3

  4
mm
  5

  6
GENAXEH
  7

 40
1.0
 41
0.12
 42
0.05
 43
0.5
 44
0.1
 45
0.0
 46
0.0
 47
0.1
 48
0.1
140
0.12
141
0.0
142
0.0
143
25.3999999999999986
144
1.0
145
0.0
146
0.71
147
0.06
 71
     0
 72
     0
 73
     1
 74
     1
 75
     1
 76
     1
 77
     0
 78
     7
170
     0
171
     2
172
     0
173
     1
174
     0
175
     0
176
   256
177
   256
178
   255
  0
DIMSTYLE
  2
AM_ANSI$0
 70
     0
  3

  4
"
  5

  6

  7

 40
1.0
 41
3.5
 42
1.0
 43
10.0
 44
1.0
 45
0.0
 46
0.0
 47
0.1
 48
0.1
140
3.5
141
0.0
142
0.0
143
0.0393701
144
1.0
145
0.0
146
0.71
147
1.5
 71
     0
 72
     0
 73
     1
 74
     1
 75
     0
 76
     0
 77
     0
 78
     8
170
     0
171
     2
172
     0
173
     0
174
     0
175
     0
176
   256
177
   256
178
     2
  0
ENDTAB
  0
ENDSEC
  0
SECTION
  2
BLOCKS
  0
BLOCK
  8
0
  2
$MODEL_SPACE
 70
     0
 10
0.0
 20
0.0
 30
0.0
  3
$MODEL_SPACE
  1

  0
ENDBLK
  5
38
  8
0
  0
BLOCK
 67
     1
  8
0
  2
$PAPER_SPACE
 70
     2
 10
0.0
 20
0.0
 30
0.0
  3
$PAPER_SPACE
  1

  0
ENDBLK
  5
36
 67
     1
  8
0
  0
BLOCK
  8
0
  2
GENAXEH
 70
     0
 10
0.0
 20
0.0
 30
0.0
  3
GENAXEH
  1

  0
LINE
  5
1721
  8
0
 10
-1.0
 20
0.0
 30
0.0
 11
1.0
 21
0.0
 31
0.0
  0
ENDBLK
  5
1723
  8
0
  0
BLOCK
  8
0
  2
*S7
 70
     1
 10
0.0
 20
0.0
 30
0.0
  3
*S7
  1

  0
ENDBLK
  5
2101
  8
0
  0
BLOCK
  8
0
  2
*U9
 70
     1
 10
0.0
 20
0.0
 30
0.0
  3
*U9
  1

  0
ENDBLK
  5
3EBB
  8
0
  0
BLOCK
  8
0
  2
A$CB0CDF336
 70
     0
 10
0.0
 20
0.0
 30
0.0
  3
A$CB0CDF336
  1

  0
CIRCLE
  5
90D5
  8
0
  6
CONTINUOUS
 62
     3
 10
0.0000000000000643
 20
0.0000000000000177
 30
0.0
 40
41.7000000000000028
  0
CIRCLE
  5
90D6
  8
0
  6
CONTINUOUS
 62
     3
 10
0.0000000000000666
 20
0.0000000000000184
 30
0.0
 40
39.3829743589743799
  0
CIRCLE
  5
90D7
  8
0
  6
CONTINUOUS
 62
     3
 10
0.0000000000000665
 20
0.0000000000000183
 30
0.0
 40
38.2959999999999994
  0
CIRCLE
  5
90D8
  8
0
  6
CONTINUOUS
 62
     3
 10
0.0000000000000567
 20
0.0000000000000156
 30
0.0
 40
24.9999999999255387
  0
CIRCLE
  5
90D9
  8
0
  6
CONTINUOUS
 62
     3
 10
0.0
 20
0.0
 30
0.0
 40
24.5682646398823792
  0
CIRCLE
  5
90DA
  8
0
  6
CONTINUOUS
 62
     3
 10
0.0000000000000632
 20
0.0000000000000174
 30
0.0
 40
41.7001377359790695
  0
CIRCLE
  5
90DB
  8
0
  6
HIDDEN
 62
     1
 10
0.0000000000000595
 20
0.0000000000000164
 30
0.0
 40
34.3584724570676627
  0
CIRCLE
  5
90DC
  8
0
  6
HIDDEN
 62
     1
 10
0.0000000000000595
 20
0.0000000000000164
 30
0.0
 40
34.1188519592053581
  0
CIRCLE
  5
90DD
  8
0
  6
HIDDEN
 62
     1
 10
0.0000000000000643
 20
0.0000000000000177
 30
0.0
 40
40.4999999999999787
  0
CIRCLE
  5
90DE
  8
0
  6
HIDDEN
 62
     1
 10
0.0
 20
0.0
 30
0.0
 40
26.062556687009419
  0
CIRCLE
  5
90DF
  8
0
  6
HIDDEN
 62
     1
 10
0.0000000000000567
 20
0.0000000000000156
 30
0.0
 40
26.4999999999152216
  0
CIRCLE
  5
90E0
  8
0
  6
HIDDEN
 62
     1
 10
0.0000000000000632
 20
0.0000000000000174
 30
0.0
 40
40.5001377359790595
  0
ENDBLK
  5
90E2
  8
0
  0
BLOCK
  8
0
  2
A$CA65C85D8
 70
     0
 10
0.0
 20
0.0
 30
0.0
  3
A$CA65C85D8
  1

  0
LINE
  5
90E6
  8
0
  6
CONTINUOUS
 62
     3
 10
34.3584724570676627
 20
267.8259055185476996
 30
-0.0000000000000595
 11
-34.3584724570676627
 21
267.8259055185476996
 31
-0.0000000000000595
210
0.0
220
1.0
230
-0.0000000000000002
  0
LINE
  5
90E7
  8
0
  6
CONTINUOUS
 62
     3
 10
34.1188519592053581
 20
268.0000000010675762
 30
-0.0000000000000595
 11
-34.1188519592053581
 21
268.0000000010675762
 31
-0.0000000000000595
210
0.0
220
1.0
230
-0.0000000000000002
  0
LINE
  5
90E8
  8
0
  6
CONTINUOUS
 62
     3
 10
39.3829743589743799
 20
300.0004159163696045
 30
-0.0000000000000666
 11
-39.3829743589743799
 21
300.0004159163696045
 31
-0.0000000000000666
210
0.0
220
1.0
230
-0.0000000000000002
  0
LINE
  5
90E9
  8
0
  6
CONTINUOUS
 62
     3
 10
26.062556687009419
 20
-0.0000000000000142
 30
0.0
 11
-26.062556687009419
 21
-0.0000000000000142
 31
0.0
210
0.0
220
1.0
230
-0.0000000000000002
  0
LINE
  5
90EA
  8
0
  6
CONTINUOUS
 62
     3
 10
34.1188519590906623
 20
268.0000000009097789
 30
-0.0000000000000595
 11
34.3584724570676627
 21
267.8259055185476996
 31
-0.0000000000000595
210
0.0
220
1.0
230
-0.0000000000000002
  0
LINE
  5
90EB
  8
0
  6
CONTINUOUS
 62
     3
 10
-34.1188519590906765
 20
268.0000000009097789
 30
-0.0000000000000595
 11
-34.3584724570676627
 21
267.8259055185476996
 31
-0.0000000000000595
210
0.0
220
1.0
230
-0.0000000000000002
  0
ARC
  5
90EC
  8
0
  6
CONTINUOUS
 62
     3
 10
-6.4565664668796989
 20
302.6665239110013204
 30
0.0
 40
53.367897283384643
210
0.0
220
-0.0000000000000002
230
-1.0
 50
319.4903319297224016
 51
330.2747975824432274
  0
ARC
  5
90ED
  8
0
  6
CONTINUOUS
 62
     3
 10
6.456566466880175
 20
302.6665239110017183
 30
0.0
 40
53.3678972833852399
210
0.0
220
-0.0000000000000002
230
-1.0
 50
209.7252024175568863
 51
220.5096680702775132
  0
ARC
  5
90EE
  8
0
  6
CONTINUOUS
 62
     3
 10
-30.1626046068153002
 20
281.7579641524353065
 30
0.0
 40
11.2000000000000597
210
0.0
220
-0.0000000000000002
230
-1.0
 50
192.8872215562076917
 51
209.7252024175566021
  0
ARC
  5
90EF
  8
0
  6
CONTINUOUS
 62
     3
 10
30.1626046068147105
 20
281.757964152435477
 30
0.0
 40
11.2000000000006796
210
0.0
220
-0.0000000000000002
230
-1.0
 50
330.2747975824439095
 51
347.1127784437919104
  0
ARC
  5
90F0
  8
0
  6
CONTINUOUS
 62
     3
 10
-17.1001377359785494
 20
284.746602512676418
 30
0.0
 40
24.6000000000005201
210
0.0
220
-0.0000000000000002
230
-1.0
 50
179.8082682750163883
 51
192.8872215562076917
  0
ARC
  5
90F1
  8
0
  6
CONTINUOUS
 62
     3
 10
17.1001377359797786
 20
284.7466025126763043
 30
0.0
 40
24.5999999999993015
210
0.0
220
-0.0000000000000002
230
-1.0
 50
347.1127784437920241
 51
0.1917317249838916
  0
LINE
  5
90F2
  8
0
  6
CONTINUOUS
 62
     3
 10
-41.7000000000000028
 20
284.8289225661234809
 30
-0.0000000000000632
 11
-41.7000000000000028
 21
289.5778896526225026
 31
-0.0000000000000643
210
0.0
220
1.0
230
-0.0000000000000002
  0
LINE
  5
90F3
  8
0
  6
CONTINUOUS
 62
     3
 10
41.7000000000000028
 20
284.8289225661234809
 30
-0.0000000000000632
 11
41.7000000000000028
 21
289.5778896526225026
 31
-0.0000000000000643
210
0.0
220
1.0
230
-0.0000000000000002
  0
ARC
  5
90F4
  8
0
  6
CONTINUOUS
 62
     3
 10
-17.0999999999997883
 20
289.5778896526803123
 30
0.0
 40
24.6000000000002288
210
0.0
220
-0.0000000000000002
230
-1.0
 50
154.9328641828288085
 51
180.0000000001346052
  0
ARC
  5
90F5
  8
0
  6
CONTINUOUS
 62
     3
 10
17.0999999999997883
 20
289.5778896526803123
 30
0.0
 40
24.6000000000002217
210
0.0
220
-0.0000000000000002
230
-1.0
 50
359.9999999998653948
 51
25.06713581717122
  0
LINE
  5
90F6
  8
0
  6
CONTINUOUS
 62
     3
 10
-26.062556687009419
 20
-0.0000000000000147
 30
0.0
 11
-26.499999999915179
 21
4.9999999459046638
 31
-0.0000000000000011
210
0.0
220
1.0
230
-0.0000000000000002
  0
LINE
  5
90F7
  8
0
  6
CONTINUOUS
 62
     3
 10
26.062556687009419
 20
-0.0000000000000147
 30
0.0
 11
26.499999999915179
 21
4.999999945904662
 31
-0.0000000000000011
210
0.0
220
1.0
230
-0.0000000000000002
  0
LINE
  5
90F8
  8
0
  6
CONTINUOUS
 62
     3
 10
-26.4999999999152003
 20
4.999999945904662
 30
-0.0000000000000011
 11
-26.4999999999152003
 21
255.5475074729544076
 31
-0.0000000000000567
210
0.0
220
1.0
230
-0.0000000000000002
  0
LINE
  5
90F9
  8
0
  6
CONTINUOUS
 62
     3
 10
26.4999999999152003
 20
4.9999999459046478
 30
-0.0000000000000011
 11
26.4999999999152003
 21
255.5475074729544076
 31
-0.0000000000000567
210
0.0
220
1.0
230
-0.0000000000000002
  0
ARC
  5
90FA
  8
0
  6
CONTINUOUS
 62
     3
 10
-30.9999999999152003
 20
255.5475074729542939
 30
0.0
 40
4.4999999999999751
210
0.0
220
-0.0000000000000002
230
-1.0
 50
0.0000000000007252
 51
36.0000000000008527
  0
ARC
  5
90FB
  8
0
  6
CONTINUOUS
 62
     3
 10
30.9999999999151008
 20
255.5475074729544076
 30
0.0
 40
4.499999999999857
210
0.0
220
-0.0000000000000002
230
-1.0
 50
143.9999999999988916
 51
180.0000000000003126
  0
LINE
  5
90FC
  8
0
  6
CONTINUOUS
 62
     3
 10
-27.3594235252279816
 20
258.1925411082705182
 30
-0.0000000000000573
 11
-34.3584724570676627
 21
267.8259055185476996
 31
-0.0000000000000595
210
0.0
220
1.0
230
-0.0000000000000002
  0
LINE
  5
90FD
  8
0
  6
CONTINUOUS
 62
     3
 10
27.3594235252279816
 20
258.1925411082705182
 30
-0.0000000000000573
 11
34.3584724570676627
 21
267.8259055185476996
 31
-0.0000000000000595
210
0.0
220
1.0
230
-0.0000000000000002
  0
LINE
  5
90FE
  8
0
  6
HIDDEN
 62
     1
 10
38.2959999999999994
 20
299.4920000010675949
 30
-0.0000000000000665
 11
-38.2959999999999994
 21
299.4920000010675949
 31
-0.0000000000000665
210
0.0
220
1.0
230
-0.0000000000000002
  0
LINE
  5
90FF
  8
0
  6
HIDDEN
 62
     1
 10
24.5682646398823792
 20
0.1307336141231943
 30
0.0
 11
-24.5682646398823792
 21
0.1307336141231943
 31
0.0
210
0.0
220
1.0
230
-0.0000000000000002
  0
LINE
  5
9100
  8
0
  6
HIDDEN
 62
     1
 10
-38.2959999999999923
 20
299.4920000010675949
 30
-0.0000000000000665
 11
-39.3829743589743728
 21
300.0004159163696045
 31
-0.0000000000000666
210
0.0
220
1.0
230
-0.0000000000000002
  0
LINE
  5
9101
  8
0
  6
HIDDEN
 62
     1
 10
38.2959999999999923
 20
299.4920000010675949
 30
-0.0000000000000665
 11
39.3829743589743728
 21
300.0004159163696045
 31
-0.0000000000000666
210
0.0
220
1.0
230
-0.0000000000000002
  0
ARC
  5
9102
  8
0
  6
HIDDEN
 62
     1
 10
-17.0999999999996213
 20
289.5778896526801987
 30
0.0
 40
23.4000000000003894
210
0.0
220
-0.0000000000000002
230
-1.0
 50
154.9328641828288085
 51
179.9999999999996874
  0
ARC
  5
9103
  8
0
  6
HIDDEN
 62
     1
 10
17.0999999999996213
 20
289.5778896526801987
 30
0.0
 40
23.4000000000003787
210
0.0
220
-0.0000000000000002
230
-1.0
 50
0.0000000000002799
 51
25.0671358171712306
  0
LINE
  5
9104
  8
0
  6
HIDDEN
 62
     1
 10
-40.4999999999999787
 20
284.8268896526803928
 30
-0.0000000000000632
 11
-40.4999999999999787
 21
289.577889652680426
 31
-0.0000000000000643
210
0.0
220
1.0
230
-0.0000000000000002
  0
LINE
  5
9105
  8
0
  6
HIDDEN
 62
     1
 10
40.4999999999999787
 20
284.8268896526803928
 30
-0.0000000000000632
 11
40.4999999999999787
 21
289.577889652680426
 31
-0.0000000000000643
210
0.0
220
1.0
230
-0.0000000000000002
  0
ARC
  5
9106
  8
0
  6
HIDDEN
 62
     1
 10
-17.1001377359787483
 20
284.746602512676418
 30
0.0
 40
23.4000000000003183
210
0.0
220
-0.0000000000000002
230
-1.0
 50
179.8034135343127957
 51
192.8872215562086012
  0
ARC
  5
9107
  8
0
  6
HIDDEN
 62
     1
 10
17.1001377359787803
 20
284.7466025126763043
 30
0.0
 40
23.4000000000002792
210
0.0
220
-0.0000000000000002
230
-1.0
 50
347.1127784437913988
 51
0.196586465687478
  0
ARC
  5
9108
  8
0
  6
HIDDEN
 62
     1
 10
-30.1626046068154707
 20
281.7579641524350222
 30
0.0
 40
9.9999999999998117
210
0.0
220
-0.0000000000000002
230
-1.0
 50
192.8872215562080896
 51
209.7252024175581084
  0
ARC
  5
9109
  8
0
  6
HIDDEN
 62
     1
 10
30.1626046068156803
 20
281.7579641524347949
 30
0.0
 40
9.9999999999995808
210
0.0
220
-0.0000000000000002
230
-1.0
 50
330.2747975824422042
 51
347.1127784437919104
  0
ARC
  5
910A
  8
0
  6
HIDDEN
 62
     1
 10
-6.4565664668795364
 20
302.6665239110013204
 30
0.0
 40
52.1678972833845123
210
0.0
220
-0.0000000000000002
230
-1.0
 50
319.3863753630017754
 51
330.2747975824426021
  0
ARC
  5
910B
  8
0
  6
HIDDEN
 62
     1
 10
6.4565664668795364
 20
302.6665239110013204
 30
0.0
 40
52.1678972833845123
210
0.0
220
-0.0000000000000002
230
-1.0
 50
209.7252024175573979
 51
220.6136246369981961
  0
LINE
  5
910C
  8
0
  6
HIDDEN
 62
     1
 10
-26.1458980336758806
 20
259.0742189867233947
 30
-0.0000000000000575
 11
-33.1449469655052482
 21
268.707583396986422
 31
-0.0000000000000597
210
0.0
220
1.0
230
-0.0000000000000002
  0
LINE
  5
910D
  8
0
  6
HIDDEN
 62
     1
 10
26.1458980336759197
 20
259.0742189867233947
 30
-0.0000000000000575
 11
33.1449469655052482
 21
268.707583396986422
 31
-0.0000000000000597
210
0.0
220
1.0
230
-0.0000000000000002
  0
ARC
  5
910E
  8
0
  6
HIDDEN
 62
     1
 10
-30.9999999999251301
 20
255.54750747296859
 30
0.0
 40
5.999999999999587
210
0.0
220
-0.0000000000000002
230
-1.0
 50
359.9999999999993747
 51
36.0000000000020322
  0
ARC
  5
910F
  8
0
  6
HIDDEN
 62
     1
 10
30.9999999999252012
 20
255.54750747296859
 30
0.0
 40
5.9999999999996572
210
0.0
220
-0.0000000000000002
230
-1.0
 50
143.9999999999982947
 51
180.0000000000005116
  0
LINE
  5
9110
  8
0
  6
HIDDEN
 62
     1
 10
-24.9999999999255493
 20
5.065491360268326
 30
-0.0000000000000011
 11
-24.9999999999255493
 21
255.5475074729685048
 31
-0.0000000000000567
210
0.0
220
1.0
230
-0.0000000000000002
  0
LINE
  5
9111
  8
0
  6
HIDDEN
 62
     1
 10
24.9999999999255493
 20
5.0654913602683109
 30
-0.0000000000000011
 11
24.9999999999255493
 21
255.5475074729685048
 31
-0.0000000000000567
210
0.0
220
1.0
230
-0.0000000000000002
  0
LINE
  5
9112
  8
0
  6
HIDDEN
 62
     1
 10
-24.5682646398823685
 20
0.1307336141231987
 30
0.0
 11
-24.9999999999255706
 21
5.0654913602683314
 31
-0.0000000000000011
210
0.0
220
1.0
230
-0.0000000000000002
  0
LINE
  5
9113
  8
0
  6
HIDDEN
 62
     1
 10
24.5682646398823685
 20
0.1307336141231943
 30
0.0
 11
24.9999999999255706
 21
5.065491360268326
 31
-0.0000000000000011
210
0.0
220
1.0
230
-0.0000000000000002
  0
LINE
  5
9114
  8
0
  6
HIDDEN
 62
     1
 10
24.5682646398823792
 20
0.130733614123214
 30
0.0
 11
26.062556687009419
 21
0.0000000000000007
 31
0.0
210
0.0
220
1.0
230
-0.0000000000000002
  0
LINE
  5
9115
  8
0
  6
HIDDEN
 62
     1
 10
-24.5682646398823792
 20
0.130733614123214
 30
0.0
 11
-26.062556687009419
 21
0.0000000000000007
 31
0.0
210
0.0
220
1.0
230
-0.0000000000000002
  0
ENDBLK
  5
9117
  8
0
  0
ENDSEC
  0
SECTION
  2
ENTITIES
  0
INSERT
  5
69C0
  8
ADSK_ASSOC_ENTITY_BACKUPS
  2
*S7
 10
0.0
 20
0.0
 30
0.0
  0
INSERT
  5
90E3
  8
STEMPEL
  2
A$CB0CDF336
 10
0.0
 20
0.0
 30
0.0
  0
INSERT
  5
9118
  8
STEMPEL
  2
A$CA65C85D8
 10
0.0
 20
100.0
 30
0.0
  0
VIEWPORT
  5
1571
 67
     1
  8
0
 10
351.6433157965764167
 20
107.1962366036972014
 30
0.0
 40
1669.0651798882199728
 41
804.0210229204618599
 68
     1
 69
     1
1001
ACAD
1000
MVIEW
1002
{
1070
    16
1010
0.0
1020
0.0
1030
0.0
1010
0.0
1020
0.0
1030
1.0
1040
0.0
1040
804.0210229204618599
1040
351.6433157965764167
1040
107.1962366036972014
1040
50.0
1040
0.0
1040
0.0
1070
     0
1070
  1500
1070
     1
1070
     1
1070
     0
1070
     0
1070
     0
1070
     0
1040
0.0
1040
0.0
1040
0.0
1040
10.0
1040
10.0
1040
10.0
1040
10.0
1070
     0
1002
{
1002
}
1002
}
1001
GENIUS_GENOBJ-N-SDF_13
1002
{
1000
OWNER
1000
GEN
1002
}
1001
GENIUS_GENODEF_13
1002
{
1000
HIER
1070
     0
1002
}
1002
{
1000
MANEDIT
1070
     0
1002
}
1002
{
1000
NOSEL
1070
     0
1002
}
1002
{
1000
BEHIND
1070
     0
1002
}
1002
{
1000
OTHER
1070
     0
1002
}
1002
{
1000
REACTOR
1002
}
1001
GENIUS_GENSCREG_15
1000
PF
1040
1.0
1000
DF
1040
1.0
1000
MIN
1011
-98.3237311841076007
1021
0.0
1031
0.0
1021
-84.5929851452383446
1031
0.0
1000
MAX
1011
756.7695330154733711
1021
0.0
1031
0.0
1021
339.8977580961391141
1031
0.0
1000
FLAGS
1070
     4
  0
ENDSEC
  0
EOF
