  0
SECTION
  2
HEADER
  9
$ACADVER
  1
AC1009
  9
$INSBASE
 10
0.0
 20
0.0
 30
0.0
  9
$EXTMIN
 10
-275.193754412509179
 20
-13.1025621581400191
 30
-305.5984481419419012
  9
$EXTMAX
 10
-120.1775372990297939
 20
848.5334478219092489
 30
-305.5480949063181129
  9
$LIMMIN
 10
0.0
 20
0.0
  9
$LIMMAX
 10
210.0
 20
297.0
  9
$ORTHOMODE
 70
     1
  9
$REGENMODE
 70
     1
  9
$FILLMODE
 70
     1
  9
$QTEXTMODE
 70
     0
  9
$MIRRTEXT
 70
     1
  9
$DRAGMODE
 70
     2
  9
$LTSCALE
 40
10.0
  9
$OSMODE
 70
  2495
  9
$ATTMODE
 70
     1
  9
$TEXTSIZE
 40
3.5
  9
$TRACEWID
 40
0.5
  9
$TEXTSTYLE
  7
STANDARD
  9
$CLAYER
  8
STEMPEL
  9
$CELTYPE
  6
BYLAYER
  9
$CECOLOR
 62
   256
  9
$DIMSCALE
 40
1.0
  9
$DIMASZ
 40
3.5
  9
$DIMEXO
 40
1.0
  9
$DIMDLI
 40
7.0
  9
$DIMRND
 40
0.0
  9
$DIMDLE
 40
0.0
  9
$DIMEXE
 40
1.0
  9
$DIMTP
 40
0.0
  9
$DIMTM
 40
0.0
  9
$DIMTXT
 40
3.5
  9
$DIMCEN
 40
1.5
  9
$DIMTSZ
 40
0.0
  9
$DIMTOL
 70
     0
  9
$DIMLIM
 70
     0
  9
$DIMTIH
 70
     0
  9
$DIMTOH
 70
     0
  9
$DIMSE1
 70
     0
  9
$DIMSE2
 70
     0
  9
$DIMTAD
 70
     1
  9
$DIMZIN
 70
     8
  9
$DIMBLK
  1

  9
$DIMASO
 70
     1
  9
$DIMSHO
 70
     0
  9
$DIMPOST
  1

  9
$DIMAPOST
  1

  9
$DIMALT
 70
     0
  9
$DIMALTD
 70
     2
  9
$DIMALTF
 40
25.3999999999999986
  9
$DIMLFAC
 40
2.0
  9
$DIMTOFL
 70
     1
  9
$DIMTVP
 40
0.0
  9
$DIMTIX
 70
     0
  9
$DIMSOXD
 70
     0
  9
$DIMSAH
 70
     0
  9
$DIMBLK1
  1

  9
$DIMBLK2
  1

  9
$DIMSTYLE
  2
STANDARD
  9
$DIMCLRD
 70
     0
  9
$DIMCLRE
 70
     0
  9
$DIMCLRT
 70
     1
  9
$DIMTFAC
 40
0.5
  9
$DIMGAP
 40
1.5
  9
$LUNITS
 70
     2
  9
$LUPREC
 70
     2
  9
$SKETCHINC
 40
1.0
  9
$FILLETRAD
 40
0.0
  9
$AUNITS
 70
     0
  9
$AUPREC
 70
     0
  9
$MENU
  1
ACAD
  9
$ELEVATION
 40
0.0
  9
$PELEVATION
 40
0.0
  9
$THICKNESS
 40
0.0
  9
$LIMCHECK
 70
     0
  9
$BLIPMODE
 70
     0
  9
$CHAMFERA
 40
0.0
  9
$CHAMFERB
 40
0.0
  9
$SKPOLY
 70
     0
  9
$TDCREATE
 40
2455397.8646990740671754
  9
$TDUPDATE
 40
2458963.5671527781523764
  9
$TDINDWG
 40
0.1614508333
  9
$TDUSRTIMER
 40
0.1614508333
  9
$USRTIMER
 70
     1
  9
$ANGBASE
 50
0.0
  9
$ANGDIR
 70
     0
  9
$PDMODE
 70
     0
  9
$PDSIZE
 40
0.0
  9
$PLINEWID
 40
0.0
  9
$COORDS
 70
     1
  9
$SPLFRAME
 70
     0
  9
$SPLINETYPE
 70
     6
  9
$SPLINESEGS
 70
     8
  9
$ATTDIA
 70
     1
  9
$ATTREQ
 70
     1
  9
$HANDLING
 70
     1
  9
$HANDSEED
  5
1915
  9
$SURFTAB1
 70
     6
  9
$SURFTAB2
 70
     6
  9
$SURFTYPE
 70
     6
  9
$SURFU
 70
     6
  9
$SURFV
 70
     6
  9
$UCSNAME
  2

  9
$UCSORG
 10
0.0
 20
0.0
 30
0.0
  9
$UCSXDIR
 10
1.0
 20
0.0
 30
0.0
  9
$UCSYDIR
 10
0.0
 20
1.0
 30
0.0
  9
$PUCSNAME
  2

  9
$PUCSORG
 10
0.0
 20
0.0
 30
0.0
  9
$PUCSXDIR
 10
1.0
 20
0.0
 30
0.0
  9
$PUCSYDIR
 10
0.0
 20
1.0
 30
0.0
  9
$USERI1
 70
     0
  9
$USERI2
 70
     0
  9
$USERI3
 70
     0
  9
$USERI4
 70
     0
  9
$USERI5
 70
     0
  9
$USERR1
 40
0.0
  9
$USERR2
 40
0.0
  9
$USERR3
 40
0.0
  9
$USERR4
 40
0.0
  9
$USERR5
 40
0.0
  9
$WORLDVIEW
 70
     1
  9
$SHADEDGE
 70
     3
  9
$SHADEDIF
 70
    70
  9
$TILEMODE
 70
     1
  9
$MAXACTVP
 70
    16
  9
$PLIMCHECK
 70
     0
  9
$PEXTMIN
 10
1.0000000000000000E+20
 20
1.0000000000000000E+20
 30
1.0000000000000000E+20
  9
$PEXTMAX
 10
-1.0000000000000000E+20
 20
-1.0000000000000000E+20
 30
-1.0000000000000000E+20
  9
$PLIMMIN
 10
124.0233590861396067
 20
-147.0744954161700946
  9
$PLIMMAX
 10
334.0233590861395783
 20
149.9255045838297917
  9
$UNITMODE
 70
     0
  9
$VISRETAIN
 70
     0
  9
$PLINEGEN
 70
     0
  9
$PSLTSCALE
 70
     0
  0
ENDSEC
  0
SECTION
  2
TABLES
  0
TABLE
  2
VPORT
 70
     1
  0
VPORT
  2
*ACTIVE
 70
     0
 10
0.0
 20
0.0
 11
1.0
 21
1.0
 12
-4.1395343830386082
 22
-100.7921086189176947
 13
0.0
 23
0.0
 14
1.0
 24
1.0
 15
10.0
 25
10.0
 16
-0.0000000000003695
 26
0.0
 36
1688.8460290803450334
 17
-193.5461114727307859
 27
518.5075514508023389
 37
-317.7143628645296758
 40
867.7978884781185798
 41
1.7852028639618129
 42
50.0
 43
0.0
 44
0.0
 50
0.0
 51
0.0
 71
     0
 72
  1500
 73
     1
 74
     0
 75
     0
 76
     0
 77
     0
 78
     0
  0
ENDTAB
  0
TABLE
  2
LTYPE
 70
     5
  0
LTYPE
  2
CONTINUOUS
 70
     0
  3
Solid line
 72
    65
 73
     0
 40
0.0
  0
LTYPE
  2
PHANTOM2
 70
     0
  3
Phantom (.5x) ___ _ _ ___ _ _ ___ _ _ ___ _ _
 72
    65
 73
     6
 40
1.25
 49
0.625
 49
-0.125
 49
0.125
 49
-0.125
 49
0.125
 49
-0.125
  0
LTYPE
  2
VERDECKT
 70
     0
  3
Verdeckt __ __ __ __ __ __ __ __ __ __ __ __ __
 72
    65
 73
     2
 40
0.375
 49
0.25
 49
-0.125
  0
ENDTAB
  0
TABLE
  2
LAYER
 70
    12
  0
LAYER
  2
0
 70
     0
 62
     7
  6
CONTINUOUS
  0
LAYER
  2
VOLL
 70
     0
 62
     1
  6
CONTINUOUS
  0
LAYER
  2
STEMPEL
 70
     0
 62
     3
  6
CONTINUOUS
  0
LAYER
  2
DEFPOINTS
 70
     0
 62
     7
  6
CONTINUOUS
  0
LAYER
  2
ADSK_ASSOC_ENTITY_BACKUPS
 70
     1
 62
    -7
  6
CONTINUOUS
  0
ENDTAB
  0
TABLE
  2
STYLE
 70
     4
  0
STYLE
  2
STANDARD
 70
     0
 40
0.0
 41
0.8
 50
0.0
 71
     0
 42
3.5
  3
simplex.shx
  4

  0
STYLE
  2
GREEKS
 70
     0
 40
0.0
 41
0.8
 50
0.0
 71
     0
 42
2.5
  3
SIMPLEX.shx
  4

  0
ENDTAB
  0
TABLE
  2
VIEW
 70
     1
  0
ENDTAB
  0
TABLE
  2
UCS
 70
     0
  0
ENDTAB
  0
TABLE
  2
APPID
 70
    18
  0
APPID
  2
ACAD
 70
     0
  0
APPID
  2
ACAD_NAV_VCDISPLAY
 70
     0
  0
APPID
  2
ACAD_MLEADERVER
 70
     0
  0
APPID
  2
ACAD_EXEMPT_FROM_CAD_STANDARDS
 70
     0
  0
APPID
  2
ACAD_PSEXT
 70
     0
  0
APPID
  2
ACAECLAYERSTANDARD
 70
     0
  0
APPID
  2
ACAUTHENVIRON
 70
     0
  0
APPID
  2
ACCMTRANSPARENCY
 70
     0
  0
APPID
  2
ACSYNERGY
 70
     0
  0
APPID
  2
SYNERGY_BODY_TBR_ID
 70
     0
  0
APPID
  2
ACAD_VIEW_EDGE_ID
 70
     0
  0
APPID
  2
ACSYNERGYSKETCH
 70
     0
  0
APPID
  2
ACAD_DSTYLE_DIMJAG
 70
     0
  0
APPID
  2
ACAD_DSTYLE_DIMTALN
 70
     0
  0
APPID
  2
ACADANNOMONITORALERTICONDI
 70
     0
  0
APPID
  2
GRADIENTCOLOR1ACI
 70
     0
  0
APPID
  2
GRADIENTCOLOR2ACI
 70
     0
  0
APPID
  2
AcDbAttr
 70
     0
  0
ENDTAB
  0
TABLE
  2
DIMSTYLE
 70
     2
  0
DIMSTYLE
  2
STANDARD
 70
     0
  3

  4

  5

  6

  7

 40
1.0
 41
0.18
 42
0.0625
 43
0.38
 44
0.18
 45
0.0
 46
0.0
 47
0.0
 48
0.0
140
0.18
141
0.09
142
0.0
143
25.3999999999999986
144
1.0
145
0.0
146
1.0
147
0.09
 71
     0
 72
     0
 73
     1
 74
     1
 75
     0
 76
     0
 77
     0
 78
     0
170
     0
171
     2
172
     0
173
     0
174
     0
175
     0
176
     0
177
     0
178
     0
  0
ENDTAB
  0
ENDSEC
  0
SECTION
  2
BLOCKS
  0
BLOCK
  8
0
  2
$MODEL_SPACE
 70
     0
 10
0.0
 20
0.0
 30
0.0
  3
$MODEL_SPACE
  1

  0
ENDBLK
  5
36
  8
0
  0
BLOCK
 67
     1
  8
0
  2
$PAPER_SPACE
 70
     0
 10
0.0
 20
0.0
 30
0.0
  3
$PAPER_SPACE
  1

  0
ENDBLK
  5
34
 67
     1
  8
0
  0
BLOCK
  8
0
  2
*S4
 70
     1
 10
0.0
 20
0.0
 30
0.0
  3
*S4
  1

  0
ENDBLK
  5
A3F
  8
0
  0
BLOCK
  8
0
  2
A$CCF1A928D
 70
     0
 10
0.0
 20
0.0
 30
0.0
  3
A$CCF1A928D
  1

  0
CIRCLE
  5
186D
  8
0
  6
CONTINUOUS
 10
-368.361179964007988
 20
514.8679046630858238
 30
-0.0000000000000568
 40
70.2956051978887331
  0
CIRCLE
  5
186E
  8
0
  6
CONTINUOUS
 10
-368.361179964007988
 20
514.8679046630858238
 30
-0.0000000000000568
 40
71.6550668784436766
  0
CIRCLE
  5
186F
  8
0
  6
CONTINUOUS
 10
-368.361179964007988
 20
514.8679046630858238
 30
-0.0000000000000568
 40
69.0000000000000568
  0
CIRCLE
  5
1870
  8
0
  6
CONTINUOUS
 10
-368.361179964007988
 20
514.8679046630858238
 30
-0.0000000000000853
 40
65.0
  0
CIRCLE
  5
1871
  8
0
  6
CONTINUOUS
 10
-368.3611799640082154
 20
514.8679046630858238
 30
-0.0000000000000853
 40
60.9999999999998792
  0
CIRCLE
  5
1872
  8
0
  6
CONTINUOUS
 10
-368.3611799640082154
 20
514.8679046630858238
 30
-0.0000000000000568
 40
59.9558326301758981
  0
CIRCLE
  5
1873
  8
0
  6
CONTINUOUS
 10
-368.361179964007988
 20
514.8679046630858238
 30
-0.0000000000000568
 40
75.0
  0
CIRCLE
  5
1874
  8
0
  6
VERDECKT
 62
     1
 10
-368.361179964007988
 20
514.8679046630858238
 30
-0.0000000000000568
 40
73.5
  0
CIRCLE
  5
1875
  8
0
  6
VERDECKT
 62
     1
 10
-368.3611799640082154
 20
514.8679046630858238
 30
-0.0000000000000568
 40
61.4501246773134469
  0
CIRCLE
  5
1876
  8
0
  6
VERDECKT
 62
     1
 10
-368.3611799640082154
 20
514.8679046630858238
 30
-0.0000000000000853
 40
62.4999999999999432
  0
CIRCLE
  5
1877
  8
0
  6
VERDECKT
 62
     1
 10
-368.361179964007988
 20
514.8679046630858238
 30
-0.0000000000000853
 40
66.5
  0
CIRCLE
  5
1878
  8
0
  6
VERDECKT
 62
     1
 10
-368.361179964007988
 20
514.8679046630858238
 30
-0.0000000000000568
 40
70.5
  0
CIRCLE
  5
1879
  8
0
  6
VERDECKT
 62
     1
 10
-368.3611799640082154
 20
514.8679046630858238
 30
-0.0000000000000853
 40
65.0000020315735725
  0
CIRCLE
  5
187A
  8
0
  6
VERDECKT
 62
     1
 10
-368.3611799640082154
 20
514.8679046630858238
 30
-0.0000000000000853
 40
66.500002031573473
  0
ENDBLK
  5
187C
  8
0
  0
BLOCK
  8
0
  2
A$CB130C1F1
 70
     0
 10
0.0
 20
0.0
 30
0.0
  3
A$CB130C1F1
  1

  0
LINE
  5
1880
  8
0
  6
CONTINUOUS
 10
-296.706117512463095
 20
330.0000000000001137
 30
-0.0000000000000733
 11
-440.0162512693503913
 21
330.0000000000001137
 31
-0.0000000000000733
210
0.0
220
1.0
230
-0.0000000000000002
  0
LINE
  5
1881
  8
0
  6
CONTINUOUS
 10
-306.9110597135933176
 20
-330.0000000000001137
 30
0.0000000000000733
 11
-429.8113090682202255
 21
-330.0000000000001137
 31
0.0000000000000733
210
0.0
220
1.0
230
-0.0000000000000002
  0
LINE
  5
1882
  8
0
  6
CONTINUOUS
 10
-429.8113090682202255
 20
-330.0000000000001137
 30
0.0000000000000733
 11
-430.8098128151452784
 21
-318.587049948143374
 31
0.0000000000000707
210
0.0
220
1.0
230
-0.0000000000000002
  0
LINE
  5
1883
  8
0
  6
CONTINUOUS
 10
-306.9110597135933745
 20
-330.0000000000001137
 30
0.0000000000000733
 11
-305.9125559666683216
 21
-318.587049948143374
 31
0.0000000000000707
210
0.0
220
1.0
230
-0.0000000000000002
  0
ARC
  5
1884
  8
0
  6
CONTINUOUS
 10
319.3611843908918217
 20
-317.4104474210499802
 30
0.0
 40
13.4999999999851106
210
0.0
220
-0.0000000000000002
230
-1.0
 50
179.9999999999996874
 51
185.0000000000055138
  0
ARC
  5
1885
  8
0
  6
CONTINUOUS
 10
417.3611843909217214
 20
-317.4104474210499802
 30
0.0
 40
13.4999999999851106
210
0.0
220
-0.0000000000000002
230
-1.0
 50
354.9999999999943725
 51
0.0000000000002417
  0
LINE
  5
1886
  8
0
  6
CONTINUOUS
 10
-430.8611843909067147
 20
-317.4104474210499234
 30
0.0000000000000705
 11
-430.8611843909067147
 21
-242.0325647725182989
 31
0.0000000000000537
210
0.0
220
1.0
230
-0.0000000000000002
  0
LINE
  5
1887
  8
0
  6
CONTINUOUS
 10
-305.8611843909068284
 20
-317.4104474210499234
 30
0.0000000000000705
 11
-305.8611843909068284
 21
-242.0325647725182137
 31
0.0000000000000537
210
0.0
220
1.0
230
-0.0000000000000002
  0
ARC
  5
1888
  8
0
  6
CONTINUOUS
 10
278.3611843909059189
 20
-242.0325647725184979
 30
0.0
 40
27.5000000000009095
210
0.0
220
-0.0000000000000002
230
-1.0
 50
0.0000000000004834
 51
14.5164788714756003
  0
ARC
  5
1889
  8
0
  6
CONTINUOUS
 10
458.3611843909083063
 20
-242.0325647725184979
 30
0.0
 40
27.5000000000015916
210
0.0
220
-0.0000000000000002
230
-1.0
 50
165.4835211285245862
 51
179.9999999999994031
  0
ARC
  5
188A
  8
0
  6
CONTINUOUS
 10
337.0651564756731773
 20
-210.6260569689110014
 30
0.0
 40
97.7960299468070389
210
0.0
220
-0.0000000000000002
230
-1.0
 50
345.4835211285248988
 51
0.0116786670202329
  0
ARC
  5
188B
  8
0
  6
CONTINUOUS
 10
399.6572123061400816
 20
-210.6260569689110014
 30
0.0
 40
97.7960299468068115
210
0.0
220
-0.0000000000000002
230
-1.0
 50
179.9883213329796945
 51
194.5164788714751012
  0
LINE
  5
188C
  8
0
  6
CONTINUOUS
 10
-434.8611843909067147
 20
-210.60612308771681
 30
0.0000000000000468
 11
-434.8611843909067147
 21
249.3265837989407032
 31
-0.0000000000000554
210
0.0
220
1.0
230
-0.0000000000000002
  0
LINE
  5
188D
  8
0
  6
CONTINUOUS
 10
-301.8611843909067147
 20
-210.60612308771681
 30
0.0000000000000468
 11
-301.8611843909067147
 21
249.3265837989407032
 31
-0.0000000000000554
210
0.0
220
1.0
230
-0.0000000000000002
  0
ARC
  5
188E
  8
0
  6
CONTINUOUS
 10
291.8611843909088179
 20
249.3265837989407885
 30
0.0
 40
9.9999999999979536
210
0.0
220
-0.0000000000000002
230
-1.0
 50
359.9999999999993179
 51
31.5863380965292606
  0
ARC
  5
188F
  8
0
  6
CONTINUOUS
 10
444.8611843909047252
 20
249.3265837989407885
 30
0.0
 40
9.9999999999979572
210
0.0
220
-0.0000000000000002
230
-1.0
 50
148.413661903470711
 51
180.0000000000005969
  0
ARC
  5
1890
  8
0
  6
CONTINUOUS
 10
314.8611843909062031
 20
263.4687194226711995
 30
0.0
 40
16.9999999999994884
210
0.0
220
-0.0000000000000002
230
-1.0
 50
179.999999999999801
 51
211.5863380965298859
  0
ARC
  5
1891
  8
0
  6
CONTINUOUS
 10
421.8611843909072832
 20
263.4687194226711995
 30
0.0
 40
16.9999999999994813
210
0.0
220
-0.0000000000000002
230
-1.0
 50
328.413661903469972
 51
0.0000000000001908
  0
LINE
  5
1892
  8
0
  6
CONTINUOUS
 10
-438.8611843909067147
 20
263.4687194226711995
 30
-0.0000000000000585
 11
-438.8611843909067147
 21
287.0
 31
-0.0000000000000637
210
0.0
220
1.0
230
-0.0000000000000002
  0
LINE
  5
1893
  8
0
  6
CONTINUOUS
 10
-297.8611843909068284
 20
263.4687194226711995
 30
-0.0000000000000585
 11
-297.8611843909068284
 21
287.0
 31
-0.0000000000000637
210
0.0
220
1.0
230
-0.0000000000000002
  0
ARC
  5
1894
  8
0
  6
CONTINUOUS
 10
278.8611843909071126
 20
287.0
 30
0.0
 40
18.9999999999997087
210
0.0
220
-0.0000000000000002
230
-1.0
 50
359.9999999999996021
 51
24.7725043301420698
  0
ARC
  5
1895
  8
0
  6
CONTINUOUS
 10
457.8611843909063737
 20
287.0
 30
0.0
 40
18.9999999999997193
210
0.0
220
-0.0000000000000002
230
-1.0
 50
155.2274956698578876
 51
180.0000000000003126
  0
ARC
  5
1896
  8
0
  6
CONTINUOUS
 10
322.3611843909075105
 20
307.2910000000003947
 30
0.0
 40
29.000000000000739
210
0.0
220
-0.0000000000000002
230
-1.0
 50
180.0000000000005116
 51
205.1608969230433104
  0
ARC
  5
1897
  8
0
  6
CONTINUOUS
 10
414.3611843909059758
 20
307.2910000000003947
 30
0.0
 40
29.0000000000007496
210
0.0
220
-0.0000000000000002
230
-1.0
 50
334.8391030769565759
 51
359.9999999999993747
  0
LINE
  5
1898
  8
0
  6
CONTINUOUS
 10
-443.3611843909067147
 20
307.2910000000001105
 30
-0.0000000000000682
 11
-443.3611843909067147
 21
316.3976225555356905
 31
-0.0000000000000703
210
0.0
220
1.0
230
-0.0000000000000002
  0
LINE
  5
1899
  8
0
  6
CONTINUOUS
 10
-293.3611843909068284
 20
307.2910000000001105
 30
-0.0000000000000682
 11
-293.3611843909068284
 21
316.3976225555356905
 31
-0.0000000000000703
210
0.0
220
1.0
230
-0.0000000000000002
  0
ARC
  5
189A
  8
0
  6
CONTINUOUS
 10
322.3611843909068284
 20
316.3976225555356905
 30
0.0
 40
29.0000000000000107
210
0.0
220
-0.0000000000000002
230
-1.0
 50
155.0000000000028137
 51
180.0
  0
ARC
  5
189B
  8
0
  6
CONTINUOUS
 10
414.3611843909067147
 20
316.3976225555356905
 30
0.0
 40
29.0
210
0.0
220
-0.0000000000000002
230
-1.0
 50
0.0
 51
24.9999999999972289
  0
LINE
  5
189C
  8
0
  6
CONTINUOUS
 10
-296.7061175124629813
 20
330.0000000000001137
 30
-0.0000000000000733
 11
-296.0782585668433171
 21
328.6535521460148175
 31
-0.000000000000073
210
0.0
220
1.0
230
-0.0000000000000002
  0
LINE
  5
189D
  8
0
  6
CONTINUOUS
 10
-440.016251269350505
 20
330.0000000000001137
 30
-0.0000000000000733
 11
-440.644110214970226
 21
328.6535521460148175
 31
-0.000000000000073
210
0.0
220
1.0
230
-0.0000000000000002
  0
LINE
  5
189E
  8
0
  6
VERDECKT
 62
     1
 10
-298.0655791930179817
 20
329.3660726073891283
 30
-0.0000000000000731
 11
-438.6567895887955046
 21
329.3660726073891283
 31
-0.0000000000000731
210
0.0
220
1.0
230
-0.0000000000000002
  0
LINE
  5
189F
  8
0
  6
VERDECKT
 62
     1
 10
-308.4053517607309232
 20
-329.869266385878575
 30
0.0000000000000732
 11
-428.31701702108262
 21
-329.869266385878575
 31
0.0000000000000732
210
0.0
220
1.0
230
-0.0000000000000002
  0
LINE
  5
18A0
  8
0
  6
VERDECKT
 62
     1
 10
-438.6567895887955046
 20
329.3660726073891283
 30
-0.0000000000000731
 11
-440.0162512693503913
 21
330.0000000000001137
 31
-0.0000000000000733
210
0.0
220
1.0
230
-0.0000000000000002
  0
LINE
  5
18A1
  8
0
  6
VERDECKT
 62
     1
 10
-298.0655791930179817
 20
329.3660726073891283
 30
-0.0000000000000731
 11
-296.706117512463095
 21
330.0000000000001137
 31
-0.0000000000000733
210
0.0
220
1.0
230
-0.0000000000000002
  0
LINE
  5
18A2
  8
0
  6
VERDECKT
 62
     1
 10
-298.0655791930180953
 20
329.3660726073891283
 30
-0.0000000000000731
 11
-297.4377202473992838
 21
328.0196247534058216
 31
-0.0000000000000728
210
0.0
220
1.0
230
-0.0000000000000002
  0
LINE
  5
18A3
  8
0
  6
VERDECKT
 62
     1
 10
-438.656789588795391
 20
329.3660726073891283
 30
-0.0000000000000731
 11
-439.2846485344143161
 21
328.0196247534058216
 31
-0.0000000000000728
210
0.0
220
1.0
230
-0.0000000000000002
  0
ARC
  5
18A4
  8
0
  6
VERDECKT
 62
     1
 10
322.3611843909083063
 20
316.39762255553552
 30
0.0
 40
27.5000000000015987
210
0.0
220
-0.0000000000000002
230
-1.0
 50
154.9999999999990905
 51
179.999999999999801
  0
ARC
  5
18A5
  8
0
  6
VERDECKT
 62
     1
 10
414.3611843909051231
 20
316.39762255553552
 30
0.0
 40
27.5000000000015916
210
0.0
220
-0.0000000000000002
230
-1.0
 50
0.0
 51
25.0000000000006715
  0
LINE
  5
18A6
  8
0
  6
VERDECKT
 62
     1
 10
-441.8611843909068284
 20
307.2910000000002242
 30
-0.0000000000000682
 11
-441.8611843909068284
 21
316.3976225555355768
 31
-0.0000000000000703
210
0.0
220
1.0
230
-0.0000000000000002
  0
LINE
  5
18A7
  8
0
  6
VERDECKT
 62
     1
 10
-294.8611843909068284
 20
307.2910000000002242
 30
-0.0000000000000682
 11
-294.8611843909068284
 21
316.3976225555355768
 31
-0.0000000000000703
210
0.0
220
1.0
230
-0.0000000000000002
  0
ARC
  5
18A8
  8
0
  6
VERDECKT
 62
     1
 10
322.3611843909075105
 20
307.2910000000002242
 30
0.0
 40
27.500000000000739
210
0.0
220
-0.0000000000000002
230
-1.0
 50
179.9999999999998863
 51
204.8431689300439871
  0
ARC
  5
18A9
  8
0
  6
VERDECKT
 62
     1
 10
414.3611843909059189
 20
307.2910000000002242
 30
0.0
 40
27.5000000000007887
210
0.0
220
-0.0000000000000002
230
-1.0
 50
335.1568310699561266
 51
0.0000000000001145
  0
ARC
  5
18AA
  8
0
  6
VERDECKT
 62
     1
 10
278.8611843909063168
 20
287.0
 30
0.0
 40
20.5000000000004583
210
0.0
220
-0.0000000000000002
230
-1.0
 50
359.9999999999997726
 51
25.2271443659096306
  0
ARC
  5
18AB
  8
0
  6
VERDECKT
 62
     1
 10
457.8611843909072263
 20
287.0
 30
0.0
 40
20.5000000000004512
210
0.0
220
-0.0000000000000002
230
-1.0
 50
154.7728556340902912
 51
180.0000000000001137
  0
LINE
  5
18AC
  8
0
  6
VERDECKT
 62
     1
 10
-437.3611843909067147
 20
263.4687194226709721
 30
-0.0000000000000585
 11
-437.3611843909067147
 21
287.0
 31
-0.0000000000000637
210
0.0
220
1.0
230
-0.0000000000000002
  0
LINE
  5
18AD
  8
0
  6
VERDECKT
 62
     1
 10
-299.3611843909068284
 20
263.4687194226709721
 30
-0.0000000000000585
 11
-299.3611843909068284
 21
287.0
 31
-0.0000000000000637
210
0.0
220
1.0
230
-0.0000000000000002
  0
ARC
  5
18AE
  8
0
  6
VERDECKT
 62
     1
 10
314.8611843909050094
 20
263.4687194226708016
 30
0.0
 40
15.4999999999982396
210
0.0
220
-0.0000000000000002
230
-1.0
 50
179.9999999999996021
 51
211.5863380965290048
  0
ARC
  5
18AF
  8
0
  6
VERDECKT
 62
     1
 10
421.8611843909084769
 20
263.4687194226708016
 30
0.0
 40
15.4999999999982396
210
0.0
220
-0.0000000000000002
230
-1.0
 50
328.4136619034708815
 51
0.0000000000004198
  0
ARC
  5
18B0
  8
0
  6
VERDECKT
 62
     1
 10
291.8611843909068284
 20
249.3265837989405043
 30
0.0
 40
11.4999999999999396
210
0.0
220
-0.0000000000000002
230
-1.0
 50
359.9999999999992042
 51
31.5863380965285003
  0
ARC
  5
18B1
  8
0
  6
VERDECKT
 62
     1
 10
444.8611843909067147
 20
249.3265837989405043
 30
0.0
 40
11.4999999999999396
210
0.0
220
-0.0000000000000002
230
-1.0
 50
148.4136619034715068
 51
180.0000000000005969
  0
LINE
  5
18B2
  8
0
  6
VERDECKT
 62
     1
 10
-433.3611843909068284
 20
-210.6062765512087935
 30
0.0000000000000468
 11
-433.3611843909068284
 21
249.3265837989403906
 31
-0.0000000000000554
210
0.0
220
1.0
230
-0.0000000000000002
  0
LINE
  5
18B3
  8
0
  6
VERDECKT
 62
     1
 10
-303.3611843909067147
 20
-210.6062765512087935
 30
0.0000000000000468
 11
-303.3611843909067147
 21
249.3265837989403906
 31
-0.0000000000000554
210
0.0
220
1.0
230
-0.0000000000000002
  0
ARC
  5
18B4
  8
0
  6
VERDECKT
 62
     1
 10
337.0651564756740868
 20
-210.6260569689106035
 30
0.0
 40
96.2960299468062573
210
0.0
220
-0.0000000000000002
230
-1.0
 50
345.4835211285243872
 51
0.0117692750149522
  0
ARC
  5
18B5
  8
0
  6
VERDECKT
 62
     1
 10
399.6572123061388879
 20
-210.6260569689106035
 30
0.0
 40
96.2960299468057457
210
0.0
220
-0.0000000000000002
230
-1.0
 50
179.9882307249849873
 51
194.5164788714756128
  0
ARC
  5
18B6
  8
0
  6
VERDECKT
 62
     1
 10
278.3611843909072832
 20
-242.0325647725184979
 30
0.0
 40
28.9999999999995985
210
0.0
220
-0.0000000000000002
230
-1.0
 50
0.0000000000005598
 51
14.5164788714761404
  0
ARC
  5
18B7
  8
0
  6
VERDECKT
 62
     1
 10
458.3611843909067147
 20
-242.0325647725186116
 30
0.0
 40
29.0000000000000604
210
0.0
220
-0.0000000000000002
230
-1.0
 50
165.4835211285239041
 51
179.9999999999994031
  0
LINE
  5
18B8
  8
0
  6
VERDECKT
 62
     1
 10
-429.3611843909067147
 20
-317.4104474210499802
 30
0.0000000000000705
 11
-429.3611843909067147
 21
-242.0325647725182989
 31
0.0000000000000537
210
0.0
220
1.0
230
-0.0000000000000002
  0
LINE
  5
18B9
  8
0
  6
VERDECKT
 62
     1
 10
-307.3611843909068284
 20
-317.4104474210499802
 30
0.0000000000000705
 11
-307.3611843909068284
 21
-242.0325647725182137
 31
0.0000000000000537
210
0.0
220
1.0
230
-0.0000000000000002
  0
ARC
  5
18BA
  8
0
  6
VERDECKT
 62
     1
 10
319.3611843909311006
 20
-317.410447421048616
 30
0.0
 40
12.0000000000242704
210
0.0
220
-0.0000000000000002
230
-1.0
 50
180.0000000000069065
 51
184.9999999999971863
  0
ARC
  5
18BB
  8
0
  6
VERDECKT
 62
     1
 10
417.3611843908823857
 20
-317.410447421048616
 30
0.0
 40
12.0000000000242704
210
0.0
220
-0.0000000000000002
230
-1.0
 50
355.0000000000026716
 51
359.9999999999928946
  0
LINE
  5
18BC
  8
0
  6
VERDECKT
 62
     1
 10
-428.31701702108262
 20
-329.869266385878575
 30
0.0000000000000732
 11
-429.3155207680076728
 21
-318.4563163340220058
 31
0.0000000000000707
210
0.0
220
1.0
230
-0.0000000000000002
  0
LINE
  5
18BD
  8
0
  6
VERDECKT
 62
     1
 10
-308.4053517607309232
 20
-329.869266385878575
 30
0.0000000000000732
 11
-307.4068480138059272
 21
-318.4563163340220058
 31
0.0000000000000707
210
0.0
220
1.0
230
-0.0000000000000002
  0
LINE
  5
18BE
  8
0
  6
VERDECKT
 62
     1
 10
-308.4053517607309232
 20
-329.869266385878575
 30
0.0000000000000732
 11
-306.9110597135933176
 21
-330.0000000000001137
 31
0.0000000000000733
210
0.0
220
1.0
230
-0.0000000000000002
  0
LINE
  5
18BF
  8
0
  6
VERDECKT
 62
     1
 10
-428.31701702108262
 20
-329.869266385878575
 30
0.0000000000000732
 11
-429.8113090682202255
 21
-330.0000000000001137
 31
0.0000000000000733
210
0.0
220
1.0
230
-0.0000000000000002
  0
ENDBLK
  5
18C1
  8
0
  0
ENDSEC
  0
SECTION
  2
ENTITIES
  0
TEXT
  5
8F
  8
VOLL
 10
78.076754716981128
 20
31.025947764705851
 30
0.0
 40
1.8
  1

  7
GREEKS
  0
INSERT
  5
A41
  8
ADSK_ASSOC_ENTITY_BACKUPS
  2
*S4
 10
0.0
 20
0.0
 30
0.0
  0
INSERT
  5
187D
  8
STEMPEL
  2
A$CCF1A928D
 10
170.6944770520319992
 20
-452.9137795588849258
 30
-305.5594593431807198
  0
INSERT
  5
18C2
  8
STEMPEL
  2
A$CB130C1F1
 10
170.6944814789306122
 20
518.5075514508023389
 30
-305.5594593431807766
  0
VIEWPORT
  5
A20
 67
     1
  8
0
 10
229.0233590861396067
 20
1.4255045838298761
 30
0.0
 40
533.9969448798291296
 41
299.1239570917758783
 68
     1
 69
     1
1001
ACAD
1000
MVIEW
1002
{
1070
    16
1010
0.0
1020
0.0
1030
0.0
1010
0.0
1020
0.0
1030
1.0
1040
0.0
1040
299.1239570917758783
1040
229.0233590861396067
1040
1.4255045838298761
1040
50.0
1040
0.0
1040
0.0
1070
     0
1070
  1500
1070
     1
1070
     1
1070
     0
1070
     0
1070
     0
1070
     0
1040
0.0
1040
0.0
1040
0.0
1040
10.0
1040
10.0
1040
10.0
1040
10.0
1070
     0
1002
{
1002
}
1002
}
  0
ENDSEC
  0
EOF
