  0
SECTION
  2
HEADER
  9
$ACADVER
  1
AC1009
  9
$INSBASE
 10
0.0
 20
0.0
 30
0.0
  9
$EXTMIN
 10
161.7366132901368019
 20
-586.2396220262701263
 30
-20.1470653218990989
  9
$EXTMAX
 10
277.7359108343163143
 20
241.1995800233549119
 30
-20.1470653218989213
  9
$LIMMIN
 10
0.0
 20
0.0
  9
$LIMMAX
 10
210.0
 20
297.0
  9
$ORTHOMODE
 70
     1
  9
$REGENMODE
 70
     1
  9
$FILLMODE
 70
     1
  9
$QTEXTMODE
 70
     0
  9
$MIRRTEXT
 70
     1
  9
$DRAGMODE
 70
     2
  9
$LTSCALE
 40
10.0
  9
$OSMODE
 70
  2495
  9
$ATTMODE
 70
     1
  9
$TEXTSIZE
 40
3.5
  9
$TRACEWID
 40
0.5
  9
$TEXTSTYLE
  7
STANDARD
  9
$CLAYER
  8
STEMPEL
  9
$CELTYPE
  6
BYLAYER
  9
$CECOLOR
 62
   256
  9
$DIMSCALE
 40
1.0
  9
$DIMASZ
 40
3.5
  9
$DIMEXO
 40
1.0
  9
$DIMDLI
 40
7.0
  9
$DIMRND
 40
0.0
  9
$DIMDLE
 40
0.0
  9
$DIMEXE
 40
1.0
  9
$DIMTP
 40
0.0
  9
$DIMTM
 40
0.0
  9
$DIMTXT
 40
3.5
  9
$DIMCEN
 40
1.5
  9
$DIMTSZ
 40
0.0
  9
$DIMTOL
 70
     0
  9
$DIMLIM
 70
     0
  9
$DIMTIH
 70
     0
  9
$DIMTOH
 70
     0
  9
$DIMSE1
 70
     0
  9
$DIMSE2
 70
     0
  9
$DIMTAD
 70
     1
  9
$DIMZIN
 70
     8
  9
$DIMBLK
  1

  9
$DIMASO
 70
     1
  9
$DIMSHO
 70
     0
  9
$DIMPOST
  1

  9
$DIMAPOST
  1

  9
$DIMALT
 70
     0
  9
$DIMALTD
 70
     2
  9
$DIMALTF
 40
25.3999999999999986
  9
$DIMLFAC
 40
2.0
  9
$DIMTOFL
 70
     1
  9
$DIMTVP
 40
0.0
  9
$DIMTIX
 70
     0
  9
$DIMSOXD
 70
     0
  9
$DIMSAH
 70
     0
  9
$DIMBLK1
  1

  9
$DIMBLK2
  1

  9
$DIMSTYLE
  2
STANDARD
  9
$DIMCLRD
 70
     0
  9
$DIMCLRE
 70
     0
  9
$DIMCLRT
 70
     1
  9
$DIMTFAC
 40
0.5
  9
$DIMGAP
 40
1.5
  9
$LUNITS
 70
     2
  9
$LUPREC
 70
     2
  9
$SKETCHINC
 40
1.0
  9
$FILLETRAD
 40
11.1999999999999993
  9
$AUNITS
 70
     0
  9
$AUPREC
 70
     0
  9
$MENU
  1
ACAD
  9
$ELEVATION
 40
0.0
  9
$PELEVATION
 40
0.0
  9
$THICKNESS
 40
0.0
  9
$LIMCHECK
 70
     0
  9
$BLIPMODE
 70
     0
  9
$CHAMFERA
 40
0.0
  9
$CHAMFERB
 40
0.0
  9
$SKPOLY
 70
     0
  9
$TDCREATE
 40
2455397.8646990740671754
  9
$TDUPDATE
 40
2458963.5620138891972601
  9
$TDINDWG
 40
0.1335688889
  9
$TDUSRTIMER
 40
0.1335688889
  9
$USRTIMER
 70
     1
  9
$ANGBASE
 50
0.0
  9
$ANGDIR
 70
     0
  9
$PDMODE
 70
     0
  9
$PDSIZE
 40
0.0
  9
$PLINEWID
 40
0.0
  9
$COORDS
 70
     1
  9
$SPLFRAME
 70
     0
  9
$SPLINETYPE
 70
     6
  9
$SPLINESEGS
 70
     8
  9
$ATTDIA
 70
     1
  9
$ATTREQ
 70
     1
  9
$HANDLING
 70
     1
  9
$HANDSEED
  5
1543
  9
$SURFTAB1
 70
     6
  9
$SURFTAB2
 70
     6
  9
$SURFTYPE
 70
     6
  9
$SURFU
 70
     6
  9
$SURFV
 70
     6
  9
$UCSNAME
  2

  9
$UCSORG
 10
0.0
 20
0.0
 30
0.0
  9
$UCSXDIR
 10
1.0
 20
0.0
 30
0.0
  9
$UCSYDIR
 10
0.0
 20
1.0
 30
0.0
  9
$PUCSNAME
  2

  9
$PUCSORG
 10
0.0
 20
0.0
 30
0.0
  9
$PUCSXDIR
 10
1.0
 20
0.0
 30
0.0
  9
$PUCSYDIR
 10
0.0
 20
1.0
 30
0.0
  9
$USERI1
 70
     0
  9
$USERI2
 70
     0
  9
$USERI3
 70
     0
  9
$USERI4
 70
     0
  9
$USERI5
 70
     0
  9
$USERR1
 40
0.0
  9
$USERR2
 40
0.0
  9
$USERR3
 40
0.0
  9
$USERR4
 40
0.0
  9
$USERR5
 40
0.0
  9
$WORLDVIEW
 70
     1
  9
$SHADEDGE
 70
     3
  9
$SHADEDIF
 70
    70
  9
$TILEMODE
 70
     1
  9
$MAXACTVP
 70
    16
  9
$PLIMCHECK
 70
     0
  9
$PEXTMIN
 10
1.0000000000000000E+20
 20
1.0000000000000000E+20
 30
1.0000000000000000E+20
  9
$PEXTMAX
 10
-1.0000000000000000E+20
 20
-1.0000000000000000E+20
 30
-1.0000000000000000E+20
  9
$PLIMMIN
 10
124.0233590861396067
 20
-147.0744954161700946
  9
$PLIMMAX
 10
334.0233590861395783
 20
149.9255045838297917
  9
$UNITMODE
 70
     0
  9
$VISRETAIN
 70
     0
  9
$PLINEGEN
 70
     0
  9
$PSLTSCALE
 70
     0
  0
ENDSEC
  0
SECTION
  2
TABLES
  0
TABLE
  2
VPORT
 70
     1
  0
VPORT
  2
*ACTIVE
 70
     0
 10
0.0
 20
0.0
 11
1.0
 21
1.0
 12
1.541310707993375
 22
-83.7264522211016811
 13
0.0
 23
0.0
 14
1.0
 24
1.0
 15
10.0
 25
10.0
 16
-0.0000000000003695
 26
0.0
 36
1668.4690118793880629
 17
218.1949513542330976
 27
-88.7935687803559404
 37
-10.0735326609495299
 40
833.356526498132439
 41
1.7852028639618129
 42
50.0
 43
0.0
 44
0.0
 50
0.0
 51
0.0
 71
     0
 72
  1500
 73
     1
 74
     0
 75
     0
 76
     0
 77
     0
 78
     0
  0
ENDTAB
  0
TABLE
  2
LTYPE
 70
     5
  0
LTYPE
  2
CONTINUOUS
 70
     0
  3
Solid line
 72
    65
 73
     0
 40
0.0
  0
LTYPE
  2
PHANTOM2
 70
     0
  3
Phantom (.5x) ___ _ _ ___ _ _ ___ _ _ ___ _ _
 72
    65
 73
     6
 40
1.25
 49
0.625
 49
-0.125
 49
0.125
 49
-0.125
 49
0.125
 49
-0.125
  0
LTYPE
  2
VERDECKT
 70
     0
  3
Verdeckt __ __ __ __ __ __ __ __ __ __ __ __ __
 72
    65
 73
     2
 40
0.375
 49
0.25
 49
-0.125
  0
ENDTAB
  0
TABLE
  2
LAYER
 70
    12
  0
LAYER
  2
0
 70
     0
 62
     7
  6
CONTINUOUS
  0
LAYER
  2
VOLL
 70
     0
 62
     1
  6
CONTINUOUS
  0
LAYER
  2
STEMPEL
 70
     0
 62
     3
  6
CONTINUOUS
  0
LAYER
  2
DEFPOINTS
 70
     0
 62
     7
  6
CONTINUOUS
  0
LAYER
  2
ADSK_ASSOC_ENTITY_BACKUPS
 70
     1
 62
    -7
  6
CONTINUOUS
  0
ENDTAB
  0
TABLE
  2
STYLE
 70
     4
  0
STYLE
  2
STANDARD
 70
     0
 40
0.0
 41
0.8
 50
0.0
 71
     0
 42
3.5
  3
simplex.shx
  4

  0
STYLE
  2
GREEKS
 70
     0
 40
0.0
 41
0.8
 50
0.0
 71
     0
 42
2.5
  3
SIMPLEX.shx
  4

  0
ENDTAB
  0
TABLE
  2
VIEW
 70
     1
  0
ENDTAB
  0
TABLE
  2
UCS
 70
     0
  0
ENDTAB
  0
TABLE
  2
APPID
 70
    18
  0
APPID
  2
ACAD
 70
     0
  0
APPID
  2
ACAD_NAV_VCDISPLAY
 70
     0
  0
APPID
  2
ACAD_MLEADERVER
 70
     0
  0
APPID
  2
ACAD_EXEMPT_FROM_CAD_STANDARDS
 70
     0
  0
APPID
  2
ACAD_PSEXT
 70
     0
  0
APPID
  2
ACAECLAYERSTANDARD
 70
     0
  0
APPID
  2
ACAUTHENVIRON
 70
     0
  0
APPID
  2
ACCMTRANSPARENCY
 70
     0
  0
APPID
  2
ACSYNERGY
 70
     0
  0
APPID
  2
SYNERGY_BODY_TBR_ID
 70
     0
  0
APPID
  2
ACAD_VIEW_EDGE_ID
 70
     0
  0
APPID
  2
ACSYNERGYSKETCH
 70
     0
  0
APPID
  2
ACAD_DSTYLE_DIMJAG
 70
     0
  0
APPID
  2
ACAD_DSTYLE_DIMTALN
 70
     0
  0
APPID
  2
ACADANNOMONITORALERTICONDI
 70
     0
  0
APPID
  2
GRADIENTCOLOR1ACI
 70
     0
  0
APPID
  2
GRADIENTCOLOR2ACI
 70
     0
  0
APPID
  2
AcDbAttr
 70
     0
  0
ENDTAB
  0
TABLE
  2
DIMSTYLE
 70
     2
  0
DIMSTYLE
  2
STANDARD
 70
     0
  3

  4

  5

  6

  7

 40
1.0
 41
0.18
 42
0.0625
 43
0.38
 44
0.18
 45
0.0
 46
0.0
 47
0.0
 48
0.0
140
0.18
141
0.09
142
0.0
143
25.3999999999999986
144
1.0
145
0.0
146
1.0
147
0.09
 71
     0
 72
     0
 73
     1
 74
     1
 75
     0
 76
     0
 77
     0
 78
     0
170
     0
171
     2
172
     0
173
     0
174
     0
175
     0
176
     0
177
     0
178
     0
  0
ENDTAB
  0
ENDSEC
  0
SECTION
  2
BLOCKS
  0
BLOCK
  8
0
  2
$MODEL_SPACE
 70
     0
 10
0.0
 20
0.0
 30
0.0
  3
$MODEL_SPACE
  1

  0
ENDBLK
  5
36
  8
0
  0
BLOCK
 67
     1
  8
0
  2
$PAPER_SPACE
 70
     0
 10
0.0
 20
0.0
 30
0.0
  3
$PAPER_SPACE
  1

  0
ENDBLK
  5
34
 67
     1
  8
0
  0
BLOCK
  8
0
  2
*S4
 70
     1
 10
0.0
 20
0.0
 30
0.0
  3
*S4
  1

  0
ENDBLK
  5
A3F
  8
0
  0
BLOCK
  8
0
  2
A$C96CA3C7F
 70
     0
 10
0.0
 20
0.0
 30
0.0
  3
A$C96CA3C7F
  1

  0
CIRCLE
  5
149C
  8
0
  6
CONTINUOUS
 10
68.5612248514459708
 20
-72.441078102536224
 30
0.0
 40
53.5424185619151487
  0
CIRCLE
  5
149D
  8
0
  6
CONTINUOUS
 10
68.5612248514459708
 20
-72.441078102536224
 30
0.0
 40
54.6299879063592968
  0
CIRCLE
  5
149E
  8
0
  6
CONTINUOUS
 10
68.5612248514458287
 20
-72.4410781025362667
 30
0.0
 40
45.9296797270306385
  0
CIRCLE
  5
149F
  8
0
  6
CONTINUOUS
 10
68.5612248514458429
 20
-72.4410781025362525
 30
0.0000000000000284
 40
46.8000000000000611
  0
CIRCLE
  5
14A0
  8
0
  6
CONTINUOUS
 10
68.5612248514459566
 20
-72.441078102536224
 30
0.0000000000000284
 40
49.6000000000000227
  0
CIRCLE
  5
14A1
  8
0
  6
CONTINUOUS
 10
68.5612248514459566
 20
-72.441078102536224
 30
0.0
 40
52.7995501064834798
  0
CIRCLE
  5
14A2
  8
0
  6
CONTINUOUS
 10
68.5612248514459708
 20
-72.441078102536224
 30
0.0
 40
57.999648772089671
  0
CIRCLE
  5
14A3
  8
0
  6
VERDECKT
 62
     1
 10
68.5612248514459708
 20
-72.441078102536224
 30
0.0
 40
56.799550106483423
  0
CIRCLE
  5
14A4
  8
0
  6
VERDECKT
 62
     1
 10
68.5612248514459708
 20
-72.441078102536224
 30
0.0
 40
57.9995501064834613
  0
CIRCLE
  5
14A5
  8
0
  6
VERDECKT
 62
     1
 10
68.5612248514459566
 20
-72.441078102536224
 30
0.0
 40
53.9995501064834684
  0
CIRCLE
  5
14A6
  8
0
  6
VERDECKT
 62
     1
 10
68.5612248514459566
 20
-72.441078102536224
 30
0.0000000000000284
 40
50.8000000000000114
  0
CIRCLE
  5
14A7
  8
0
  6
VERDECKT
 62
     1
 10
68.5612248514458429
 20
-72.4410781025362525
 30
0.0000000000000284
 40
48.0000000000001066
  0
CIRCLE
  5
14A8
  8
0
  6
VERDECKT
 62
     1
 10
68.5612248514458287
 20
-72.4410781025362667
 30
0.0
 40
47.1251133647407414
  0
ENDBLK
  5
14AA
  8
0
  0
BLOCK
  8
0
  2
A$CF6B045AE
 70
     0
 10
0.0
 20
0.0
 30
0.0
  3
A$CF6B045AE
  1

  0
LINE
  5
14AE
  8
0
  6
CONTINUOUS
 10
13.9312369450865905
 20
314.9999999999998863
 30
-0.0000000000000699
 11
123.1912127578052036
 21
314.9999999999998863
 31
-0.0000000000000699
210
0.0
220
1.0
230
-0.0000000000000002
  0
LINE
  5
14AF
  8
0
  6
CONTINUOUS
 10
21.4361114867051583
 20
-344.9863088306418035
 30
0.0000000000000766
 11
115.6863382161865985
 21
-344.9863088306418035
 31
0.0000000000000766
210
0.0
220
1.0
230
-0.0000000000000002
  0
LINE
  5
14B0
  8
0
  6
CONTINUOUS
 10
123.1912127578052036
 20
314.9999999999998863
 30
-0.0000000000000699
 11
124.2934234042163979
 21
312.6363016409118245
 31
-0.0000000000000694
210
0.0
220
1.0
230
-0.0000000000000002
  0
LINE
  5
14B1
  8
0
  6
CONTINUOUS
 10
13.9312369450865905
 20
314.9999999999998863
 30
-0.0000000000000699
 11
12.8290262986753891
 21
312.6363016409118245
 31
-0.0000000000000694
210
0.0
220
1.0
230
-0.0000000000000002
  0
ARC
  5
14B2
  8
0
  6
CONTINUOUS
 10
-34.7626291616020566
 20
302.4084946549986057
 30
0.0
 40
24.2010530822458385
210
0.0
220
-0.0000000000000002
230
-1.0
 50
359.8363923751401217
 51
25.0000000000002309
  0
ARC
  5
14B3
  8
0
  6
CONTINUOUS
 10
-102.3598205412898068
 20
302.4084946549986057
 30
0.0
 40
24.2010530822457817
210
0.0
220
-0.0000000000000002
230
-1.0
 50
154.9999999999996874
 51
180.1636076248597931
  0
LINE
  5
14B4
  8
0
  6
CONTINUOUS
 10
126.5607749579292971
 20
302.339388841852724
 30
-0.0000000000000671
 11
126.5607749579292971
 21
287.2466911693582006
 31
-0.0000000000000638
210
0.0
220
1.0
230
-0.0000000000000002
  0
LINE
  5
14B5
  8
0
  6
CONTINUOUS
 10
10.5616747449624295
 20
302.339388841852724
 30
-0.0000000000000671
 11
10.5616747449624295
 21
287.2466911693582006
 31
-0.0000000000000638
210
0.0
220
1.0
230
-0.0000000000000002
  0
ARC
  5
14B6
  8
0
  6
CONTINUOUS
 10
-34.7616747449626331
 20
287.2466911693584279
 30
0.0
 40
24.2000000000002089
210
0.0
220
-0.0000000000000002
230
-1.0
 50
333.1119523822753195
 51
359.9999999999993747
  0
ARC
  5
14B7
  8
0
  6
CONTINUOUS
 10
-102.3607749579289958
 20
287.2466911693584279
 30
0.0
 40
24.2000000000003297
210
0.0
220
-0.0000000000000002
230
-1.0
 50
180.0000000000005116
 51
206.88804761772451
  0
ARC
  5
14B8
  8
0
  6
CONTINUOUS
 10
-1.7616747449627781
 20
270.5134906386767284
 30
0.0
 40
12.7999999999996792
210
0.0
220
-0.0000000000000002
230
-1.0
 50
153.1119523822760868
 51
179.9999999999992042
  0
ARC
  5
14B9
  8
0
  6
CONTINUOUS
 10
-135.3607749579290953
 20
270.5134906386766147
 30
0.0
 40
12.7999999999997698
210
0.0
220
-0.0000000000000002
230
-1.0
 50
0.0000000000010178
 51
26.8880476177239593
  0
LINE
  5
14BA
  8
0
  6
CONTINUOUS
 10
122.5607749579292971
 20
270.5134906386767852
 30
-0.0000000000000601
 11
122.5607749579292971
 21
251.9411800463059024
 31
-0.0000000000000559
210
0.0
220
1.0
230
-0.0000000000000002
  0
LINE
  5
14BB
  8
0
  6
CONTINUOUS
 10
14.5616747449624295
 20
270.5134906386767852
 30
-0.0000000000000601
 11
14.5616747449624295
 21
251.9411800463059024
 31
-0.0000000000000559
210
0.0
220
1.0
230
-0.0000000000000002
  0
ARC
  5
14BC
  8
0
  6
CONTINUOUS
 10
-28.7616747449626082
 20
251.9411800463059024
 30
0.0
 40
14.2000000000001805
210
0.0
220
-0.0000000000000002
230
-1.0
 50
328.8566600825448063
 51
359.9999999999998863
  0
ARC
  5
14BD
  8
0
  6
CONTINUOUS
 10
-108.3607749579290953
 20
251.9411800463059024
 30
0.0
 40
14.2000000000002906
210
0.0
220
-0.0000000000000002
230
-1.0
 50
180.0
 51
211.1433399174549095
  0
ARC
  5
14BE
  8
0
  6
CONTINUOUS
 10
-9.7612248514451174
 20
240.4597644609359861
 30
0.0
 40
8.000000000000778
210
0.0
220
-0.0000000000000002
230
-1.0
 50
148.8566600825446926
 51
179.9999999999992042
  0
ARC
  5
14BF
  8
0
  6
CONTINUOUS
 10
-127.3612248514469059
 20
240.4597644609359008
 30
0.0
 40
8.0000000000010374
210
0.0
220
-0.0000000000000002
230
-1.0
 50
0.0000000000014249
 51
31.1433399174547993
  0
LINE
  5
14C0
  8
0
  6
CONTINUOUS
 10
119.3612248514458969
 20
240.4597644609360998
 30
-0.0000000000000534
 11
119.3612248514458969
 21
-230.6741365033244904
 31
0.0000000000000512
210
0.0
220
1.0
230
-0.0000000000000002
  0
LINE
  5
14C1
  8
0
  6
CONTINUOUS
 10
17.7612248514458884
 20
240.4597644609360998
 30
-0.0000000000000534
 11
17.7612248514458884
 21
-230.6741365033244904
 31
0.0000000000000512
210
0.0
220
1.0
230
-0.0000000000000002
  0
ARC
  5
14C2
  8
0
  6
CONTINUOUS
 10
-52.761224851445597
 20
-230.6741365033246893
 30
0.0
 40
34.9999999999997229
210
0.0
220
-0.0000000000000002
230
-1.0
 50
343.5007655087629814
 51
0.0000000000002926
  0
ARC
  5
14C3
  8
0
  6
CONTINUOUS
 10
-84.3612248514456269
 20
-230.6741365033246041
 30
0.0
 40
35.0000000000002771
210
0.0
220
-0.0000000000000002
230
-1.0
 50
179.999999999999801
 51
196.4992344912369049
  0
ARC
  5
14C4
  8
0
  6
CONTINUOUS
 10
12.4387751485568803
 20
-249.9863088306420877
 30
0.0
 40
33.0000000000027214
210
0.0
220
-0.0000000000000002
230
-1.0
 50
163.5007655087632941
 51
179.9999999999992895
  0
ARC
  5
14C5
  8
0
  6
CONTINUOUS
 10
-149.5612248514493103
 20
-249.9863088306422867
 30
0.0
 40
33.0000000000034106
210
0.0
220
-0.0000000000000002
230
-1.0
 50
0.0000000000009923
 51
16.4992344912364501
  0
LINE
  5
14C6
  8
0
  6
CONTINUOUS
 10
116.5612248514458997
 20
-249.9863088306416898
 30
0.0000000000000555
 11
116.5612248514458997
 21
-334.4973062700664173
 31
0.0000000000000743
210
0.0
220
1.0
230
-0.0000000000000002
  0
LINE
  5
14C7
  8
0
  6
CONTINUOUS
 10
20.5612248514458997
 20
-249.9863088306418035
 30
0.0000000000000555
 11
20.5612248514458997
 21
-334.4973062700664741
 31
0.0000000000000743
210
0.0
220
1.0
230
-0.0000000000000002
  0
ARC
  5
14C8
  8
0
  6
CONTINUOUS
 10
-31.7612248514344202
 20
-334.4973062700669857
 30
0.0
 40
11.1999999999884601
210
0.0
220
-0.0000000000000002
230
-1.0
 50
354.9999999999977263
 51
0.0000000000026208
  0
ARC
  5
14C9
  8
0
  6
CONTINUOUS
 10
-105.3612248514566971
 20
-334.497306270066872
 30
0.0
 40
11.1999999999891209
210
0.0
220
-0.0000000000000002
230
-1.0
 50
179.9999999999972999
 51
185.0000000000021885
  0
LINE
  5
14CA
  8
0
  6
CONTINUOUS
 10
21.4361114867051903
 20
-344.9863088306416898
 30
0.0000000000000766
 11
20.6038442328184388
 21
-335.4734505888401941
 31
0.0000000000000745
210
0.0
220
1.0
230
-0.0000000000000002
  0
LINE
  5
14CB
  8
0
  6
CONTINUOUS
 10
115.6863382161865985
 20
-344.9863088306418035
 30
0.0000000000000766
 11
116.5186054700732967
 21
-335.4734505888401941
 31
0.0000000000000745
210
0.0
220
1.0
230
-0.0000000000000002
  0
LINE
  5
14CC
  8
0
  6
VERDECKT
 62
     1
 10
15.0188062895307404
 20
314.4928580859109957
 30
-0.0000000000000698
 11
122.1036434133609987
 21
314.4928580859109957
 31
-0.0000000000000698
210
0.0
220
1.0
230
-0.0000000000000002
  0
LINE
  5
14CD
  8
0
  6
VERDECKT
 62
     1
 10
22.6315451244152506
 20
-344.8817219393445725
 30
0.0000000000000766
 11
114.4909045784765027
 21
-344.8817219393445725
 31
0.0000000000000766
210
0.0
220
1.0
230
-0.0000000000000002
  0
ARC
  5
14CE
  8
0
  6
VERDECKT
 62
     1
 10
-34.761674744962562
 20
302.4089397067871801
 30
0.0
 40
23.0000000000000888
210
0.0
220
-0.0000000000000002
230
-1.0
 50
0.0
 51
25.0000000000002487
  0
ARC
  5
14CF
  8
0
  6
VERDECKT
 62
     1
 10
-102.3607749579291948
 20
302.4089397067871801
 30
0.0
 40
23.0000000000000888
210
0.0
220
-0.0000000000000002
230
-1.0
 50
154.9999999999996874
 51
179.9999999999998863
  0
LINE
  5
14D0
  8
0
  6
VERDECKT
 62
     1
 10
122.1036434133610982
 20
314.4928580859109957
 30
-0.0000000000000698
 11
123.205854059772193
 21
312.1291597268233886
 31
-0.0000000000000693
210
0.0
220
1.0
230
-0.0000000000000002
  0
LINE
  5
14D1
  8
0
  6
VERDECKT
 62
     1
 10
15.0188062895306995
 20
314.4928580859109957
 30
-0.0000000000000698
 11
13.9165956431195497
 21
312.1291597268233886
 31
-0.0000000000000693
210
0.0
220
1.0
230
-0.0000000000000002
  0
LINE
  5
14D2
  8
0
  6
VERDECKT
 62
     1
 10
15.0188062895307102
 20
314.492858085910882
 30
-0.0000000000000698
 11
13.9312369450865692
 21
314.9999999999998863
 31
-0.0000000000000699
210
0.0
220
1.0
230
-0.0000000000000002
  0
LINE
  5
14D3
  8
0
  6
VERDECKT
 62
     1
 10
122.1036434133610982
 20
314.492858085910882
 30
-0.0000000000000698
 11
123.1912127578052036
 21
314.9999999999998863
 31
-0.0000000000000699
210
0.0
220
1.0
230
-0.0000000000000002
  0
LINE
  5
14D4
  8
0
  6
VERDECKT
 62
     1
 10
114.4909045784765027
 20
-344.8817219393445725
 30
0.0000000000000766
 11
115.6863382161865985
 21
-344.9863088306418035
 31
0.0000000000000766
210
0.0
220
1.0
230
-0.0000000000000002
  0
LINE
  5
14D5
  8
0
  6
VERDECKT
 62
     1
 10
22.6315451244152612
 20
-344.8817219393445725
 30
0.0000000000000766
 11
21.4361114867051583
 21
-344.9863088306418035
 31
0.0000000000000766
210
0.0
220
1.0
230
-0.0000000000000002
  0
LINE
  5
14D6
  8
0
  6
VERDECKT
 62
     1
 10
22.631545124415279
 20
-344.8817219393445725
 30
0.0000000000000766
 11
21.7992778705284103
 21
-335.3688636975417126
 31
0.0000000000000745
210
0.0
220
1.0
230
-0.0000000000000002
  0
LINE
  5
14D7
  8
0
  6
VERDECKT
 62
     1
 10
114.4909045784765027
 20
-344.8817219393445725
 30
0.0000000000000766
 11
115.3231718323633999
 21
-335.3688636975417126
 31
0.0000000000000745
210
0.0
220
1.0
230
-0.0000000000000002
  0
ARC
  5
14D8
  8
0
  6
VERDECKT
 62
     1
 10
-31.7612248514295494
 20
-334.4973062700656783
 30
0.0
 40
9.9999999999837215
210
0.0
220
-0.0000000000000002
230
-1.0
 50
354.9999999999953957
 51
0.0000000000032696
  0
ARC
  5
14D9
  8
0
  6
VERDECKT
 62
     1
 10
-105.3612248514621967
 20
-334.4973062700656783
 30
0.0
 40
9.9999999999837144
210
0.0
220
-0.0000000000000002
230
-1.0
 50
179.9999999999967031
 51
185.0000000000046043
  0
LINE
  5
14DA
  8
0
  6
VERDECKT
 62
     1
 10
115.3612248514458969
 20
-249.9863088306416898
 30
0.0000000000000555
 11
115.3612248514458969
 21
-334.4973062700652235
 31
0.0000000000000743
210
0.0
220
1.0
230
-0.0000000000000002
  0
LINE
  5
14DB
  8
0
  6
VERDECKT
 62
     1
 10
21.7612248514458315
 20
-249.9863088306416898
 30
0.0000000000000555
 11
21.7612248514458315
 21
-334.4973062700652235
 31
0.0000000000000743
210
0.0
220
1.0
230
-0.0000000000000002
  0
ARC
  5
14DC
  8
0
  6
VERDECKT
 62
     1
 10
12.4387751485531197
 20
-249.9863088306414909
 30
0.0
 40
34.1999999999989512
210
0.0
220
-0.0000000000000002
230
-1.0
 50
163.5007655087626972
 51
180.0000000000003126
  0
ARC
  5
14DD
  8
0
  6
VERDECKT
 62
     1
 10
-149.5612248514441092
 20
-249.9863088306414056
 30
0.0
 40
34.1999999999981696
210
0.0
220
-0.0000000000000002
230
-1.0
 50
359.9999999999993747
 51
16.4992344912373383
  0
ARC
  5
14DE
  8
0
  6
VERDECKT
 62
     1
 10
-52.761224851450109
 20
-230.6741365033240072
 30
0.0
 40
33.8000000000041823
210
0.0
220
-0.0000000000000002
230
-1.0
 50
343.5007655087637772
 51
359.9999999999984084
  0
ARC
  5
14DF
  8
0
  6
VERDECKT
 62
     1
 10
-84.3612248514415342
 20
-230.6741365033240072
 30
0.0
 40
33.8000000000043315
210
0.0
220
-0.0000000000000002
230
-1.0
 50
180.0000000000013927
 51
196.4992344912361091
  0
LINE
  5
14E0
  8
0
  6
VERDECKT
 62
     1
 10
118.1612248514457946
 20
240.4597644609360998
 30
-0.0000000000000534
 11
118.1612248514457946
 21
-230.6741365033248883
 31
0.0000000000000512
210
0.0
220
1.0
230
-0.0000000000000002
  0
LINE
  5
14E1
  8
0
  6
VERDECKT
 62
     1
 10
18.9612248514459303
 20
240.4597644609360998
 30
-0.0000000000000534
 11
18.9612248514459303
 21
-230.6741365033248883
 31
0.0000000000000512
210
0.0
220
1.0
230
-0.0000000000000002
  0
ARC
  5
14E2
  8
0
  6
VERDECKT
 62
     1
 10
-9.7612248514460962
 20
240.4597644609362135
 30
0.0
 40
9.1999999999997826
210
0.0
220
-0.0000000000000002
230
-1.0
 50
148.8566600825434989
 51
180.0000000000005116
  0
ARC
  5
14E3
  8
0
  6
VERDECKT
 62
     1
 10
-127.3612248514453995
 20
240.4597644609362987
 30
0.0
 40
9.1999999999995197
210
0.0
220
-0.0000000000000002
230
-1.0
 50
0.0
 51
31.1433399174579684
  0
ARC
  5
14E4
  8
0
  6
VERDECKT
 62
     1
 10
-28.7616747449615211
 20
251.9411800463053908
 30
0.0
 40
12.9999999999990905
210
0.0
220
-0.0000000000000002
230
-1.0
 50
328.8566600825434989
 51
0.0000000000013867
  0
ARC
  5
14E5
  8
0
  6
VERDECKT
 62
     1
 10
-108.3607749579303032
 20
251.9411800463053908
 30
0.0
 40
12.9999999999990195
210
0.0
220
-0.0000000000000002
230
-1.0
 50
179.9999999999984084
 51
211.1433399174563874
  0
LINE
  5
14E6
  8
0
  6
VERDECKT
 62
     1
 10
121.3607749579293937
 20
270.5134906386767284
 30
-0.0000000000000601
 11
121.3607749579293937
 21
251.9411800463057034
 31
-0.0000000000000559
210
0.0
220
1.0
230
-0.0000000000000002
  0
LINE
  5
14E7
  8
0
  6
VERDECKT
 62
     1
 10
15.7616747449624199
 20
270.5134906386767284
 30
-0.0000000000000601
 11
15.7616747449624199
 21
251.9411800463057034
 31
-0.0000000000000559
210
0.0
220
1.0
230
-0.0000000000000002
  0
ARC
  5
14E8
  8
0
  6
VERDECKT
 62
     1
 10
-1.7616747449621439
 20
270.5134906386767284
 30
0.0
 40
14.0000000000002807
210
0.0
220
-0.0000000000000002
230
-1.0
 50
153.1119523822777069
 51
179.999999999999801
  0
ARC
  5
14E9
  8
0
  6
VERDECKT
 62
     1
 10
-135.3607749579294079
 20
270.5134906386767284
 30
0.0
 40
14.0000000000000799
210
0.0
220
-0.0000000000000002
230
-1.0
 50
0.0
 51
26.8880476177224494
  0
ARC
  5
14EA
  8
0
  6
VERDECKT
 62
     1
 10
-34.7616747449667827
 20
287.2466911693592806
 30
0.0
 40
23.0000000000043698
210
0.0
220
-0.0000000000000002
230
-1.0
 50
333.1119523822777069
 51
359.9999999999992042
  0
ARC
  5
14EB
  8
0
  6
VERDECKT
 62
     1
 10
-102.3607749579248036
 20
287.2466911693592806
 30
0.0
 40
23.0000000000046008
210
0.0
220
-0.0000000000000002
230
-1.0
 50
180.0000000000009095
 51
206.8880476177222079
  0
LINE
  5
14EC
  8
0
  6
VERDECKT
 62
     1
 10
125.3607749579292943
 20
302.4089397067871801
 30
-0.0000000000000671
 11
125.3607749579292943
 21
287.2466911693588827
 31
-0.0000000000000638
210
0.0
220
1.0
230
-0.0000000000000002
  0
LINE
  5
14ED
  8
0
  6
VERDECKT
 62
     1
 10
11.7616747449624803
 20
302.4089397067871801
 30
-0.0000000000000671
 11
11.7616747449624803
 21
287.2466911693588827
 31
-0.0000000000000638
210
0.0
220
1.0
230
-0.0000000000000002
  0
ENDBLK
  5
14EF
  8
0
  0
ENDSEC
  0
SECTION
  2
ENTITIES
  0
TEXT
  5
8F
  8
VOLL
 10
78.076754716981128
 20
31.025947764705851
 30
0.0
 40
1.8
  1

  7
GREEKS
  0
INSERT
  5
A41
  8
ADSK_ASSOC_ENTITY_BACKUPS
  2
*S4
 10
0.0
 20
0.0
 30
0.0
  0
INSERT
  5
14AB
  8
STEMPEL
  2
A$C96CA3C7F
 10
151.1750372107806868
 20
-455.7988951516442171
 30
-20.1470653218989391
  0
INSERT
  5
14F0
  8
STEMPEL
  2
A$CF6B045AE
 10
151.1750372107806015
 20
-73.8004199766450029
 30
-20.1470653218990208
  0
VIEWPORT
  5
A20
 67
     1
  8
0
 10
229.0233590861396067
 20
1.4255045838298761
 30
0.0
 40
533.9969448798291296
 41
299.1239570917758783
 68
     1
 69
     1
1001
ACAD
1000
MVIEW
1002
{
1070
    16
1010
0.0
1020
0.0
1030
0.0
1010
0.0
1020
0.0
1030
1.0
1040
0.0
1040
299.1239570917758783
1040
229.0233590861396067
1040
1.4255045838298761
1040
50.0
1040
0.0
1040
0.0
1070
     0
1070
  1500
1070
     1
1070
     1
1070
     0
1070
     0
1070
     0
1070
     0
1040
0.0
1040
0.0
1040
0.0
1040
10.0
1040
10.0
1040
10.0
1040
10.0
1070
     0
1002
{
1002
}
1002
}
  0
ENDSEC
  0
EOF
