  0
SECTION
  2
HEADER
  9
$ACADVER
  1
AC1009
  9
$INSBASE
 10
0.0
 20
0.0
 30
0.0
  9
$EXTMIN
 10
-149.9999999999998863
 20
-430.9998957656648031
 30
-0.0000000000000607
  9
$EXTMAX
 10
650.0000000000002274
 20
269.9999999999997726
 30
0.000000000000018
  9
$LIMMIN
 10
0.0
 20
0.0
  9
$LIMMAX
 10
1681.9999999999990905
 20
1188.0
  9
$ORTHOMODE
 70
     1
  9
$REGENMODE
 70
     1
  9
$FILLMODE
 70
     1
  9
$QTEXTMODE
 70
     0
  9
$MIRRTEXT
 70
     1
  9
$DRAGMODE
 70
     2
  9
$LTSCALE
 40
20.0
  9
$OSMODE
 70
   511
  9
$ATTMODE
 70
     1
  9
$TEXTSIZE
 40
3.5
  9
$TRACEWID
 40
1.0
  9
$TEXTSTYLE
  7
STANDARD
  9
$CLAYER
  8
STEMPEL
  9
$CELTYPE
  6
BYLAYER
  9
$CECOLOR
 62
   256
  9
$DIMSCALE
 40
1.0
  9
$DIMASZ
 40
3.5
  9
$DIMEXO
 40
1.0
  9
$DIMDLI
 40
0.38
  9
$DIMRND
 40
0.0
  9
$DIMDLE
 40
0.0
  9
$DIMEXE
 40
1.0
  9
$DIMTP
 40
0.0
  9
$DIMTM
 40
0.000000001
  9
$DIMTXT
 40
3.5
  9
$DIMCEN
 40
0.09
  9
$DIMTSZ
 40
0.0
  9
$DIMTOL
 70
     0
  9
$DIMLIM
 70
     0
  9
$DIMTIH
 70
     0
  9
$DIMTOH
 70
     0
  9
$DIMSE1
 70
     0
  9
$DIMSE2
 70
     0
  9
$DIMTAD
 70
     1
  9
$DIMZIN
 70
     8
  9
$DIMBLK
  1

  9
$DIMASO
 70
     1
  9
$DIMSHO
 70
     0
  9
$DIMPOST
  1

  9
$DIMAPOST
  1

  9
$DIMALT
 70
     0
  9
$DIMALTD
 70
     2
  9
$DIMALTF
 40
25.3999999999999986
  9
$DIMLFAC
 40
2.0
  9
$DIMTOFL
 70
     1
  9
$DIMTVP
 40
0.0
  9
$DIMTIX
 70
     0
  9
$DIMSOXD
 70
     0
  9
$DIMSAH
 70
     0
  9
$DIMBLK1
  1

  9
$DIMBLK2
  1

  9
$DIMSTYLE
  2
LORO
  9
$DIMCLRD
 70
     0
  9
$DIMCLRE
 70
     0
  9
$DIMCLRT
 70
     1
  9
$DIMTFAC
 40
0.5
  9
$DIMGAP
 40
1.5
  9
$LUNITS
 70
     2
  9
$LUPREC
 70
     2
  9
$SKETCHINC
 40
1.0
  9
$FILLETRAD
 40
16.0
  9
$AUNITS
 70
     0
  9
$AUPREC
 70
     0
  9
$MENU
  1
ACAD
  9
$ELEVATION
 40
0.0
  9
$PELEVATION
 40
0.0
  9
$THICKNESS
 40
0.0
  9
$LIMCHECK
 70
     0
  9
$BLIPMODE
 70
     0
  9
$CHAMFERA
 40
2.0
  9
$CHAMFERB
 40
2.0
  9
$SKPOLY
 70
     0
  9
$TDCREATE
 40
2455397.867048610933125
  9
$TDUPDATE
 40
2459636.6149189821444452
  9
$TDINDWG
 40
4.0736923147999997
  9
$TDUSRTIMER
 40
4.0736923147999997
  9
$USRTIMER
 70
     1
  9
$ANGBASE
 50
0.0
  9
$ANGDIR
 70
     0
  9
$PDMODE
 70
     0
  9
$PDSIZE
 40
0.0
  9
$PLINEWID
 40
0.0
  9
$COORDS
 70
     1
  9
$SPLFRAME
 70
     0
  9
$SPLINETYPE
 70
     6
  9
$SPLINESEGS
 70
     8
  9
$ATTDIA
 70
     1
  9
$ATTREQ
 70
     1
  9
$HANDLING
 70
     1
  9
$HANDSEED
  5
1B667
  9
$SURFTAB1
 70
     6
  9
$SURFTAB2
 70
     6
  9
$SURFTYPE
 70
     6
  9
$SURFU
 70
     6
  9
$SURFV
 70
     6
  9
$UCSNAME
  2

  9
$UCSORG
 10
0.0
 20
0.0
 30
0.0
  9
$UCSXDIR
 10
1.0
 20
0.0
 30
0.0
  9
$UCSYDIR
 10
0.0
 20
1.0
 30
0.0
  9
$PUCSNAME
  2

  9
$PUCSORG
 10
0.0
 20
0.0
 30
0.0
  9
$PUCSXDIR
 10
1.0
 20
0.0
 30
0.0
  9
$PUCSYDIR
 10
0.0
 20
1.0
 30
0.0
  9
$USERI1
 70
     0
  9
$USERI2
 70
     0
  9
$USERI3
 70
     0
  9
$USERI4
 70
     0
  9
$USERI5
 70
     0
  9
$USERR1
 40
0.0
  9
$USERR2
 40
0.0
  9
$USERR3
 40
0.0
  9
$USERR4
 40
0.0
  9
$USERR5
 40
0.0
  9
$WORLDVIEW
 70
     1
  9
$SHADEDGE
 70
     3
  9
$SHADEDIF
 70
    70
  9
$TILEMODE
 70
     1
  9
$MAXACTVP
 70
    16
  9
$PLIMCHECK
 70
     0
  9
$PEXTMIN
 10
1.0000000000000000E+20
 20
1.0000000000000000E+20
 30
1.0000000000000000E+20
  9
$PEXTMAX
 10
-1.0000000000000000E+20
 20
-1.0000000000000000E+20
 30
-1.0000000000000000E+20
  9
$PLIMMIN
 10
-2.9593969726560352
 20
-2.0944364929199142
  9
$PLIMMAX
 10
596.9806030273440456
 20
422.1055635070800918
  9
$UNITMODE
 70
     0
  9
$VISRETAIN
 70
     0
  9
$PLINEGEN
 70
     0
  9
$PSLTSCALE
 70
     0
  0
ENDSEC
  0
SECTION
  2
TABLES
  0
TABLE
  2
VPORT
 70
     1
  0
VPORT
  2
*ACTIVE
 70
     0
 10
0.0
 20
0.0
 11
1.0
 21
1.0
 12
-58.5013127846539192
 22
-250.9791688107592904
 13
0.0
 23
0.0
 14
1.0
 24
1.0
 15
10.0
 25
10.0
 16
-0.0000000000002842
 26
0.0
 36
909.2674272911240223
 17
308.501312784653976
 27
170.4792209279268036
 37
0.000000000000052
 40
704.5855729818572399
 41
1.8720136518771331
 42
50.0
 43
0.0
 44
0.0
 50
0.0
 51
0.0
 71
     0
 72
  1500
 73
     1
 74
     0
 75
     0
 76
     0
 77
     0
 78
     0
  0
ENDTAB
  0
TABLE
  2
LTYPE
 70
     3
  0
LTYPE
  2
CONTINUOUS
 70
     0
  3
Solid line
 72
    65
 73
     0
 40
0.0
  0
LTYPE
  2
STRICHPUNKT
 70
     0
  3
__ . __ . __ . __ . __ . __ . __ . __ . __ . __
 72
    65
 73
     4
 40
1.0
 49
0.5
 49
-0.25
 49
0.0
 49
-0.25
  0
LTYPE
  2
VERDECKT
 70
     0
  3
Verdeckt __ __ __ __ __ __ __ __ __ __ __ __ __
 72
    65
 73
     2
 40
0.375
 49
0.25
 49
-0.125
  0
ENDTAB
  0
TABLE
  2
LAYER
 70
     7
  0
LAYER
  2
0
 70
     0
 62
     7
  6
CONTINUOUS
  0
LAYER
  2
VOLL
 70
     0
 62
     1
  6
CONTINUOUS
  0
LAYER
  2
STEMPEL
 70
     0
 62
     3
  6
CONTINUOUS
  0
LAYER
  2
DEFPOINTS
 70
     0
 62
     7
  6
CONTINUOUS
  0
LAYER
  2
ADSK_ASSOC_ENTITY_BACKUPS
 70
     1
 62
    -7
  6
CONTINUOUS
  0
ENDTAB
  0
TABLE
  2
STYLE
 70
     3
  0
STYLE
  2
STANDARD
 70
     0
 40
0.0
 41
0.8
 50
0.0
 71
     0
 42
3.5
  3
simplex.shx
  4

  0
STYLE
  2
GREEKS
 70
     0
 40
0.0
 41
0.8
 50
0.0
 71
     0
 42
2.5
  3
SIMPLEX.shx
  4

  0
ENDTAB
  0
TABLE
  2
VIEW
 70
     0
  0
ENDTAB
  0
TABLE
  2
UCS
 70
     0
  0
ENDTAB
  0
TABLE
  2
APPID
 70
    30
  0
APPID
  2
ACAD
 70
     0
  0
APPID
  2
ACAD_EXEMPT_FROM_CAD_STANDARDS
 70
     0
  0
APPID
  2
ACAD_NAV_VCDISPLAY
 70
     0
  0
APPID
  2
GRADIENTCOLOR1ACI
 70
     0
  0
APPID
  2
GRADIENTCOLOR2ACI
 70
     0
  0
APPID
  2
ACAUTHENVIRON
 70
     0
  0
APPID
  2
ACDBDYNAMICBLOCKTRUENAME
 70
     0
  0
APPID
  2
ACDBDYNAMICBLOCKGUID
 70
     0
  0
APPID
  2
ACAD_PSEXT
 70
     0
  0
APPID
  2
ACAD_MLEADERVER
 70
     0
  0
APPID
  2
ACAECLAYERSTANDARD
 70
     0
  0
APPID
  2
ACCMTRANSPARENCY
 70
     0
  0
APPID
  2
ACAD_STEPID
 70
     0
  0
APPID
  2
ACSYNERGY
 70
     0
  0
APPID
  2
SYNERGY_BODY_TBR_ID
 70
     0
  0
APPID
  2
ACAD_VIEW_EDGE_ID
 70
     0
  0
APPID
  2
ACAD_DSTYLE_DIMJAG
 70
     0
  0
APPID
  2
ACAD_DSTYLE_DIMBREAK
 70
     0
  0
APPID
  2
ACAD_DSTYLE_DIMTALN
 70
     0
  0
APPID
  2
ACADANNOMONITORALERTICONDI
 70
     0
  0
APPID
  2
ACAD_DIMASSOC_CALC_DIMLFAC
 70
     0
  0
APPID
  2
ACAD_DIMASSOC_DIMLFAC
 70
     0
  0
APPID
  2
ACAD_DIMASSOC_OVERRIDDEN_D
 70
     0
  0
APPID
  2
ACAD_DSTYLE_DIMRADIAL_EXTENSION
 70
     0
  0
APPID
  2
ACADANNOPO
 70
     0
  0
APPID
  2
ACSYNERGYSKETCH
 70
     0
  0
APPID
  2
ACAD_MODELDOC_XFORM
 70
     0
  0
APPID
  2
SYNERGY_EXCLUDED_FROM_SNAPSHOT
 70
     0
  0
APPID
  2
PLOTTRANSPARENCY
 70
     0
  0
APPID
  2
ACAD_TC
 70
     0
  0
ENDTAB
  0
TABLE
  2
DIMSTYLE
 70
     2
  0
DIMSTYLE
  2
STANDARD
 70
     0
  3

  4

  5

  6

  7

 40
1.0
 41
0.18
 42
0.0625
 43
0.38
 44
0.18
 45
0.0
 46
0.0
 47
0.0
 48
0.0
140
0.18
141
0.09
142
0.0
143
25.3999999999999986
144
1.0
145
0.0
146
1.0
147
0.09
 71
     0
 72
     0
 73
     1
 74
     1
 75
     0
 76
     0
 77
     0
 78
     0
170
     0
171
     2
172
     0
173
     0
174
     0
175
     0
176
     0
177
     0
178
     0
  0
DIMSTYLE
  2
LORO
 70
     0
  3

  4

  5

  6

  7

 40
1.0
 41
3.5
 42
1.0
 43
0.38
 44
1.0
 45
0.0
 46
0.0
 47
0.0
 48
0.000000001
140
3.5
141
0.09
142
0.0
143
25.3999999999999986
144
2.0
145
0.0
146
0.5
147
1.5
 71
     0
 72
     0
 73
     0
 74
     0
 75
     0
 76
     0
 77
     1
 78
     8
170
     0
171
     2
172
     1
173
     0
174
     0
175
     0
176
     0
177
     0
178
     1
  0
ENDTAB
  0
ENDSEC
  0
SECTION
  2
BLOCKS
  0
BLOCK
  8
0
  2
$MODEL_SPACE
 70
     0
 10
0.0
 20
0.0
 30
0.0
  3
$MODEL_SPACE
  1

  0
ENDBLK
  5
38
  8
0
  0
BLOCK
 67
     1
  8
0
  2
$PAPER_SPACE
 70
     0
 10
0.0
 20
0.0
 30
0.0
  3
$PAPER_SPACE
  1

  0
ENDBLK
  5
36
 67
     1
  8
0
  0
BLOCK
  8
0
  2
*S0
 70
     1
 10
0.0
 20
0.0
 30
0.0
  3
*S0
  1

  0
ENDBLK
  5
46EF
  8
0
  0
BLOCK
  8
0
  2
A$C6B244478
 70
     0
 10
0.0
 20
0.0
 30
0.0
  3
A$C6B244478
  1

  0
LINE
  5
1B4F7
  8
0
  6
CONTINUOUS
 62
     3
 10
-75.4999999999998863
 20
-56.999895765664867
 30
0.0000000000000127
 11
75.5000000000001137
 21
-56.999895765664867
 31
0.0000000000000127
210
0.0
220
1.0
230
-0.0000000000000002
  0
LINE
  5
1B4F8
  8
0
  6
CONTINUOUS
 62
     3
 10
-71.4801488286689164
 20
-59.9998957656648813
 30
0.0000000000000133
 11
71.4801488286691438
 21
-59.9998957656648813
 31
0.0000000000000133
210
0.0
220
1.0
230
-0.0000000000000002
  0
LINE
  5
1B4F9
  8
0
  6
CONTINUOUS
 62
     3
 10
-73.2999999999998835
 20
-64.9998957656648741
 30
0.0000000000000144
 11
73.3000000000001108
 21
-64.9998957656648741
 31
0.0000000000000144
210
0.0
220
1.0
230
-0.0000000000000002
  0
LINE
  5
1B4FA
  8
0
  6
CONTINUOUS
 62
     3
 10
-73.2999999999998835
 20
-68.0998957656648969
 30
0.0000000000000151
 11
73.3000000000001108
 21
-68.0998957656648969
 31
0.0000000000000151
210
0.0
220
1.0
230
-0.0000000000000002
  0
LINE
  5
1B4FB
  8
0
  6
CONTINUOUS
 62
     3
 10
-75.6999999999999318
 20
-70.4998957656648741
 30
0.0000000000000157
 11
75.7000000000001592
 21
-70.4998957656648741
 31
0.0000000000000157
210
0.0
220
1.0
230
-0.0000000000000002
  0
LINE
  5
1B4FC
  8
0
  6
CONTINUOUS
 62
     3
 10
-75.6999999999999318
 20
-71.4998957656648741
 30
0.0000000000000159
 11
75.7000000000001592
 21
-71.4998957656648741
 31
0.0000000000000159
210
0.0
220
1.0
230
-0.0000000000000002
  0
LINE
  5
1B4FD
  8
0
  6
CONTINUOUS
 62
     3
 10
-73.4999999999998863
 20
-73.6998957656649196
 30
0.0000000000000164
 11
73.5000000000001137
 21
-73.6998957656649196
 31
0.0000000000000164
210
0.0
220
1.0
230
-0.0000000000000002
  0
LINE
  5
1B4FE
  8
0
  6
CONTINUOUS
 62
     3
 10
-73.4999999999998863
 20
-76.1893839890133364
 30
0.0000000000000169
 11
73.5000000000001137
 21
-76.1893839890133364
 31
0.0000000000000169
210
0.0
220
1.0
230
-0.0000000000000002
  0
LINE
  5
1B4FF
  8
0
  6
CONTINUOUS
 62
     3
 10
-75.6999999999999318
 20
-79.9998957656648741
 30
0.0000000000000178
 11
75.7000000000001592
 21
-79.9998957656648741
 31
0.0000000000000178
210
0.0
220
1.0
230
-0.0000000000000002
  0
LINE
  5
1B500
  8
0
  6
CONTINUOUS
 62
     3
 10
-64.4999999999997726
 20
-80.9998957656648884
 30
0.000000000000018
 11
64.5
 21
-80.9998957656648884
 31
0.000000000000018
210
0.0
220
1.0
230
-0.0000000000000002
  0
LINE
  5
1B501
  8
0
  6
CONTINUOUS
 62
     3
 10
-71.4999999999999716
 20
-50.0000000000002913
 30
0.0000000000000111
 11
71.5000000000001847
 21
-50.0000000000002913
 31
0.0000000000000111
210
0.0
220
1.0
230
-0.0000000000000002
  0
ARC
  5
1B502
  8
0
  6
CONTINUOUS
 62
     3
 10
70.9999999999998721
 20
-57.9998957656648599
 30
0.0
 40
0.9999999999999857
210
0.0
220
-0.0000000000000002
230
-1.0
 50
89.9999999999992042
 51
180.0000000000007105
  0
ARC
  5
1B503
  8
0
  6
CONTINUOUS
 62
     3
 10
-71.0000000000000995
 20
-57.9998957656648599
 30
0.0
 40
0.9999999999999857
210
0.0
220
-0.0000000000000002
230
-1.0
 50
359.9999999999992042
 51
90.00000000000081
  0
LINE
  5
1B504
  8
0
  6
CONTINUOUS
 62
     3
 10
70.0000000000001137
 20
-57.999895765664867
 30
0.0000000000000129
 11
70.0000000000001137
 21
-58.999895765664867
 31
0.0000000000000131
210
0.0
220
1.0
230
-0.0000000000000002
  0
LINE
  5
1B505
  8
0
  6
CONTINUOUS
 62
     3
 10
-69.9999999999998863
 20
-57.999895765664867
 30
0.0000000000000129
 11
-69.9999999999998863
 21
-58.999895765664867
 31
0.0000000000000131
210
0.0
220
1.0
230
-0.0000000000000002
  0
ARC
  5
1B506
  8
0
  6
CONTINUOUS
 62
     3
 10
70.9999999999998721
 20
-58.9998957656648884
 30
0.0
 40
0.9999999999999857
210
0.0
220
-0.0000000000000002
230
-1.0
 50
179.9999999999992042
 51
270.0000000000007958
  0
ARC
  5
1B507
  8
0
  6
CONTINUOUS
 62
     3
 10
-71.0000000000000995
 20
-58.9998957656648884
 30
0.0
 40
0.9999999999999857
210
0.0
220
-0.0000000000000002
230
-1.0
 50
270.0
 51
0.0000000000016284
  0
LINE
  5
1B508
  8
0
  6
CONTINUOUS
 62
     3
 10
71.4801488286691438
 20
-59.9998957656648813
 30
0.0000000000000133
 11
73.3000000000001251
 21
-64.9998957656648741
 31
0.0000000000000144
210
0.0
220
1.0
230
-0.0000000000000002
  0
LINE
  5
1B509
  8
0
  6
CONTINUOUS
 62
     3
 10
-71.4801488286689164
 20
-59.9998957656648813
 30
0.0000000000000133
 11
-73.2999999999998977
 21
-64.9998957656648741
 31
0.0000000000000144
210
0.0
220
1.0
230
-0.0000000000000002
  0
LINE
  5
1B50A
  8
0
  6
CONTINUOUS
 62
     3
 10
73.3000000000001251
 20
-64.9998957656648741
 30
0.0000000000000144
 11
73.3000000000001251
 21
-68.0998957656648969
 31
0.0000000000000151
210
0.0
220
1.0
230
-0.0000000000000002
  0
LINE
  5
1B50B
  8
0
  6
CONTINUOUS
 62
     3
 10
-73.2999999999998977
 20
-64.9998957656648741
 30
0.0000000000000144
 11
-73.2999999999998977
 21
-68.0998957656648969
 31
0.0000000000000151
210
0.0
220
1.0
230
-0.0000000000000002
  0
LINE
  5
1B50C
  8
0
  6
CONTINUOUS
 62
     3
 10
73.3000000000001251
 20
-68.0998957656648969
 30
0.0000000000000151
 11
75.7000000000001592
 21
-70.4998957656648741
 31
0.0000000000000157
210
0.0
220
1.0
230
-0.0000000000000002
  0
LINE
  5
1B50D
  8
0
  6
CONTINUOUS
 62
     3
 10
-73.2999999999998977
 20
-68.0998957656648969
 30
0.0000000000000151
 11
-75.6999999999999318
 21
-70.4998957656648741
 31
0.0000000000000157
210
0.0
220
1.0
230
-0.0000000000000002
  0
LINE
  5
1B50E
  8
0
  6
CONTINUOUS
 62
     3
 10
75.7000000000001592
 20
-70.4998957656648741
 30
0.0000000000000157
 11
75.7000000000001592
 21
-71.4998957656648741
 31
0.0000000000000159
210
0.0
220
1.0
230
-0.0000000000000002
  0
LINE
  5
1B50F
  8
0
  6
CONTINUOUS
 62
     3
 10
-75.6999999999999318
 20
-70.4998957656648741
 30
0.0000000000000157
 11
-75.6999999999999318
 21
-71.4998957656648741
 31
0.0000000000000159
210
0.0
220
1.0
230
-0.0000000000000002
  0
LINE
  5
1B510
  8
0
  6
CONTINUOUS
 62
     3
 10
-73.4999999999998863
 20
-73.6998957656649196
 30
0.0000000000000164
 11
-75.6999999999999318
 21
-71.4998957656648741
 31
0.0000000000000159
210
0.0
220
1.0
230
-0.0000000000000002
  0
LINE
  5
1B511
  8
0
  6
CONTINUOUS
 62
     3
 10
73.5000000000001137
 20
-73.6998957656649196
 30
0.0000000000000164
 11
75.7000000000001592
 21
-71.4998957656648741
 31
0.0000000000000159
210
0.0
220
1.0
230
-0.0000000000000002
  0
LINE
  5
1B512
  8
0
  6
CONTINUOUS
 62
     3
 10
73.5000000000001137
 20
-73.6998957656649196
 30
0.0000000000000164
 11
73.5000000000001137
 21
-76.1893839890133364
 31
0.0000000000000169
210
0.0
220
1.0
230
-0.0000000000000002
  0
LINE
  5
1B513
  8
0
  6
CONTINUOUS
 62
     3
 10
-73.4999999999998863
 20
-73.6998957656649196
 30
0.0000000000000164
 11
-73.4999999999998863
 21
-76.1893839890133364
 31
0.0000000000000169
210
0.0
220
1.0
230
-0.0000000000000002
  0
LINE
  5
1B514
  8
0
  6
CONTINUOUS
 62
     3
 10
73.5000000000001137
 20
-76.1893839890133364
 30
0.0000000000000169
 11
75.7000000000001592
 21
-79.9998957656648741
 31
0.0000000000000178
210
0.0
220
1.0
230
-0.0000000000000002
  0
LINE
  5
1B515
  8
0
  6
CONTINUOUS
 62
     3
 10
-73.4999999999998863
 20
-76.1893839890133364
 30
0.0000000000000169
 11
-75.6999999999999318
 21
-79.9998957656648741
 31
0.0000000000000178
210
0.0
220
1.0
230
-0.0000000000000002
  0
ARC
  5
1B516
  8
0
  6
CONTINUOUS
 62
     3
 10
64.4999999999997726
 20
-74.9998957656649736
 30
0.0
 40
5.9999999999998996
210
0.0
220
-0.0000000000000002
230
-1.0
 50
270.0
 51
303.5573097619210898
  0
ARC
  5
1B517
  8
0
  6
CONTINUOUS
 62
     3
 10
-64.5
 20
-74.9998957656649736
 30
0.0
 40
5.9999999999999041
210
0.0
220
-0.0000000000000002
230
-1.0
 50
236.4426902380789102
 51
270.0
  0
ARC
  5
1B518
  8
0
  6
CONTINUOUS
 62
     3
 10
71.4758400866409431
 20
-52.7998957656648926
 30
0.0
 40
2.8000000000000078
210
0.0
220
-0.0000000000000002
230
-1.0
 50
15.0000000000002895
 51
89.5056149120656244
  0
ARC
  5
1B519
  8
0
  6
CONTINUOUS
 62
     3
 10
-71.4758400866411563
 20
-52.7998957656649068
 30
0.0
 40
2.8000000000000211
210
0.0
220
-0.0000000000000002
230
-1.0
 50
90.4943850879346599
 51
164.9999999999996021
  0
LINE
  5
1B51A
  8
0
  6
CONTINUOUS
 62
     3
 10
74.180432400250524
 20
-52.0752024393778186
 30
0.0000000000000116
 11
75.5000000000001137
 21
-56.999895765664867
 31
0.0000000000000127
210
0.0
220
1.0
230
-0.0000000000000002
  0
LINE
  5
1B51B
  8
0
  6
CONTINUOUS
 62
     3
 10
-74.1804324002503108
 20
-52.0752024393778186
 30
0.0000000000000116
 11
-75.4999999999998863
 21
-56.999895765664867
 31
0.0000000000000127
210
0.0
220
1.0
230
-0.0000000000000002
  0
LINE
  5
1B51C
  8
0
  6
CONTINUOUS
 62
     3
 10
-72.0000000000483737
 20
269.9999999999997726
 30
-0.00000000000006
 11
72.0000000000486153
 21
269.9999999999997726
 31
-0.00000000000006
210
0.0
220
1.0
230
-0.0000000000000002
  0
LINE
  5
1B51D
  8
0
  6
CONTINUOUS
 62
     3
 10
-65.6999999999998749
 20
-0.0000000000003126
 30
0.0
 11
65.7000000000001023
 21
-0.0000000000003126
 31
0.0
210
0.0
220
1.0
230
-0.0000000000000002
  0
LINE
  5
1B51E
  8
0
  6
CONTINUOUS
 62
     3
 10
-68.4246378256497536
 20
245.2017394338645033
 30
-0.0000000000000544
 11
-69.5194308710116502
 21
247.999999999999801
 31
-0.0000000000000551
210
0.0
220
1.0
230
-0.0000000000000002
  0
LINE
  5
1B51F
  8
0
  6
CONTINUOUS
 62
     3
 10
68.424637825649981
 20
245.2017394338645033
 30
-0.0000000000000544
 11
69.5194308710118634
 21
247.999999999999801
 31
-0.0000000000000551
210
0.0
220
1.0
230
-0.0000000000000002
  0
ARC
  5
1B520
  8
0
  6
CONTINUOUS
 62
     3
 10
94.4999999999997726
 20
234.999999999999801
 30
0.0
 40
27.9999999999998792
210
0.0
220
-0.0000000000000002
230
-1.0
 50
158.6325470100902919
 51
180.0
  0
ARC
  5
1B521
  8
0
  6
CONTINUOUS
 62
     3
 10
-94.5000000000000853
 20
234.999999999999801
 30
0.0
 40
27.9999999999999396
210
0.0
220
-0.0000000000000002
230
-1.0
 50
0.0
 51
21.3674529899095411
  0
LINE
  5
1B522
  8
0
  6
CONTINUOUS
 62
     3
 10
72.0000000000486153
 20
269.9999999999997726
 30
-0.00000000000006
 11
72.0000000000486153
 21
267.9999999999997726
 31
-0.0000000000000595
210
0.0
220
1.0
230
-0.0000000000000002
  0
LINE
  5
1B523
  8
0
  6
CONTINUOUS
 62
     3
 10
-72.0000000000483737
 20
269.9999999999997726
 30
-0.00000000000006
 11
-72.0000000000483737
 21
267.9999999999997726
 31
-0.0000000000000595
210
0.0
220
1.0
230
-0.0000000000000002
  0
ARC
  5
1B524
  8
0
  6
CONTINUOUS
 62
     3
 10
65.5000000000049596
 20
8.0498756211202913
 30
0.0
 40
0.9999999999949267
210
0.0
220
-0.0000000000000002
230
-1.0
 50
354.2894068624831903
 51
0.0000000000114118
  0
ARC
  5
1B525
  8
0
  6
CONTINUOUS
 62
     3
 10
-65.5000000000052154
 20
8.0498756211202949
 30
0.0
 40
0.999999999994884
210
0.0
220
-0.0000000000000002
230
-1.0
 50
179.9999999999886029
 51
185.710593137516895
  0
LINE
  5
1B526
  8
0
  6
CONTINUOUS
 62
     3
 10
66.5000000000000995
 20
234.999999999999801
 30
-0.0000000000000522
 11
66.5000000000001137
 21
8.0498756211204938
 31
-0.0000000000000018
210
0.0
220
1.0
230
-0.0000000000000002
  0
LINE
  5
1B527
  8
0
  6
CONTINUOUS
 62
     3
 10
-66.4999999999999005
 20
234.999999999999801
 30
-0.0000000000000522
 11
-66.4999999999998863
 21
8.0498756211204938
 31
-0.0000000000000018
210
0.0
220
1.0
230
-0.0000000000000002
  0
LINE
  5
1B528
  8
0
  6
CONTINUOUS
 62
     3
 10
-65.6999999999998892
 20
-0.0000000000003175
 30
0.0
 11
-66.4950371902098709
 21
7.9503719020995014
 31
-0.0000000000000018
210
0.0
220
1.0
230
-0.0000000000000002
  0
LINE
  5
1B529
  8
0
  6
CONTINUOUS
 62
     3
 10
65.7000000000001165
 20
-0.0000000000003131
 30
0.0
 11
66.4950371902100983
 21
7.9503719020995058
 31
-0.0000000000000018
210
0.0
220
1.0
230
-0.0000000000000002
  0
LINE
  5
1B52A
  8
0
  6
CONTINUOUS
 62
     3
 10
-70.648669968078238
 20
247.999999999999801
 30
-0.0000000000000551
 11
70.6486699680784653
 21
247.999999999999801
 31
-0.0000000000000551
210
0.0
220
1.0
230
-0.0000000000000002
  0
LINE
  5
1B52B
  8
0
  6
CONTINUOUS
 62
     3
 10
0.000000000000079
 20
266.9999999999997726
 30
-0.0000000000000593
 11
-149.9999999999998863
 21
266.9999999999997158
 31
-0.0000000000000593
210
0.0
220
1.0
230
-0.0000000000000002
  0
LINE
  5
1B52C
  8
0
  6
CONTINUOUS
 62
     3
 10
300.0000000000001137
 20
266.9999999999997158
 30
-0.0000000000000593
 11
280.0000000000001137
 21
266.9999999999997158
 31
-0.0000000000000593
210
0.0
220
1.0
230
-0.0000000000000002
  0
LINE
  5
1B52D
  8
0
  6
CONTINUOUS
 62
     3
 10
0.0000000000001137
 20
266.9999999999997726
 30
-0.0000000000000593
 11
280.0000000000001137
 21
266.9999999999997726
 31
-0.0000000000000593
210
0.0
220
1.0
230
-0.0000000000000002
  0
LINE
  5
1B52E
  8
0
  6
CONTINUOUS
 62
     3
 10
280.0000000000001137
 20
267.9999999999997158
 30
-0.0000000000000595
 11
0.0000000000001137
 21
267.9999999999997158
 31
-0.0000000000000595
210
0.0
220
1.0
230
-0.0000000000000002
  0
LINE
  5
1B52F
  8
0
  6
CONTINUOUS
 62
     3
 10
300.0000000000001137
 20
266.9999999999997726
 30
-0.0000000000000593
 11
300.0000000000001137
 21
267.9999999999997158
 31
-0.0000000000000595
210
0.0
220
1.0
230
-0.0000000000000002
  0
LINE
  5
1B530
  8
0
  6
CONTINUOUS
 62
     3
 10
280.0000000000001137
 20
267.9999999999997158
 30
-0.0000000000000595
 11
300.0000000000001137
 21
267.9999999999997158
 31
-0.0000000000000595
210
0.0
220
1.0
230
-0.0000000000000002
  0
LINE
  5
1B531
  8
0
  6
CONTINUOUS
 62
     3
 10
-149.9999999999998863
 20
267.9999999999997726
 30
-0.0000000000000595
 11
0.0000000000001137
 21
267.9999999999997726
 31
-0.0000000000000595
210
0.0
220
1.0
230
-0.0000000000000002
  0
ARC
  5
1B532
  8
0
  6
CONTINUOUS
 62
     3
 10
77.4999999999998863
 20
263.4999999999997726
 30
0.0
 40
3.5
210
0.0
220
-0.0000000000000002
230
-1.0
 50
90.0
 51
193.4862741335838052
  0
ARC
  5
1B533
  8
0
  6
CONTINUOUS
 62
     3
 10
-77.5000000000000995
 20
263.4999999999997726
 30
0.0
 40
3.499999999999992
210
0.0
220
-0.0000000000000002
230
-1.0
 50
346.5137258664152
 51
90.0000000000002132
  0
ARC
  5
1B534
  8
0
  6
CONTINUOUS
 62
     3
 10
59.8670964589288701
 20
259.2711817796135279
 30
0.0
 40
14.6329035410710109
210
0.0
220
-0.0000000000000002
230
-1.0
 50
333.9837874894093943
 51
13.4862741335833896
  0
ARC
  5
1B535
  8
0
  6
CONTINUOUS
 62
     3
 10
-59.8670964589292893
 20
259.2711817796134142
 30
0.0
 40
14.6329035410708297
210
0.0
220
-0.0000000000000002
230
-1.0
 50
166.5137258664161948
 51
206.0162125105906057
  0
LINE
  5
1B536
  8
0
  6
CONTINUOUS
 62
     3
 10
-70.648669968078238
 20
247.999999999999801
 30
-0.0000000000000551
 11
-73.0172474170766606
 21
252.8528178276228005
 31
-0.0000000000000561
210
0.0
220
1.0
230
-0.0000000000000002
  0
LINE
  5
1B537
  8
0
  6
CONTINUOUS
 62
     3
 10
70.6486699680784653
 20
247.999999999999801
 30
-0.0000000000000551
 11
73.0172474170768879
 21
252.8528178276228005
 31
-0.0000000000000561
210
0.0
220
1.0
230
-0.0000000000000002
  0
LINE
  5
1B538
  8
0
  6
CONTINUOUS
 62
     3
 10
-149.9999999999998863
 20
267.9999999999997726
 30
-0.0000000000000595
 11
-149.9999999999998863
 21
266.9999999999997726
 31
-0.0000000000000593
210
0.0
220
1.0
230
-0.0000000000000002
  0
LINE
  5
1B539
  8
0
  6
VERDECKT
 62
     1
 10
-70.6999999999999318
 20
-76.9998957656648741
 30
0.0000000000000171
 11
70.7000000000001592
 21
-76.9998957656648741
 31
0.0000000000000171
210
0.0
220
1.0
230
-0.0000000000000002
  0
LINE
  5
1B53A
  8
0
  6
VERDECKT
 62
     1
 10
-61.4999999999998792
 20
-78.9998957656648741
 30
0.0000000000000175
 11
61.5000000000001066
 21
-78.9998957656648741
 31
0.0000000000000175
210
0.0
220
1.0
230
-0.0000000000000002
  0
LINE
  5
1B53B
  8
0
  6
VERDECKT
 62
     1
 10
70.7000000000001592
 20
-76.9998957656648741
 30
0.0000000000000171
 11
73.7000000000001592
 21
-79.9998957656648741
 31
0.0000000000000178
210
0.0
220
1.0
230
-0.0000000000000002
  0
LINE
  5
1B53C
  8
0
  6
VERDECKT
 62
     1
 10
-70.6999999999999318
 20
-76.9998957656648741
 30
0.0000000000000171
 11
-73.6999999999999318
 21
-79.9998957656648741
 31
0.0000000000000178
210
0.0
220
1.0
230
-0.0000000000000002
  0
ARC
  5
1B53D
  8
0
  6
VERDECKT
 62
     1
 10
64.4999999999997868
 20
-74.9998957656649736
 30
0.0
 40
5.9999999999998836
210
0.0
220
-0.0000000000000002
230
-1.0
 50
303.5573097619209761
 51
340.5287793655102178
  0
ARC
  5
1B53E
  8
0
  6
VERDECKT
 62
     1
 10
-64.4999999999998437
 20
-74.9998957656648599
 30
0.0
 40
6.0000000000000773
210
0.0
220
-0.0000000000000002
230
-1.0
 50
199.4712206344902086
 51
236.4426902380783986
  0
LINE
  5
1B53F
  8
0
  6
VERDECKT
 62
     1
 10
61.5000000000001066
 20
-78.9998957656648741
 30
0.0000000000000175
 11
61.5000000000001066
 21
-80.9998957656648741
 31
0.000000000000018
210
0.0
220
1.0
230
-0.0000000000000002
  0
LINE
  5
1B540
  8
0
  6
VERDECKT
 62
     1
 10
-61.4999999999998792
 20
-78.9998957656648741
 30
0.0000000000000175
 11
-61.4999999999998792
 21
-80.9998957656648741
 31
0.000000000000018
210
0.0
220
1.0
230
-0.0000000000000002
  0
ARC
  5
1B541
  8
0
  6
VERDECKT
 62
     1
 10
61.4999999999999076
 20
-72.9998957656648741
 30
0.0
 40
5.9999999999999849
210
0.0
220
-0.0000000000000002
230
-1.0
 50
270.0
 51
0.0000000000003435
  0
ARC
  5
1B542
  8
0
  6
VERDECKT
 62
     1
 10
-61.5000000000001279
 20
-72.9998957656648741
 30
0.0
 40
5.9999999999999778
210
0.0
220
-0.0000000000000002
230
-1.0
 50
179.999999999999801
 51
270.0000000000002274
  0
LINE
  5
1B543
  8
0
  6
VERDECKT
 62
     1
 10
67.5000000000001137
 20
-56.999895765664867
 30
0.0000000000000127
 11
67.5000000000001137
 21
-72.9998957656648741
 31
0.0000000000000162
210
0.0
220
1.0
230
-0.0000000000000002
  0
LINE
  5
1B544
  8
0
  6
VERDECKT
 62
     1
 10
-67.4999999999998863
 20
-56.999895765664867
 30
0.0000000000000127
 11
-67.4999999999998863
 21
-72.9998957656648741
 31
0.0000000000000162
210
0.0
220
1.0
230
-0.0000000000000002
  0
LINE
  5
1B545
  8
0
  6
VERDECKT
 62
     1
 10
-67.4999999999998863
 20
-56.999895765664867
 30
0.0000000000000127
 11
-68.8195675997493908
 21
-52.075202439377847
 31
0.0000000000000116
210
0.0
220
1.0
230
-0.0000000000000002
  0
LINE
  5
1B546
  8
0
  6
VERDECKT
 62
     1
 10
67.5000000000001137
 20
-56.999895765664867
 30
0.0000000000000127
 11
68.8195675997496039
 21
-52.075202439377847
 31
0.0000000000000116
210
0.0
220
1.0
230
-0.0000000000000002
  0
ARC
  5
1B547
  8
0
  6
VERDECKT
 62
     1
 10
71.5241599133588153
 20
-52.7998957656649068
 30
0.0
 40
2.8000000000000269
210
0.0
220
-0.0000000000000002
230
-1.0
 50
90.4943850879311782
 51
165.0
  0
ARC
  5
1B548
  8
0
  6
VERDECKT
 62
     1
 10
-71.5241599133590427
 20
-52.7998957656649068
 30
0.0
 40
2.800000000000034
210
0.0
220
-0.0000000000000002
230
-1.0
 50
15.0
 51
89.5056149120688076
  0
LINE
  5
1B549
  8
0
  6
VERDECKT
 62
     1
 10
-63.7099256195316528
 20
0.1990074380465217
 30
0.0
 11
63.7099256195318731
 21
0.1990074380465217
 31
0.0
210
0.0
220
1.0
230
-0.0000000000000002
  0
ARC
  5
1B54A
  8
0
  6
VERDECKT
 62
     1
 10
42.0000000000001421
 20
259.9999999999997158
 30
0.0
 40
29.9999999999997407
210
0.0
220
-0.0000000000000002
230
-1.0
 50
338.6325470100903203
 51
0.0000000000001145
  0
ARC
  5
1B54B
  8
0
  6
VERDECKT
 62
     1
 10
-42.0000000000000284
 20
259.9999999999997158
 30
0.0
 40
30.0000000000000711
210
0.0
220
-0.0000000000000002
230
-1.0
 50
179.9999999999998863
 51
201.3674529899093102
  0
LINE
  5
1B54C
  8
0
  6
VERDECKT
 62
     1
 10
-69.5194308710116502
 20
247.999999999999801
 30
-0.0000000000000551
 11
-69.9378880439464439
 21
249.0695648922875876
 31
-0.0000000000000553
210
0.0
220
1.0
230
-0.0000000000000002
  0
LINE
  5
1B54D
  8
0
  6
VERDECKT
 62
     1
 10
69.5194308710118634
 20
247.999999999999801
 30
-0.0000000000000551
 11
69.9378880439466712
 21
249.0695648922875876
 31
-0.0000000000000553
210
0.0
220
1.0
230
-0.0000000000000002
  0
ARC
  5
1B54E
  8
0
  6
VERDECKT
 62
     1
 10
94.4999999999996021
 20
234.9999999999998863
 30
0.0
 40
29.9999999999997087
210
0.0
220
-0.0000000000000002
230
-1.0
 50
158.6325470100902066
 51
180.0000000000001137
  0
ARC
  5
1B54F
  8
0
  6
VERDECKT
 62
     1
 10
-94.4999999999998579
 20
234.9999999999998863
 30
0.0
 40
29.99999999999973
210
0.0
220
-0.0000000000000002
230
-1.0
 50
359.9999999999997158
 51
21.3674529899095411
  0
LINE
  5
1B550
  8
0
  6
VERDECKT
 62
     1
 10
-66.5621119560533288
 20
245.9304351077119861
 30
-0.0000000000000546
 11
-68.075362174350019
 21
249.7982605661350988
 31
-0.0000000000000555
210
0.0
220
1.0
230
-0.0000000000000002
  0
LINE
  5
1B551
  8
0
  6
VERDECKT
 62
     1
 10
66.5621119560535561
 20
245.9304351077119861
 30
-0.0000000000000546
 11
68.0753621743502464
 21
249.7982605661350988
 31
-0.0000000000000555
210
0.0
220
1.0
230
-0.0000000000000002
  0
ARC
  5
1B552
  8
0
  6
VERDECKT
 62
     1
 10
41.9999999999995524
 20
259.9999999999997726
 30
0.0
 40
28.0000000000003411
210
0.0
220
-0.0000000000000002
230
-1.0
 50
338.6325470100907182
 51
359.9999999999998863
  0
ARC
  5
1B553
  8
0
  6
VERDECKT
 62
     1
 10
-42.0000000000001634
 20
259.9999999999997726
 30
0.0
 40
27.9999999999999396
210
0.0
220
-0.0000000000000002
230
-1.0
 50
180.0
 51
201.3674529899095091
  0
LINE
  5
1B554
  8
0
  6
VERDECKT
 62
     1
 10
70.0000000000001137
 20
269.9999999999997726
 30
-0.00000000000006
 11
70.0000000000001137
 21
259.9999999999997726
 31
-0.0000000000000577
210
0.0
220
1.0
230
-0.0000000000000002
  0
LINE
  5
1B555
  8
0
  6
VERDECKT
 62
     1
 10
-69.9999999999998863
 20
269.9999999999997726
 30
-0.00000000000006
 11
-69.9999999999998863
 21
259.9999999999997726
 31
-0.0000000000000577
210
0.0
220
1.0
230
-0.0000000000000002
  0
LINE
  5
1B556
  8
0
  6
VERDECKT
 62
     1
 10
72.0000000000486153
 20
267.9999999999997726
 30
-0.0000000000000595
 11
72.0000000000486153
 21
259.9999999999997726
 31
-0.0000000000000577
210
0.0
220
1.0
230
-0.0000000000000002
  0
LINE
  5
1B557
  8
0
  6
VERDECKT
 62
     1
 10
-72.0000000000483737
 20
267.9999999999997726
 30
-0.0000000000000595
 11
-72.0000000000483737
 21
259.9999999999997726
 31
-0.0000000000000577
210
0.0
220
1.0
230
-0.0000000000000002
  0
ARC
  5
1B558
  8
0
  6
VERDECKT
 62
     1
 10
63.4999999999807585
 20
8.1496268636069793
 30
0.0
 40
0.9999999999948627
210
0.0
220
-0.0000000000000002
230
-1.0
 50
354.2894068624830766
 51
0.0000000000115009
  0
ARC
  5
1B559
  8
0
  6
VERDECKT
 62
     1
 10
-63.4999999999804672
 20
8.1496268636070095
 30
0.0
 40
0.9999999999953814
210
0.0
220
-0.0000000000000002
230
-1.0
 50
179.9999999999884039
 51
185.7105931375153887
  0
LINE
  5
1B55A
  8
0
  6
VERDECKT
 62
     1
 10
-63.7099256195316528
 20
0.1990074380465159
 30
0.0
 11
-64.495037190185613
 21
8.0501231445861912
 31
-0.0000000000000018
210
0.0
220
1.0
230
-0.0000000000000002
  0
LINE
  5
1B55B
  8
0
  6
VERDECKT
 62
     1
 10
63.7099256195318802
 20
0.1990074380465204
 30
0.0
 11
64.4950371901858404
 21
8.0501231445861965
 31
-0.0000000000000018
210
0.0
220
1.0
230
-0.0000000000000002
  0
LINE
  5
1B55C
  8
0
  6
VERDECKT
 62
     1
 10
64.4999999999758415
 20
234.999999999999801
 30
-0.0000000000000522
 11
64.4999999999758558
 21
8.149626863607212
 31
-0.0000000000000018
210
0.0
220
1.0
230
-0.0000000000000002
  0
LINE
  5
1B55D
  8
0
  6
VERDECKT
 62
     1
 10
-64.4999999999756426
 20
234.999999999999801
 30
-0.0000000000000522
 11
-64.4999999999756284
 21
8.1496268636071836
 31
-0.0000000000000018
210
0.0
220
1.0
230
-0.0000000000000002
  0
LINE
  5
1B55E
  8
0
  6
VERDECKT
 62
     1
 10
63.7099256195318731
 20
0.1990074380465074
 30
0.0
 11
65.7000000000001165
 21
-0.0000000000003169
 31
0.0
210
0.0
220
1.0
230
-0.0000000000000002
  0
LINE
  5
1B55F
  8
0
  6
VERDECKT
 62
     1
 10
-63.7099256195316528
 20
0.1990074380464993
 30
0.0
 11
-65.6999999999998892
 21
-0.0000000000003252
 31
0.0
210
0.0
220
1.0
230
-0.0000000000000002
  0
LINE
  5
1B560
  8
0
  6
VERDECKT
 62
     1
 10
-69.7499999999998863
 20
248.4386254535180001
 30
-0.0000000000000552
 11
69.7500000000001137
 21
248.4386254535180001
 31
-0.0000000000000552
210
0.0
220
1.0
230
-0.0000000000000002
  0
LINE
  5
1B561
  8
0
  6
VERDECKT
 62
     1
 10
69.7500000000001137
 20
248.4386254535180001
 30
-0.0000000000000552
 11
70.6486699680784653
 21
247.9999999999996874
 31
-0.0000000000000551
210
0.0
220
1.0
230
-0.0000000000000002
  0
LINE
  5
1B562
  8
0
  6
VERDECKT
 62
     1
 10
-69.7499999999999005
 20
248.4386254535180001
 30
-0.0000000000000552
 11
-70.648669968078238
 21
247.9999999999996874
 31
-0.0000000000000551
210
0.0
220
1.0
230
-0.0000000000000002
  0
LINE
  5
1B563
  8
0
  6
VERDECKT
 62
     1
 10
-69.7499999999998721
 20
248.4386254535178864
 30
-0.0000000000000552
 11
-72.1185774489983231
 21
253.2914432811409995
 31
-0.0000000000000562
210
0.0
220
1.0
230
-0.0000000000000002
  0
LINE
  5
1B564
  8
0
  6
VERDECKT
 62
     1
 10
69.7500000000001137
 20
248.4386254535180001
 30
-0.0000000000000552
 11
72.1185774489985505
 21
253.2914432811409995
 31
-0.0000000000000562
210
0.0
220
1.0
230
-0.0000000000000002
  0
ARC
  5
1B565
  8
0
  6
VERDECKT
 62
     1
 10
59.8670964589289127
 20
259.2711817796135279
 30
0.0
 40
13.6329035410709594
210
0.0
220
-0.0000000000000002
230
-1.0
 50
333.983787489409508
 51
13.4862741335835192
  0
ARC
  5
1B566
  8
0
  6
VERDECKT
 62
     1
 10
-59.8670964589291401
 20
259.2711817796135279
 30
0.0
 40
13.6329035410709594
210
0.0
220
-0.0000000000000002
230
-1.0
 50
166.5137258664165074
 51
206.0162125105906057
  0
ARC
  5
1B567
  8
0
  6
VERDECKT
 62
     1
 10
77.4999999999999147
 20
263.4999999999997158
 30
0.0
 40
4.500000000000056
210
0.0
220
-0.0000000000000002
230
-1.0
 50
90.0000000000003553
 51
193.4862741335826968
  0
ARC
  5
1B568
  8
0
  6
VERDECKT
 62
     1
 10
-77.5000000000001563
 20
263.4999999999997158
 30
0.0
 40
4.5000000000000284
210
0.0
220
-0.0000000000000002
230
-1.0
 50
346.5137258664173032
 51
89.9999999999994458
  0
LINE
  5
1B569
  8
0
  6
VERDECKT
 62
     1
 10
276.0000000000001137
 20
266.9999999999997158
 30
-0.0000000000000593
 11
276.0000000000001137
 21
267.9999999999997158
 31
-0.0000000000000595
210
0.0
220
1.0
230
-0.0000000000000002
  0
LINE
  5
1B56A
  8
0
  6
VERDECKT
 62
     1
 10
284.0000000000001137
 20
266.9999999999997158
 30
-0.0000000000000593
 11
284.0000000000001137
 21
267.9999999999997158
 31
-0.0000000000000595
210
0.0
220
1.0
230
-0.0000000000000002
  0
ENDBLK
  5
1B56C
  8
0
  0
BLOCK
  8
0
  2
A$C77A36E27
 70
     0
 10
0.0
 20
0.0
 30
0.0
  3
A$C77A36E27
  1

  0
LINE
  5
1B570
  8
0
  6
CONTINUOUS
 62
     3
 10
-75.5
 20
-56.9998957656649026
 30
0.0000000000000127
 11
-0.0000000000000016
 21
-56.9998957656648884
 31
0.0000000000000127
210
-0.0000000000000002
220
1.0
230
-0.0000000000000002
  0
LINE
  5
1B571
  8
0
  6
CONTINUOUS
 62
     3
 10
0.0000000000000243
 20
-56.9998957656648884
 30
0.0000000000000127
 11
75.5000000000000142
 21
-56.999895765664867
 31
0.0000000000000127
210
-0.0000000000000002
220
1.0
230
-0.0000000000000002
  0
LINE
  5
1B572
  8
0
  6
CONTINUOUS
 62
     3
 10
-71.4801488286690443
 20
-59.9998957656649097
 30
0.0000000000000133
 11
-0.0000000000000009
 21
-59.9998957656648884
 31
0.0000000000000133
210
-0.0000000000000002
220
1.0
230
-0.0000000000000002
  0
LINE
  5
1B573
  8
0
  6
CONTINUOUS
 62
     3
 10
0.0000000000000167
 20
-59.9998957656648884
 30
0.0000000000000133
 11
71.4801488286690585
 21
-59.999895765664867
 31
0.0000000000000133
210
-0.0000000000000002
220
1.0
230
-0.0000000000000002
  0
LINE
  5
1B574
  8
0
  6
CONTINUOUS
 62
     3
 10
-73.3000000000000114
 20
-64.9998957656649026
 30
0.0000000000000144
 11
0.0000000000000002
 21
-64.9998957656648884
 31
0.0000000000000144
210
-0.0000000000000002
220
1.0
230
-0.0000000000000002
  0
LINE
  5
1B575
  8
0
  6
CONTINUOUS
 62
     3
 10
0.0000000000000142
 20
-64.9998957656648884
 30
0.0000000000000144
 11
73.3000000000000256
 21
-64.9998957656648741
 31
0.0000000000000144
210
-0.0000000000000002
220
1.0
230
-0.0000000000000002
  0
LINE
  5
1B576
  8
0
  6
CONTINUOUS
 62
     3
 10
-73.3000000000000114
 20
-68.0998957656649253
 30
0.0000000000000151
 11
0.0000000000000009
 21
-68.0998957656649111
 31
0.0000000000000151
210
-0.0000000000000002
220
1.0
230
-0.0000000000000002
  0
LINE
  5
1B577
  8
0
  6
CONTINUOUS
 62
     3
 10
0.0000000000000151
 20
-68.0998957656649111
 30
0.0000000000000151
 11
73.3000000000000256
 21
-68.0998957656648969
 31
0.0000000000000151
210
-0.0000000000000002
220
1.0
230
-0.0000000000000002
  0
LINE
  5
1B578
  8
0
  6
CONTINUOUS
 62
     3
 10
-75.7000000000000455
 20
-70.4998957656649026
 30
0.0000000000000157
 11
0.0000000000000014
 21
-70.4998957656648741
 31
0.0000000000000157
210
-0.0000000000000002
220
1.0
230
-0.0000000000000002
  0
LINE
  5
1B579
  8
0
  6
CONTINUOUS
 62
     3
 10
0.0000000000000261
 20
-70.4998957656648741
 30
0.0000000000000157
 11
75.7000000000000739
 21
-70.4998957656648741
 31
0.0000000000000157
210
-0.0000000000000002
220
1.0
230
-0.0000000000000002
  0
LINE
  5
1B57A
  8
0
  6
CONTINUOUS
 62
     3
 10
-75.7000000000000455
 20
-71.4998957656649026
 30
0.0000000000000159
 11
0.0000000000000017
 21
-71.4998957656648884
 31
0.0000000000000159
210
-0.0000000000000002
220
1.0
230
-0.0000000000000002
  0
LINE
  5
1B57B
  8
0
  6
CONTINUOUS
 62
     3
 10
0.0000000000000264
 20
-71.4998957656648884
 30
0.0000000000000159
 11
75.7000000000000739
 21
-71.4998957656648741
 31
0.0000000000000159
210
-0.0000000000000002
220
1.0
230
-0.0000000000000002
  0
LINE
  5
1B57C
  8
0
  6
CONTINUOUS
 62
     3
 10
-73.5
 20
-73.699895765664948
 30
0.0000000000000164
 11
0.0000000000000022
 21
-73.6998957656649338
 31
0.0000000000000164
210
-0.0000000000000002
220
1.0
230
-0.0000000000000002
  0
LINE
  5
1B57D
  8
0
  6
CONTINUOUS
 62
     3
 10
0.0000000000000244
 20
-73.6998957656649338
 30
0.0000000000000164
 11
73.5000000000000284
 21
-73.6998957656649196
 31
0.0000000000000164
210
-0.0000000000000002
220
1.0
230
-0.0000000000000002
  0
LINE
  5
1B57E
  8
0
  6
CONTINUOUS
 62
     3
 10
-73.5
 20
-76.1893839890133648
 30
0.0000000000000169
 11
0.0000000000000027
 21
-76.1893839890133506
 31
0.0000000000000169
210
-0.0000000000000002
220
1.0
230
-0.0000000000000002
  0
LINE
  5
1B57F
  8
0
  6
CONTINUOUS
 62
     3
 10
0.0000000000000251
 20
-76.1893839890133506
 30
0.0000000000000169
 11
73.5000000000000284
 21
-76.1893839890133364
 31
0.0000000000000169
210
-0.0000000000000002
220
1.0
230
-0.0000000000000002
  0
LINE
  5
1B580
  8
0
  6
CONTINUOUS
 62
     3
 10
-75.7000000000000455
 20
-79.9998957656649026
 30
0.0000000000000178
 11
0.0000000000000036
 21
-79.9998957656648884
 31
0.0000000000000178
210
-0.0000000000000002
220
1.0
230
-0.0000000000000002
  0
LINE
  5
1B581
  8
0
  6
CONTINUOUS
 62
     3
 10
0.0000000000000288
 20
-79.9998957656648884
 30
0.0000000000000178
 11
75.7000000000000739
 21
-79.9998957656648741
 31
0.0000000000000178
210
-0.0000000000000002
220
1.0
230
-0.0000000000000002
  0
LINE
  5
1B582
  8
0
  6
CONTINUOUS
 62
     3
 10
-64.4999999999998863
 20
-80.999895765664931
 30
0.000000000000018
 11
0.0000000000000038
 21
-80.9998957656649168
 31
0.000000000000018
210
-0.0000000000000002
220
1.0
230
-0.0000000000000002
  0
LINE
  5
1B583
  8
0
  6
CONTINUOUS
 62
     3
 10
0.000000000000031
 20
-80.9998957656649168
 30
0.000000000000018
 11
64.4999999999999147
 21
-80.9998957656649168
 31
0.000000000000018
210
-0.0000000000000002
220
1.0
230
-0.0000000000000002
  0
LINE
  5
1B584
  8
0
  6
CONTINUOUS
 62
     3
 10
-71.5000000000000711
 20
-50.0000000000003126
 30
0.0000000000000111
 11
-0.0000000000000031
 21
-50.0000000000002984
 31
0.0000000000000111
210
-0.0000000000000002
220
1.0
230
-0.0000000000000002
  0
LINE
  5
1B585
  8
0
  6
CONTINUOUS
 62
     3
 10
0.0000000000000117
 20
-50.0000000000002984
 30
0.0000000000000111
 11
71.5000000000000995
 21
-50.0000000000002771
 31
0.0000000000000111
210
-0.0000000000000002
220
1.0
230
-0.0000000000000002
  0
ARC
  5
1B586
  8
0
  6
CONTINUOUS
 62
     3
 10
70.9999999999999858
 20
-57.9998957656649026
 30
0.0
 40
0.999999999999993
210
0.0
220
-0.0000000000000002
230
-1.0
 50
89.9999999999991758
 51
180.0000000000003979
  0
ARC
  5
1B587
  8
0
  6
CONTINUOUS
 62
     3
 10
-71.0000000000000142
 20
-57.9998957656648599
 30
0.0
 40
0.9999999999999859
210
0.0
220
-0.0000000000000002
230
-1.0
 50
359.9999999999996021
 51
90.0000000000007958
  0
LINE
  5
1B588
  8
0
  6
CONTINUOUS
 62
     3
 10
70.0000000000000284
 20
-57.999895765664867
 30
0.0000000000000129
 11
70.0000000000000284
 21
-58.9998957656648599
 31
0.0000000000000131
210
-0.0000000000000002
220
1.0
230
-0.0000000000000002
  0
LINE
  5
1B589
  8
0
  6
CONTINUOUS
 62
     3
 10
-70.0
 20
-57.9998957656649097
 30
0.0000000000000129
 11
-70.0
 21
-58.9998957656649097
 31
0.0000000000000131
210
-0.0000000000000002
220
1.0
230
-0.0000000000000002
  0
ARC
  5
1B58A
  8
0
  6
CONTINUOUS
 62
     3
 10
70.9999999999999858
 20
-58.9998957656649168
 30
0.0
 40
0.9999999999999859
210
0.0
220
-0.0000000000000002
230
-1.0
 50
179.9999999999996021
 51
270.0000000000007958
  0
ARC
  5
1B58B
  8
0
  6
CONTINUOUS
 62
     3
 10
-71.0000000000000142
 20
-58.999895765664867
 30
0.0
 40
0.999999999999993
210
0.0
220
-0.0000000000000002
230
-1.0
 50
270.0
 51
0.0000000000012086
  0
LINE
  5
1B58C
  8
0
  6
CONTINUOUS
 62
     3
 10
71.4801488286690585
 20
-59.999895765664867
 30
0.0000000000000133
 11
73.3000000000000398
 21
-64.9998957656648741
 31
0.0000000000000144
210
-0.0000000000000002
220
1.0
230
-0.0000000000000002
  0
LINE
  5
1B58D
  8
0
  6
CONTINUOUS
 62
     3
 10
-71.4801488286690301
 20
-59.9998957656649097
 30
0.0000000000000133
 11
-73.3000000000000114
 21
-64.9998957656649026
 31
0.0000000000000144
210
-0.0000000000000002
220
1.0
230
-0.0000000000000002
  0
LINE
  5
1B58E
  8
0
  6
CONTINUOUS
 62
     3
 10
73.3000000000000398
 20
-64.9998957656648741
 30
0.0000000000000144
 11
73.3000000000000398
 21
-68.0998957656648969
 31
0.0000000000000151
210
-0.0000000000000002
220
1.0
230
-0.0000000000000002
  0
LINE
  5
1B58F
  8
0
  6
CONTINUOUS
 62
     3
 10
-73.3000000000000114
 20
-64.9998957656649026
 30
0.0000000000000144
 11
-73.3000000000000114
 21
-68.0998957656649253
 31
0.0000000000000151
210
-0.0000000000000002
220
1.0
230
-0.0000000000000002
  0
LINE
  5
1B590
  8
0
  6
CONTINUOUS
 62
     3
 10
73.3000000000000398
 20
-68.0998957656648969
 30
0.0000000000000151
 11
75.7000000000000739
 21
-70.4998957656648741
 31
0.0000000000000157
210
-0.0000000000000002
220
1.0
230
-0.0000000000000002
  0
LINE
  5
1B591
  8
0
  6
CONTINUOUS
 62
     3
 10
-73.3000000000000114
 20
-68.0998957656649253
 30
0.0000000000000151
 11
-75.7000000000000455
 21
-70.4998957656649026
 31
0.0000000000000157
210
-0.0000000000000002
220
1.0
230
-0.0000000000000002
  0
LINE
  5
1B592
  8
0
  6
CONTINUOUS
 62
     3
 10
75.7000000000000739
 20
-70.4998957656648741
 30
0.0000000000000157
 11
75.7000000000000739
 21
-71.4998957656648741
 31
0.0000000000000159
210
-0.0000000000000002
220
1.0
230
-0.0000000000000002
  0
LINE
  5
1B593
  8
0
  6
CONTINUOUS
 62
     3
 10
-75.7000000000000455
 20
-70.4998957656649026
 30
0.0000000000000157
 11
-75.7000000000000455
 21
-71.4998957656649026
 31
0.0000000000000159
210
-0.0000000000000002
220
1.0
230
-0.0000000000000002
  0
LINE
  5
1B594
  8
0
  6
CONTINUOUS
 62
     3
 10
-73.5
 20
-73.699895765664948
 30
0.0000000000000164
 11
-75.7000000000000455
 21
-71.4998957656649026
 31
0.0000000000000159
210
-0.0000000000000002
220
1.0
230
-0.0000000000000002
  0
LINE
  5
1B595
  8
0
  6
CONTINUOUS
 62
     3
 10
73.5000000000000284
 20
-73.6998957656649196
 30
0.0000000000000164
 11
75.7000000000000739
 21
-71.4998957656648741
 31
0.0000000000000159
210
-0.0000000000000002
220
1.0
230
-0.0000000000000002
  0
LINE
  5
1B596
  8
0
  6
CONTINUOUS
 62
     3
 10
73.5000000000000284
 20
-73.6998957656649196
 30
0.0000000000000164
 11
73.5000000000000284
 21
-76.1893839890133364
 31
0.0000000000000169
210
-0.0000000000000002
220
1.0
230
-0.0000000000000002
  0
LINE
  5
1B597
  8
0
  6
CONTINUOUS
 62
     3
 10
-73.5
 20
-73.699895765664948
 30
0.0000000000000164
 11
-73.5
 21
-76.1893839890133648
 31
0.0000000000000169
210
-0.0000000000000002
220
1.0
230
-0.0000000000000002
  0
LINE
  5
1B598
  8
0
  6
CONTINUOUS
 62
     3
 10
73.5000000000000284
 20
-76.1893839890133364
 30
0.0000000000000169
 11
75.7000000000000739
 21
-79.9998957656648741
 31
0.0000000000000178
210
-0.0000000000000002
220
1.0
230
-0.0000000000000002
  0
LINE
  5
1B599
  8
0
  6
CONTINUOUS
 62
     3
 10
-73.5
 20
-76.1893839890133648
 30
0.0000000000000169
 11
-75.7000000000000455
 21
-79.9998957656649026
 31
0.0000000000000178
210
-0.0000000000000002
220
1.0
230
-0.0000000000000002
  0
ARC
  5
1B59A
  8
0
  6
CONTINUOUS
 62
     3
 10
64.4999999999998863
 20
-74.999895765665002
 30
0.0
 40
5.9999999999999014
210
0.0
220
-0.0000000000000002
230
-1.0
 50
270.0
 51
303.5573097619209761
  0
ARC
  5
1B59B
  8
0
  6
CONTINUOUS
 62
     3
 10
-64.4999999999999147
 20
-74.9998957656649736
 30
0.0
 40
5.9999999999999041
210
0.0
220
-0.0000000000000002
230
-1.0
 50
236.4426902380789102
 51
270.0
  0
ARC
  5
1B59C
  8
0
  6
CONTINUOUS
 62
     3
 10
71.4758400866410426
 20
-52.7998957656649281
 30
0.0
 40
2.8000000000000238
210
0.0
220
-0.0000000000000002
230
-1.0
 50
15.0000000000003393
 51
89.5056149120653259
  0
ARC
  5
1B59D
  8
0
  6
CONTINUOUS
 62
     3
 10
-71.475840086641071
 20
-52.7998957656648926
 30
0.0
 40
2.8000000000000211
210
0.0
220
-0.0000000000000002
230
-1.0
 50
90.4943850879346172
 51
164.9999999999996021
  0
LINE
  5
1B59E
  8
0
  6
CONTINUOUS
 62
     3
 10
74.1804324002504529
 20
-52.0752024393777972
 30
0.0000000000000116
 11
75.5000000000000284
 21
-56.999895765664867
 31
0.0000000000000127
210
-0.0000000000000002
220
1.0
230
-0.0000000000000002
  0
LINE
  5
1B59F
  8
0
  6
CONTINUOUS
 62
     3
 10
-74.1804324002504245
 20
-52.075202439377847
 30
0.0000000000000116
 11
-75.5
 21
-56.9998957656649026
 31
0.0000000000000127
210
-0.0000000000000002
220
1.0
230
-0.0000000000000002
  0
LINE
  5
1B5A0
  8
0
  6
CONTINUOUS
 62
     3
 10
-72.0000000000485443
 20
269.9999999999997726
 30
-0.00000000000006
 11
72.0000000000484448
 21
269.9999999999997726
 31
-0.00000000000006
210
-0.0000000000000002
220
1.0
230
-0.0000000000000002
  0
LINE
  5
1B5A1
  8
0
  6
CONTINUOUS
 62
     3
 10
-65.7000000000000028
 20
-0.0000000000003313
 30
0.0
 11
65.7000000000000028
 21
-0.000000000000294
 31
0.0
210
-0.0000000000000002
220
1.0
230
-0.0000000000000002
  0
LINE
  5
1B5A2
  8
0
  6
CONTINUOUS
 62
     3
 10
-68.4246378256499383
 20
245.2017394338645033
 30
-0.0000000000000544
 11
-69.5194308710118349
 21
247.999999999999801
 31
-0.0000000000000551
210
-0.0000000000000002
220
1.0
230
-0.0000000000000002
  0
LINE
  5
1B5A3
  8
0
  6
CONTINUOUS
 62
     3
 10
68.4246378256498247
 20
245.2017394338645886
 30
-0.0000000000000544
 11
69.5194308710117213
 21
247.9999999999998863
 31
-0.0000000000000551
210
-0.0000000000000002
220
1.0
230
-0.0000000000000002
  0
ARC
  5
1B5A4
  8
0
  6
CONTINUOUS
 62
     3
 10
94.4999999999999432
 20
234.999999999999801
 30
0.0
 40
27.9999999999998792
210
0.0
220
-0.0000000000000002
230
-1.0
 50
158.6325470100902919
 51
180.0
  0
ARC
  5
1B5A5
  8
0
  6
CONTINUOUS
 62
     3
 10
-94.50000000000027
 20
234.999999999999801
 30
0.0
 40
28.0000000000002984
210
0.0
220
-0.0000000000000002
230
-1.0
 50
0.0
 51
21.3674529899093102
  0
LINE
  5
1B5A6
  8
0
  6
CONTINUOUS
 62
     3
 10
72.000000000048459
 20
269.9999999999997726
 30
-0.00000000000006
 11
72.000000000048459
 21
267.9999999999997726
 31
-0.0000000000000595
210
-0.0000000000000002
220
1.0
230
-0.0000000000000002
  0
LINE
  5
1B5A7
  8
0
  6
CONTINUOUS
 62
     3
 10
-72.0000000000485727
 20
269.9999999999997726
 30
-0.00000000000006
 11
-72.0000000000485727
 21
267.9999999999997726
 31
-0.0000000000000595
210
-0.0000000000000002
220
1.0
230
-0.0000000000000002
  0
ARC
  5
1B5A8
  8
0
  6
CONTINUOUS
 62
     3
 10
65.5000000000050733
 20
8.0498756211202789
 30
0.0
 40
0.9999999999949269
210
0.0
220
-0.0000000000000002
230
-1.0
 50
354.2894068624831903
 51
0.0000000000113991
  0
ARC
  5
1B5A9
  8
0
  6
CONTINUOUS
 62
     3
 10
-65.5000000000051728
 20
8.0498756211203126
 30
0.0
 40
0.9999999999948416
210
0.0
220
-0.0000000000000002
230
-1.0
 50
179.9999999999884892
 51
185.710593137516895
  0
LINE
  5
1B5AA
  8
0
  6
CONTINUOUS
 62
     3
 10
66.4999999999999432
 20
234.9999999999998863
 30
-0.0000000000000522
 11
66.5000000000000142
 21
8.0498756211205098
 31
-0.0000000000000018
210
-0.0000000000000002
220
1.0
230
-0.0000000000000002
  0
LINE
  5
1B5AB
  8
0
  6
CONTINUOUS
 62
     3
 10
-66.5000000000000853
 20
234.999999999999801
 30
-0.0000000000000522
 11
-66.5000000000000142
 21
8.0498756211204814
 31
-0.0000000000000018
210
-0.0000000000000002
220
1.0
230
-0.0000000000000002
  0
LINE
  5
1B5AC
  8
0
  6
CONTINUOUS
 62
     3
 10
-65.7000000000000171
 20
-0.0000000000003321
 30
0.0
 11
-66.4950371902099988
 21
7.9503719020994881
 31
-0.0000000000000018
210
-0.0000000000000002
220
1.0
230
-0.0000000000000002
  0
LINE
  5
1B5AD
  8
0
  6
CONTINUOUS
 62
     3
 10
65.7000000000000171
 20
-0.0000000000002949
 30
0.0
 11
66.4950371902099988
 21
7.9503719020995272
 31
-0.0000000000000018
210
-0.0000000000000002
220
1.0
230
-0.0000000000000002
  0
LINE
  5
1B5AE
  8
0
  6
CONTINUOUS
 62
     3
 10
-70.6486699680784085
 20
247.999999999999801
 30
-0.0000000000000551
 11
70.6486699680782948
 21
247.9999999999998863
 31
-0.0000000000000551
210
-0.0000000000000002
220
1.0
230
-0.0000000000000002
  0
LINE
  5
1B5AF
  8
0
  6
CONTINUOUS
 62
     3
 10
150.0
 20
266.9999999999998863
 30
-0.0000000000000593
 11
-150.0000000000001137
 21
266.9999999999997158
 31
-0.0000000000000593
210
-0.0000000000000002
220
1.0
230
-0.0000000000000002
  0
LINE
  5
1B5B0
  8
0
  6
CONTINUOUS
 62
     3
 10
150.0
 20
267.9999999999998863
 30
-0.0000000000000595
 11
150.0
 21
266.9999999999998863
 31
-0.0000000000000593
210
-0.0000000000000002
220
1.0
230
-0.0000000000000002
  0
LINE
  5
1B5B1
  8
0
  6
CONTINUOUS
 62
     3
 10
-150.0000000000001137
 20
267.9999999999997726
 30
-0.0000000000000595
 11
149.9999999999998863
 21
267.9999999999998863
 31
-0.0000000000000595
210
-0.0000000000000002
220
1.0
230
-0.0000000000000002
  0
LINE
  5
1B5B2
  8
0
  6
CONTINUOUS
 62
     3
 10
-150.0000000000001137
 20
267.9999999999997158
 30
-0.0000000000000595
 11
-150.0000000000001137
 21
266.9999999999997158
 31
-0.0000000000000593
210
-0.0000000000000002
220
1.0
230
-0.0000000000000002
  0
ARC
  5
1B5B3
  8
0
  6
CONTINUOUS
 62
     3
 10
77.5000000000000711
 20
263.4999999999997726
 30
0.0
 40
3.5
210
0.0
220
-0.0000000000000002
230
-1.0
 50
89.9999999999999858
 51
193.4862741335836915
  0
ARC
  5
1B5B4
  8
0
  6
CONTINUOUS
 62
     3
 10
-77.4999999999999432
 20
263.4999999999998863
 30
0.0
 40
3.499999999999992
210
0.0
220
-0.0000000000000002
230
-1.0
 50
346.5137258664152
 51
90.0000000000002132
  0
ARC
  5
1B5B5
  8
0
  6
CONTINUOUS
 62
     3
 10
59.8670964589292893
 20
259.2711817796135279
 30
0.0
 40
14.6329035410707693
210
0.0
220
-0.0000000000000002
230
-1.0
 50
333.9837874894092238
 51
13.4862741335838194
  0
ARC
  5
1B5B6
  8
0
  6
CONTINUOUS
 62
     3
 10
-59.8670964589291685
 20
259.2711817796135279
 30
0.0
 40
14.6329035410707995
210
0.0
220
-0.0000000000000002
230
-1.0
 50
166.5137258664161095
 51
206.0162125105908046
  0
LINE
  5
1B5B7
  8
0
  6
CONTINUOUS
 62
     3
 10
-70.6486699680784227
 20
247.999999999999801
 30
-0.0000000000000551
 11
-73.0172474170768453
 21
252.8528178276228005
 31
-0.0000000000000561
210
-0.0000000000000002
220
1.0
230
-0.0000000000000002
  0
LINE
  5
1B5B8
  8
0
  6
CONTINUOUS
 62
     3
 10
70.648669968078309
 20
247.9999999999998863
 30
-0.0000000000000551
 11
73.0172474170767316
 21
252.8528178276229141
 31
-0.0000000000000561
210
-0.0000000000000002
220
1.0
230
-0.0000000000000002
  0
LINE
  5
1B5B9
  8
0
  6
VERDECKT
 62
     1
 10
-70.7000000000000455
 20
-76.9998957656649026
 30
0.0000000000000171
 11
0.0000000000000029
 21
-76.9998957656648884
 31
0.0000000000000171
210
-0.0000000000000002
220
1.0
230
-0.0000000000000002
  0
LINE
  5
1B5BA
  8
0
  6
VERDECKT
 62
     1
 10
0.0000000000000246
 20
-76.9998957656648884
 30
0.0000000000000171
 11
70.7000000000000739
 21
-76.9998957656648741
 31
0.0000000000000171
210
-0.0000000000000002
220
1.0
230
-0.0000000000000002
  0
LINE
  5
1B5BB
  8
0
  6
VERDECKT
 62
     1
 10
-61.4999999999999929
 20
-78.9998957656649026
 30
0.0000000000000175
 11
0.0000000000000104
 21
-78.9998957656648884
 31
0.0000000000000175
210
-0.0000000000000002
220
1.0
230
-0.0000000000000002
  0
LINE
  5
1B5BC
  8
0
  6
VERDECKT
 62
     1
 10
0.0000000000000267
 20
-78.9998957656648884
 30
0.0000000000000175
 11
61.5000000000000284
 21
-78.9998957656648741
 31
0.0000000000000175
210
-0.0000000000000002
220
1.0
230
-0.0000000000000002
  0
LINE
  5
1B5BD
  8
0
  6
VERDECKT
 62
     1
 10
70.7000000000000739
 20
-76.9998957656648741
 30
0.0000000000000171
 11
73.7000000000000739
 21
-79.9998957656648741
 31
0.0000000000000178
210
-0.0000000000000002
220
1.0
230
-0.0000000000000002
  0
LINE
  5
1B5BE
  8
0
  6
VERDECKT
 62
     1
 10
-70.7000000000000455
 20
-76.9998957656649026
 30
0.0000000000000171
 11
-73.7000000000000455
 21
-79.9998957656649026
 31
0.0000000000000178
210
-0.0000000000000002
220
1.0
230
-0.0000000000000002
  0
ARC
  5
1B5BF
  8
0
  6
VERDECKT
 62
     1
 10
64.4999999999997442
 20
-74.9998957656648884
 30
0.0
 40
6.000000000000079
210
0.0
220
-0.0000000000000002
230
-1.0
 50
303.5573097619216014
 51
340.5287793655097062
  0
ARC
  5
1B5C0
  8
0
  6
VERDECKT
 62
     1
 10
-64.4999999999997726
 20
-74.9998957656648599
 30
0.0
 40
6.000000000000079
210
0.0
220
-0.0000000000000002
230
-1.0
 50
199.4712206344902086
 51
236.4426902380783986
  0
LINE
  5
1B5C1
  8
0
  6
VERDECKT
 62
     1
 10
61.5000000000000284
 20
-78.9998957656648741
 30
0.0000000000000175
 11
61.5000000000000284
 21
-80.9998957656648884
 31
0.000000000000018
210
-0.0000000000000002
220
1.0
230
-0.0000000000000002
  0
LINE
  5
1B5C2
  8
0
  6
VERDECKT
 62
     1
 10
-61.5
 20
-78.9998957656649026
 30
0.0000000000000175
 11
-61.4999999999999929
 21
-80.9998957656649168
 31
0.000000000000018
210
-0.0000000000000002
220
1.0
230
-0.0000000000000002
  0
ARC
  5
1B5C3
  8
0
  6
VERDECKT
 62
     1
 10
61.5000000000000213
 20
-72.9998957656649168
 30
0.0
 40
5.9999999999999858
210
0.0
220
-0.0000000000000002
230
-1.0
 50
270.0
 51
0.0000000000003308
  0
ARC
  5
1B5C4
  8
0
  6
VERDECKT
 62
     1
 10
-61.5000000000000497
 20
-72.9998957656648741
 30
0.0
 40
5.9999999999999787
210
0.0
220
-0.0000000000000002
230
-1.0
 50
179.999999999999801
 51
270.0000000000002274
  0
LINE
  5
1B5C5
  8
0
  6
VERDECKT
 62
     1
 10
67.5000000000000284
 20
-56.999895765664867
 30
0.0000000000000127
 11
67.5000000000000284
 21
-72.9998957656648741
 31
0.0000000000000162
210
-0.0000000000000002
220
1.0
230
-0.0000000000000002
  0
LINE
  5
1B5C6
  8
0
  6
VERDECKT
 62
     1
 10
-67.5
 20
-56.9998957656649026
 30
0.0000000000000127
 11
-67.5
 21
-72.9998957656649026
 31
0.0000000000000162
210
-0.0000000000000002
220
1.0
230
-0.0000000000000002
  0
LINE
  5
1B5C7
  8
0
  6
VERDECKT
 62
     1
 10
-67.5
 20
-56.9998957656649026
 30
0.0000000000000127
 11
-68.8195675997495044
 21
-52.0752024393778683
 31
0.0000000000000116
210
-0.0000000000000002
220
1.0
230
-0.0000000000000002
  0
LINE
  5
1B5C8
  8
0
  6
VERDECKT
 62
     1
 10
67.5000000000000284
 20
-56.999895765664867
 30
0.0000000000000127
 11
68.8195675997495329
 21
-52.0752024393778328
 31
0.0000000000000116
210
-0.0000000000000002
220
1.0
230
-0.0000000000000002
  0
ARC
  5
1B5C9
  8
0
  6
VERDECKT
 62
     1
 10
71.5241599133589148
 20
-52.7998957656649424
 30
0.0
 40
2.8000000000000269
210
0.0
220
-0.0000000000000002
230
-1.0
 50
90.494385087931164
 51
165.0
  0
ARC
  5
1B5CA
  8
0
  6
VERDECKT
 62
     1
 10
-71.5241599133589574
 20
-52.7998957656648997
 30
0.0
 40
2.800000000000034
210
0.0
220
-0.0000000000000002
230
-1.0
 50
14.9999999999999893
 51
89.5056149120688076
  0
LINE
  5
1B5CB
  8
0
  6
VERDECKT
 62
     1
 10
-63.7099256195317665
 20
0.1990074380465037
 30
0.0
 11
63.7099256195317665
 21
0.1990074380465398
 31
0.0
210
-0.0000000000000002
220
1.0
230
-0.0000000000000002
  0
ARC
  5
1B5CC
  8
0
  6
VERDECKT
 62
     1
 10
42.0000000000003197
 20
259.9999999999997726
 30
0.0
 40
29.9999999999997513
210
0.0
220
-0.0000000000000002
230
-1.0
 50
338.6325470100903203
 51
0.0000000000001018
  0
ARC
  5
1B5CD
  8
0
  6
VERDECKT
 62
     1
 10
-42.0000000000001705
 20
259.9999999999997726
 30
0.0
 40
29.9999999999997691
210
0.0
220
-0.0000000000000002
230
-1.0
 50
179.9999999999998863
 51
201.3674529899095944
  0
LINE
  5
1B5CE
  8
0
  6
VERDECKT
 62
     1
 10
-69.5194308710118349
 20
247.999999999999801
 30
-0.0000000000000551
 11
-69.9378880439466286
 21
249.0695648922875876
 31
-0.0000000000000553
210
-0.0000000000000002
220
1.0
230
-0.0000000000000002
  0
LINE
  5
1B5CF
  8
0
  6
VERDECKT
 62
     1
 10
69.5194308710117213
 20
247.9999999999998863
 30
-0.0000000000000551
 11
69.9378880439465149
 21
249.0695648922877012
 31
-0.0000000000000553
210
-0.0000000000000002
220
1.0
230
-0.0000000000000002
  0
ARC
  5
1B5D0
  8
0
  6
VERDECKT
 62
     1
 10
94.4999999999997868
 20
234.9999999999998863
 30
0.0
 40
29.9999999999997087
210
0.0
220
-0.0000000000000002
230
-1.0
 50
158.6325470100902066
 51
180.0000000000001137
  0
ARC
  5
1B5D1
  8
0
  6
VERDECKT
 62
     1
 10
-94.4999999999997016
 20
235.0
 30
0.0
 40
29.99999999999973
210
0.0
220
-0.0000000000000002
230
-1.0
 50
359.9999999999997158
 51
21.3674529899095305
  0
LINE
  5
1B5D2
  8
0
  6
VERDECKT
 62
     1
 10
-66.5621119560535135
 20
245.9304351077120998
 30
-0.0000000000000546
 11
-68.0753621743502038
 21
249.7982605661350988
 31
-0.0000000000000555
210
-0.0000000000000002
220
1.0
230
-0.0000000000000002
  0
LINE
  5
1B5D3
  8
0
  6
VERDECKT
 62
     1
 10
66.5621119560533998
 20
245.9304351077120998
 30
-0.0000000000000546
 11
68.0753621743500901
 21
249.7982605661352125
 31
-0.0000000000000555
210
-0.0000000000000002
220
1.0
230
-0.0000000000000002
  0
ARC
  5
1B5D4
  8
0
  6
VERDECKT
 62
     1
 10
41.99999999999973
 20
259.9999999999998863
 30
0.0
 40
28.0000000000003517
210
0.0
220
-0.0000000000000002
230
-1.0
 50
338.6325470100906045
 51
359.9999999999997726
  0
ARC
  5
1B5D5
  8
0
  6
VERDECKT
 62
     1
 10
-41.9999999999999929
 20
259.9999999999997726
 30
0.0
 40
27.9999999999999503
210
0.0
220
-0.0000000000000002
230
-1.0
 50
180.0
 51
201.3674529899095091
  0
LINE
  5
1B5D6
  8
0
  6
VERDECKT
 62
     1
 10
69.9999999999999574
 20
269.9999999999997726
 30
-0.00000000000006
 11
69.9999999999999574
 21
259.9999999999997726
 31
-0.0000000000000577
210
-0.0000000000000002
220
1.0
230
-0.0000000000000002
  0
LINE
  5
1B5D7
  8
0
  6
VERDECKT
 62
     1
 10
-70.0000000000000711
 20
269.9999999999997726
 30
-0.00000000000006
 11
-70.0000000000000711
 21
259.9999999999997726
 31
-0.0000000000000577
210
-0.0000000000000002
220
1.0
230
-0.0000000000000002
  0
LINE
  5
1B5D8
  8
0
  6
VERDECKT
 62
     1
 10
72.000000000048459
 20
267.9999999999997726
 30
-0.0000000000000595
 11
72.000000000048459
 21
259.9999999999997726
 31
-0.0000000000000577
210
-0.0000000000000002
220
1.0
230
-0.0000000000000002
  0
LINE
  5
1B5D9
  8
0
  6
VERDECKT
 62
     1
 10
-72.0000000000485727
 20
267.9999999999997726
 30
-0.0000000000000595
 11
-72.0000000000485727
 21
259.9999999999997726
 31
-0.0000000000000577
210
-0.0000000000000002
220
1.0
230
-0.0000000000000002
  0
ARC
  5
1B5DA
  8
0
  6
VERDECKT
 62
     1
 10
63.4999999999809006
 20
8.1496268636069669
 30
0.0
 40
0.9999999999948629
210
0.0
220
-0.0000000000000002
230
-1.0
 50
354.2894068624830766
 51
0.0000000000114882
  0
ARC
  5
1B5DB
  8
0
  6
VERDECKT
 62
     1
 10
-63.4999999999809717
 20
8.1496268636070024
 30
0.0
 40
0.9999999999947918
210
0.0
220
-0.0000000000000002
230
-1.0
 50
179.9999999999884892
 51
185.710593137517094
  0
LINE
  5
1B5DC
  8
0
  6
VERDECKT
 62
     1
 10
-63.7099256195317807
 20
0.1990074380465018
 30
0.0
 11
-64.4950371901857409
 21
8.0501231445861787
 31
-0.0000000000000018
210
-0.0000000000000002
220
1.0
230
-0.0000000000000002
  0
LINE
  5
1B5DD
  8
0
  6
VERDECKT
 62
     1
 10
63.7099256195317807
 20
0.1990074380465381
 30
0.0
 11
64.4950371901857409
 21
8.0501231445862178
 31
-0.0000000000000018
210
-0.0000000000000002
220
1.0
230
-0.0000000000000002
  0
LINE
  5
1B5DE
  8
0
  6
VERDECKT
 62
     1
 10
64.4999999999756852
 20
234.9999999999998863
 30
-0.0000000000000522
 11
64.4999999999757563
 21
8.1496268636071996
 31
-0.0000000000000018
210
-0.0000000000000002
220
1.0
230
-0.0000000000000002
  0
LINE
  5
1B5DF
  8
0
  6
VERDECKT
 62
     1
 10
-64.4999999999758273
 20
234.999999999999801
 30
-0.0000000000000522
 11
-64.4999999999757563
 21
8.1496268636071711
 31
-0.0000000000000018
210
-0.0000000000000002
220
1.0
230
-0.0000000000000002
  0
LINE
  5
1B5E0
  8
0
  6
VERDECKT
 62
     1
 10
63.7099256195317665
 20
0.1990074380465214
 30
0.0
 11
65.7000000000000171
 21
-0.0000000000003024
 31
0.0
210
-0.0000000000000002
220
1.0
230
-0.0000000000000002
  0
LINE
  5
1B5E1
  8
0
  6
VERDECKT
 62
     1
 10
-63.7099256195317665
 20
0.1990074380464854
 30
0.0
 11
-65.7000000000000171
 21
-0.0000000000003396
 31
0.0
210
-0.0000000000000002
220
1.0
230
-0.0000000000000002
  0
LINE
  5
1B5E2
  8
0
  6
VERDECKT
 62
     1
 10
-69.7500000000000853
 20
248.4386254535180001
 30
-0.0000000000000552
 11
69.7499999999999432
 21
248.4386254535181138
 31
-0.0000000000000552
210
-0.0000000000000002
220
1.0
230
-0.0000000000000002
  0
LINE
  5
1B5E3
  8
0
  6
VERDECKT
 62
     1
 10
69.7499999999999716
 20
248.4386254535181138
 30
-0.0000000000000552
 11
70.648669968078309
 21
247.999999999999801
 31
-0.0000000000000551
210
-0.0000000000000002
220
1.0
230
-0.0000000000000002
  0
LINE
  5
1B5E4
  8
0
  6
VERDECKT
 62
     1
 10
-69.7500000000000853
 20
248.4386254535180001
 30
-0.0000000000000552
 11
-70.6486699680784227
 21
247.999999999999801
 31
-0.0000000000000551
210
-0.0000000000000002
220
1.0
230
-0.0000000000000002
  0
LINE
  5
1B5E5
  8
0
  6
VERDECKT
 62
     1
 10
-69.7500000000000568
 20
248.4386254535180001
 30
-0.0000000000000552
 11
-72.1185774489985079
 21
253.2914432811411132
 31
-0.0000000000000562
210
-0.0000000000000002
220
1.0
230
-0.0000000000000002
  0
LINE
  5
1B5E6
  8
0
  6
VERDECKT
 62
     1
 10
69.7499999999999432
 20
248.4386254535180001
 30
-0.0000000000000552
 11
72.1185774489983942
 21
253.2914432811411132
 31
-0.0000000000000562
210
-0.0000000000000002
220
1.0
230
-0.0000000000000002
  0
ARC
  5
1B5E7
  8
0
  6
VERDECKT
 62
     1
 10
59.8670964589290975
 20
259.2711817796135279
 30
0.0
 40
13.63290354107097
210
0.0
220
-0.0000000000000002
230
-1.0
 50
333.983787489409508
 51
13.4862741335834997
  0
ARC
  5
1B5E8
  8
0
  6
VERDECKT
 62
     1
 10
-59.8670964589289767
 20
259.2711817796135279
 30
0.0
 40
13.6329035410709594
210
0.0
220
-0.0000000000000002
230
-1.0
 50
166.5137258664165074
 51
206.016212510590492
  0
ARC
  5
1B5E9
  8
0
  6
VERDECKT
 62
     1
 10
77.5000000000000995
 20
263.4999999999997726
 30
0.0
 40
4.5000000000000568
210
0.0
220
-0.0000000000000002
230
-1.0
 50
90.0000000000003268
 51
193.4862741335826115
  0
ARC
  5
1B5EA
  8
0
  6
VERDECKT
 62
     1
 10
-77.5
 20
263.4999999999997726
 30
0.0
 40
4.5000000000000293
210
0.0
220
-0.0000000000000002
230
-1.0
 50
346.5137258664173032
 51
89.9999999999994458
  0
LINE
  5
1B5EB
  8
0
  6
VERDECKT
 62
     1
 10
-134.0000000000001137
 20
266.9999999999997158
 30
-0.0000000000000593
 11
-134.0000000000001137
 21
267.9999999999997158
 31
-0.0000000000000595
210
-0.0000000000000002
220
1.0
230
-0.0000000000000002
  0
LINE
  5
1B5EC
  8
0
  6
VERDECKT
 62
     1
 10
-126.0000000000000995
 20
266.9999999999997158
 30
-0.0000000000000593
 11
-126.0000000000000995
 21
267.9999999999997726
 31
-0.0000000000000595
210
-0.0000000000000002
220
1.0
230
-0.0000000000000002
  0
LINE
  5
1B5ED
  8
0
  6
VERDECKT
 62
     1
 10
125.9999999999999005
 20
266.9999999999997158
 30
-0.0000000000000593
 11
125.9999999999999005
 21
267.9999999999997726
 31
-0.0000000000000595
210
-0.0000000000000002
220
1.0
230
-0.0000000000000002
  0
LINE
  5
1B5EE
  8
0
  6
VERDECKT
 62
     1
 10
133.9999999999998863
 20
266.9999999999997726
 30
-0.0000000000000593
 11
133.9999999999998863
 21
267.9999999999997726
 31
-0.0000000000000595
210
-0.0000000000000002
220
1.0
230
-0.0000000000000002
  0
ENDBLK
  5
1B5F0
  8
0
  0
BLOCK
  8
0
  2
A$C6A0DA849
 70
     0
 10
0.0
 20
0.0
 30
0.0
  3
A$C6A0DA849
  1

  0
CIRCLE
  5
1B5F4
  8
0
  6
CONTINUOUS
 62
     3
 10
0.0000000000001312
 20
0.0000000000000018
 30
0.0
 40
61.5
  0
CIRCLE
  5
1B5F5
  8
0
  6
CONTINUOUS
 62
     3
 10
0.0000000000000594
 20
0.0000000000000021
 30
0.0
 40
64.5
  0
CIRCLE
  5
1B5F6
  8
0
  6
CONTINUOUS
 62
     3
 10
0.0000000000000495
 20
0.0000000000000043
 30
0.0
 40
69.9999999999999858
  0
CIRCLE
  5
1B5F7
  8
0
  6
CONTINUOUS
 62
     3
 10
0.0000000000000495
 20
0.0000000000000043
 30
0.0
 40
72.0000000000485016
  0
CIRCLE
  5
1B5F8
  8
0
  6
CONTINUOUS
 62
     3
 10
0.0000000000001136
 20
0.0
 30
0.0
 40
63.7099256195317594
  0
LINE
  5
1B5F9
  8
0
  6
CONTINUOUS
 62
     3
 10
280.0000000000001137
 20
-150.0
 30
-0.0000000000000568
 11
0.0000000000000568
 21
-150.0
 31
0.0000000000000052
  0
ARC
  5
1B5FA
  8
0
  6
CONTINUOUS
 62
     3
 10
280.0000000000001137
 20
-130.0
 30
-0.0000000000000568
 40
20.0
 50
270.0
 51
0.0
  0
LINE
  5
1B5FB
  8
0
  6
CONTINUOUS
 62
     3
 10
300.0
 20
-130.0
 30
-0.0000000000000568
 11
300.0
 21
130.0
 31
-0.0000000000000568
  0
CIRCLE
  5
1B5FC
  8
0
  6
CONTINUOUS
 62
     3
 10
280.0000000000001137
 20
130.0
 30
-0.0000000000000568
 40
4.0
  0
CIRCLE
  5
1B5FD
  8
0
  6
CONTINUOUS
 62
     3
 10
280.0
 20
-130.0
 30
-0.0000000000000568
 40
4.0
  0
ARC
  5
1B5FE
  8
0
  6
CONTINUOUS
 62
     3
 10
280.0000000000001137
 20
130.0
 30
-0.0000000000000568
 40
20.0
 50
0.0
 51
90.0
  0
LINE
  5
1B5FF
  8
0
  6
CONTINUOUS
 62
     3
 10
280.0000000000001137
 20
150.0
 30
-0.0000000000000568
 11
0.0000000000000568
 21
150.0
 31
0.0000000000000052
  0
ARC
  5
1B600
  8
0
  6
CONTINUOUS
 62
     3
 10
0.0000000000000543
 20
0.0000000000000184
 30
0.0
 40
150.0
 50
90.0
 51
270.0
  0
CIRCLE
  5
1B601
  8
0
  6
CONTINUOUS
 62
     3
 10
0.0000000000000553
 20
0.0000000000000039
 30
0.0
 40
73.0
  0
CIRCLE
  5
1B602
  8
0
  6
VERDECKT
 62
     1
 10
0.0000000000001263
 20
0.0000000000000031
 30
0.0
 40
75.5
  0
CIRCLE
  5
1B603
  8
0
  6
VERDECKT
 62
     1
 10
0.000000000000127
 20
0.0000000000000029
 30
0.0
 40
71.4801488286690301
  0
CIRCLE
  5
1B604
  8
0
  6
VERDECKT
 62
     1
 10
0.0000000000001281
 20
0.0000000000000026
 30
0.0
 40
73.3000000000000114
  0
CIRCLE
  5
1B605
  8
0
  6
VERDECKT
 62
     1
 10
0.0000000000001293
 20
0.0000000000000023
 30
0.0
 40
75.7000000000000455
  0
CIRCLE
  5
1B606
  8
0
  6
VERDECKT
 62
     1
 10
0.0000000000001314
 20
0.0000000000000017
 30
0.0
 40
73.7000000000000455
  0
CIRCLE
  5
1B607
  8
0
  6
VERDECKT
 62
     1
 10
0.0000000000001307
 20
0.0000000000000019
 30
0.0
 40
70.7000000000000455
  0
CIRCLE
  5
1B608
  8
0
  6
VERDECKT
 62
     1
 10
0.0000000000001307
 20
0.0000000000000019
 30
0.0
 40
70.1568542494921985
  0
CIRCLE
  5
1B609
  8
0
  6
VERDECKT
 62
     1
 10
0.0000000000001263
 20
0.0000000000000031
 30
0.0
 40
67.5
  0
CIRCLE
  5
1B60A
  8
0
  6
VERDECKT
 62
     1
 10
0.0000000000000594
 20
0.0000000000000021
 30
0.0
 40
66.5
  0
CIRCLE
  5
1B60B
  8
0
  6
VERDECKT
 62
     1
 10
0.0000000000001137
 20
0.0
 30
0.0
 40
65.7000000000000028
  0
CIRCLE
  5
1B60C
  8
0
  6
VERDECKT
 62
     1
 10
0.0000000000000588
 20
0.0000000000000029
 30
0.0
 40
70.6486699680783516
  0
CIRCLE
  5
1B60D
  8
0
  6
VERDECKT
 62
     1
 10
0.0000000000000587
 20
0.000000000000003
 30
0.0
 40
69.75
  0
CIRCLE
  5
1B60E
  8
0
  6
VERDECKT
 62
     1
 10
0.0000000000000553
 20
0.0000000000000039
 30
0.0
 40
74.0
  0
CIRCLE
  5
1B60F
  8
0
  6
VERDECKT
 62
     1
 10
0.0000000000000563
 20
0.0000000000000036
 30
0.0
 40
74.5
  0
CIRCLE
  5
1B610
  8
0
  6
VERDECKT
 62
     1
 10
0.0000000000000563
 20
0.0000000000000036
 30
0.0
 40
73.5
  0
ENDBLK
  5
1B612
  8
0
  0
ENDSEC
  0
SECTION
  2
ENTITIES
  0
TEXT
  5
416B
  8
VOLL
 10
441.2467849443549994
 20
195.2108867802037935
 30
0.0
 40
1.8
  1

  7
GREEKS
  0
INSERT
  5
46F1
  8
ADSK_ASSOC_ENTITY_BACKUPS
  2
*S0
 10
0.0
 20
0.0
 30
0.0
  0
INSERT
  5
1B56D
  8
STEMPEL
  2
A$C6B244478
 10
0.0
 20
0.0
 30
0.0
  0
INSERT
  5
1B5F1
  8
STEMPEL
  2
A$C77A36E27
 10
500.0000000000002274
 20
-0.0000000000000568
 30
0.0
  0
INSERT
  5
1B613
  8
STEMPEL
  2
A$C6A0DA849
 10
0.0
 20
-280.9998957656649168
 30
0.0000000000000128
  0
VIEWPORT
  5
46D0
 67
     1
  8
0
 10
297.0106030273440183
 20
210.0055635070800975
 30
0.0
 40
798.1701256077442395
 41
426.3698209718668863
 68
     1
 69
     1
1001
ACAD
1000
MVIEW
1002
{
1070
    16
1010
0.0
1020
0.0
1030
0.0
1010
0.0
1020
0.0
1030
1.0
1040
0.0
1040
426.3698209718668863
1040
297.0106030273440183
1040
210.0055635070800975
1040
50.0
1040
0.0
1040
0.0
1070
     0
1070
  1500
1070
     1
1070
     1
1070
     0
1070
     0
1070
     0
1070
     0
1040
0.0
1040
0.0
1040
0.0
1040
10.0
1040
10.0
1040
10.0
1040
10.0
1070
     0
1002
{
1002
}
1002
}
  0
ENDSEC
  0
EOF
