  0
SECTION
  2
HEADER
  9
$ACADVER
  1
AC1009
  9
$INSBASE
 10
0.0
 20
0.0
 30
0.0
  9
$EXTMIN
 10
-122.5550647683612056
 20
-422.0897037184208216
 30
-0.0015258207003583
  9
$EXTMAX
 10
645.1063720128804562
 20
270.0940953054163742
 30
0.0000000349246037
  9
$LIMMIN
 10
0.0
 20
0.0
  9
$LIMMAX
 10
1681.9999999999990905
 20
1188.0
  9
$ORTHOMODE
 70
     1
  9
$REGENMODE
 70
     1
  9
$FILLMODE
 70
     1
  9
$QTEXTMODE
 70
     0
  9
$MIRRTEXT
 70
     1
  9
$DRAGMODE
 70
     2
  9
$LTSCALE
 40
20.0
  9
$OSMODE
 70
   511
  9
$ATTMODE
 70
     1
  9
$TEXTSIZE
 40
3.5
  9
$TRACEWID
 40
1.0
  9
$TEXTSTYLE
  7
STANDARD
  9
$CLAYER
  8
STEMPEL
  9
$CELTYPE
  6
BYLAYER
  9
$CECOLOR
 62
   256
  9
$DIMSCALE
 40
1.0
  9
$DIMASZ
 40
3.5
  9
$DIMEXO
 40
1.0
  9
$DIMDLI
 40
0.38
  9
$DIMRND
 40
0.0
  9
$DIMDLE
 40
0.0
  9
$DIMEXE
 40
1.0
  9
$DIMTP
 40
0.0
  9
$DIMTM
 40
0.000000001
  9
$DIMTXT
 40
3.5
  9
$DIMCEN
 40
0.09
  9
$DIMTSZ
 40
0.0
  9
$DIMTOL
 70
     0
  9
$DIMLIM
 70
     0
  9
$DIMTIH
 70
     0
  9
$DIMTOH
 70
     0
  9
$DIMSE1
 70
     0
  9
$DIMSE2
 70
     0
  9
$DIMTAD
 70
     1
  9
$DIMZIN
 70
     8
  9
$DIMBLK
  1

  9
$DIMASO
 70
     1
  9
$DIMSHO
 70
     0
  9
$DIMPOST
  1

  9
$DIMAPOST
  1

  9
$DIMALT
 70
     0
  9
$DIMALTD
 70
     2
  9
$DIMALTF
 40
25.3999999999999986
  9
$DIMLFAC
 40
2.0
  9
$DIMTOFL
 70
     1
  9
$DIMTVP
 40
0.0
  9
$DIMTIX
 70
     0
  9
$DIMSOXD
 70
     0
  9
$DIMSAH
 70
     0
  9
$DIMBLK1
  1

  9
$DIMBLK2
  1

  9
$DIMSTYLE
  2
LORO
  9
$DIMCLRD
 70
     0
  9
$DIMCLRE
 70
     0
  9
$DIMCLRT
 70
     1
  9
$DIMTFAC
 40
0.5
  9
$DIMGAP
 40
1.5
  9
$LUNITS
 70
     2
  9
$LUPREC
 70
     2
  9
$SKETCHINC
 40
1.0
  9
$FILLETRAD
 40
16.0
  9
$AUNITS
 70
     0
  9
$AUPREC
 70
     0
  9
$MENU
  1
ACAD
  9
$ELEVATION
 40
0.0
  9
$PELEVATION
 40
0.0
  9
$THICKNESS
 40
0.0
  9
$LIMCHECK
 70
     0
  9
$BLIPMODE
 70
     0
  9
$CHAMFERA
 40
2.0
  9
$CHAMFERB
 40
2.0
  9
$SKPOLY
 70
     0
  9
$TDCREATE
 40
2455397.867048610933125
  9
$TDUPDATE
 40
2459710.6303472220897675
  9
$TDINDWG
 40
4.1362617593
  9
$TDUSRTIMER
 40
4.1362617593
  9
$USRTIMER
 70
     1
  9
$ANGBASE
 50
0.0
  9
$ANGDIR
 70
     0
  9
$PDMODE
 70
     0
  9
$PDSIZE
 40
0.0
  9
$PLINEWID
 40
0.0
  9
$COORDS
 70
     1
  9
$SPLFRAME
 70
     0
  9
$SPLINETYPE
 70
     6
  9
$SPLINESEGS
 70
     8
  9
$ATTDIA
 70
     1
  9
$ATTREQ
 70
     1
  9
$HANDLING
 70
     1
  9
$HANDSEED
  5
1BDF8
  9
$SURFTAB1
 70
     6
  9
$SURFTAB2
 70
     6
  9
$SURFTYPE
 70
     6
  9
$SURFU
 70
     6
  9
$SURFV
 70
     6
  9
$UCSNAME
  2

  9
$UCSORG
 10
0.0
 20
0.0
 30
0.0
  9
$UCSXDIR
 10
1.0
 20
0.0
 30
0.0
  9
$UCSYDIR
 10
0.0
 20
1.0
 30
0.0
  9
$PUCSNAME
  2

  9
$PUCSORG
 10
0.0
 20
0.0
 30
0.0
  9
$PUCSXDIR
 10
1.0
 20
0.0
 30
0.0
  9
$PUCSYDIR
 10
0.0
 20
1.0
 30
0.0
  9
$USERI1
 70
     0
  9
$USERI2
 70
     0
  9
$USERI3
 70
     0
  9
$USERI4
 70
     0
  9
$USERI5
 70
     0
  9
$USERR1
 40
0.0
  9
$USERR2
 40
0.0
  9
$USERR3
 40
0.0
  9
$USERR4
 40
0.0
  9
$USERR5
 40
0.0
  9
$WORLDVIEW
 70
     1
  9
$SHADEDGE
 70
     3
  9
$SHADEDIF
 70
    70
  9
$TILEMODE
 70
     1
  9
$MAXACTVP
 70
    16
  9
$PLIMCHECK
 70
     0
  9
$PEXTMIN
 10
0.0
 20
0.0
 30
-0.0000000000004547
  9
$PEXTMAX
 10
594.0000000000002274
 20
616.1666145494988314
 30
0.0000000000001137
  9
$PLIMMIN
 10
-2.9593969726560352
 20
-2.0944364929199142
  9
$PLIMMAX
 10
596.9806030273440456
 20
422.1055635070800918
  9
$UNITMODE
 70
     0
  9
$VISRETAIN
 70
     0
  9
$PLINEGEN
 70
     0
  9
$PSLTSCALE
 70
     0
  0
ENDSEC
  0
SECTION
  2
TABLES
  0
TABLE
  2
VPORT
 70
     1
  0
VPORT
  2
*ACTIVE
 70
     0
 10
0.0
 20
0.0
 11
1.0
 21
1.0
 12
172.5256536222595116
 22
-149.7478042065021953
 13
0.0
 23
0.0
 14
1.0
 24
1.0
 15
10.0
 25
10.0
 16
0.0000000000003268
 26
0.0
 36
1485.3165615414789045
 17
88.75
 27
73.75
 37
0.000000000000001
 40
695.7243811160308269
 41
1.872013651877132
 42
50.0
 43
0.0
 44
0.0
 50
0.0
 51
0.0
 71
     0
 72
  1500
 73
     1
 74
     0
 75
     0
 76
     0
 77
     0
 78
     0
  0
ENDTAB
  0
TABLE
  2
LTYPE
 70
     3
  0
LTYPE
  2
CONTINUOUS
 70
     0
  3
Solid line
 72
    65
 73
     0
 40
0.0
  0
LTYPE
  2
STRICHPUNKT
 70
     0
  3
__ . __ . __ . __ . __ . __ . __ . __ . __ . __
 72
    65
 73
     4
 40
1.0
 49
0.5
 49
-0.25
 49
0.0
 49
-0.25
  0
LTYPE
  2
VERDECKT
 70
     0
  3
Verdeckt __ __ __ __ __ __ __ __ __ __ __ __ __
 72
    65
 73
     2
 40
0.375
 49
0.25
 49
-0.125
  0
ENDTAB
  0
TABLE
  2
LAYER
 70
     7
  0
LAYER
  2
0
 70
     0
 62
     7
  6
CONTINUOUS
  0
LAYER
  2
VOLL
 70
     0
 62
     1
  6
CONTINUOUS
  0
LAYER
  2
STEMPEL
 70
     0
 62
     3
  6
CONTINUOUS
  0
LAYER
  2
DEFPOINTS
 70
     0
 62
     7
  6
CONTINUOUS
  0
LAYER
  2
ADSK_ASSOC_ENTITY_BACKUPS
 70
     1
 62
    -7
  6
CONTINUOUS
  0
ENDTAB
  0
TABLE
  2
STYLE
 70
     3
  0
STYLE
  2
STANDARD
 70
     0
 40
0.0
 41
0.8
 50
0.0
 71
     0
 42
3.5
  3
simplex.shx
  4

  0
STYLE
  2
GREEKS
 70
     0
 40
0.0
 41
0.8
 50
0.0
 71
     0
 42
2.5
  3
SIMPLEX.shx
  4

  0
ENDTAB
  0
TABLE
  2
VIEW
 70
     0
  0
ENDTAB
  0
TABLE
  2
UCS
 70
     0
  0
ENDTAB
  0
TABLE
  2
APPID
 70
    30
  0
APPID
  2
ACAD
 70
     0
  0
APPID
  2
ACAD_EXEMPT_FROM_CAD_STANDARDS
 70
     0
  0
APPID
  2
ACAD_NAV_VCDISPLAY
 70
     0
  0
APPID
  2
GRADIENTCOLOR1ACI
 70
     0
  0
APPID
  2
GRADIENTCOLOR2ACI
 70
     0
  0
APPID
  2
ACAUTHENVIRON
 70
     0
  0
APPID
  2
ACDBDYNAMICBLOCKTRUENAME
 70
     0
  0
APPID
  2
ACDBDYNAMICBLOCKGUID
 70
     0
  0
APPID
  2
ACAD_PSEXT
 70
     0
  0
APPID
  2
ACAD_MLEADERVER
 70
     0
  0
APPID
  2
ACAECLAYERSTANDARD
 70
     0
  0
APPID
  2
ACCMTRANSPARENCY
 70
     0
  0
APPID
  2
ACAD_STEPID
 70
     0
  0
APPID
  2
ACSYNERGY
 70
     0
  0
APPID
  2
SYNERGY_BODY_TBR_ID
 70
     0
  0
APPID
  2
ACAD_VIEW_EDGE_ID
 70
     0
  0
APPID
  2
ACAD_DSTYLE_DIMJAG
 70
     0
  0
APPID
  2
ACAD_DSTYLE_DIMBREAK
 70
     0
  0
APPID
  2
ACAD_DSTYLE_DIMTALN
 70
     0
  0
APPID
  2
ACADANNOMONITORALERTICONDI
 70
     0
  0
APPID
  2
ACAD_DIMASSOC_CALC_DIMLFAC
 70
     0
  0
APPID
  2
ACAD_DIMASSOC_DIMLFAC
 70
     0
  0
APPID
  2
ACAD_DIMASSOC_OVERRIDDEN_D
 70
     0
  0
APPID
  2
ACAD_DSTYLE_DIMRADIAL_EXTENSION
 70
     0
  0
APPID
  2
ACADANNOPO
 70
     0
  0
APPID
  2
ACSYNERGYSKETCH
 70
     0
  0
APPID
  2
ACAD_MODELDOC_XFORM
 70
     0
  0
APPID
  2
SYNERGY_EXCLUDED_FROM_SNAPSHOT
 70
     0
  0
APPID
  2
PLOTTRANSPARENCY
 70
     0
  0
APPID
  2
ACAD_TC
 70
     0
  0
ENDTAB
  0
TABLE
  2
DIMSTYLE
 70
     2
  0
DIMSTYLE
  2
STANDARD
 70
     0
  3

  4

  5

  6

  7

 40
1.0
 41
0.18
 42
0.0625
 43
0.38
 44
0.18
 45
0.0
 46
0.0
 47
0.0
 48
0.0
140
0.18
141
0.09
142
0.0
143
25.3999999999999986
144
1.0
145
0.0
146
1.0
147
0.09
 71
     0
 72
     0
 73
     1
 74
     1
 75
     0
 76
     0
 77
     0
 78
     0
170
     0
171
     2
172
     0
173
     0
174
     0
175
     0
176
     0
177
     0
178
     0
  0
DIMSTYLE
  2
LORO
 70
     0
  3

  4

  5

  6

  7

 40
1.0
 41
3.5
 42
1.0
 43
0.38
 44
1.0
 45
0.0
 46
0.0
 47
0.0
 48
0.000000001
140
3.5
141
0.09
142
0.0
143
25.3999999999999986
144
2.0
145
0.0
146
0.5
147
1.5
 71
     0
 72
     0
 73
     0
 74
     0
 75
     0
 76
     0
 77
     1
 78
     8
170
     0
171
     2
172
     1
173
     0
174
     0
175
     0
176
     0
177
     0
178
     1
  0
ENDTAB
  0
ENDSEC
  0
SECTION
  2
BLOCKS
  0
BLOCK
  8
0
  2
$MODEL_SPACE
 70
     0
 10
0.0
 20
0.0
 30
0.0
  3
$MODEL_SPACE
  1

  0
ENDBLK
  5
38
  8
0
  0
BLOCK
 67
     1
  8
0
  2
$PAPER_SPACE
 70
     0
 10
0.0
 20
0.0
 30
0.0
  3
$PAPER_SPACE
  1

  0
ENDBLK
  5
36
 67
     1
  8
0
  0
BLOCK
  8
0
  2
*S0
 70
     1
 10
0.0
 20
0.0
 30
0.0
  3
*S0
  1

  0
ENDBLK
  5
46EF
  8
0
  0
BLOCK
  8
0
  2
A$C7AB7772D
 70
     0
 10
0.0
 20
0.0
 30
0.0
  3
A$C7AB7772D
  1

  0
CIRCLE
  5
1BCA5
  8
0
  6
CONTINUOUS
 62
     3
 10
0.0000000000001667
 20
-0.0000000000000031
 30
0.0
 40
50.0
  0
CIRCLE
  5
1BCA6
  8
0
  6
CONTINUOUS
 62
     3
 10
0.0000000000001689
 20
0.0000000000000043
 30
0.0
 40
59.0
  0
CIRCLE
  5
1BCA7
  8
0
  6
CONTINUOUS
 62
     3
 10
0.0000000000001689
 20
0.0000000000000043
 30
0.0
 40
60.5
  0
CIRCLE
  5
1BCA8
  8
0
  6
CONTINUOUS
 62
     3
 10
0.0000000000001137
 20
0.0
 30
0.0
 40
49.2074442146850117
  0
CIRCLE
  5
1BCA9
  8
0
  6
CONTINUOUS
 62
     3
 10
0.000000000000097
 20
0.0000000000000065
 30
0.0
 40
47.5
  0
LINE
  5
1BCAA
  8
0
  6
CONTINUOUS
 62
     3
 10
280.0000000000001137
 20
-122.5
 30
0.0000000000000568
 11
0.0000000000001705
 21
-122.5000000000000995
 31
-0.000000000000005
  0
ARC
  5
1BCAB
  8
0
  6
CONTINUOUS
 62
     3
 10
280.0000000000002274
 20
-102.5
 30
0.0000000000000568
 40
20.0000000000000391
 50
270.0
 51
0.0000000000000382
  0
LINE
  5
1BCAC
  8
0
  6
CONTINUOUS
 62
     3
 10
300.0
 20
102.5
 30
0.0000000000000568
 11
300.0
 21
-102.5
 31
0.0000000000000568
  0
ARC
  5
1BCAD
  8
0
  6
CONTINUOUS
 62
     3
 10
280.0000000000002274
 20
102.4999999999999005
 30
0.0000000000000568
 40
20.0000000000000391
 50
0.0000000000001018
 51
90.000000000000469
  0
CIRCLE
  5
1BCAE
  8
0
  6
CONTINUOUS
 62
     3
 10
280.0000000000002274
 20
102.5
 30
0.0000000000000568
 40
3.9999999999999849
  0
CIRCLE
  5
1BCAF
  8
0
  6
CONTINUOUS
 62
     3
 10
280.0000000000002274
 20
-102.5
 30
0.0000000000000568
 40
3.9999999999999849
  0
ARC
  5
1BCB0
  8
0
  6
CONTINUOUS
 62
     3
 10
0.0000000000001729
 20
-0.0000000000000568
 30
0.0
 40
122.5
 50
90.0
 51
270.0
  0
LINE
  5
1BCB1
  8
0
  6
CONTINUOUS
 62
     3
 10
0.0000000000004003
 20
122.5
 30
0.0
 11
280.0
 21
122.5
 31
0.0000000000000619
  0
CIRCLE
  5
1BCB2
  8
0
  6
CONTINUOUS
 62
     3
 10
0.0000000000001712
 20
-0.0000000000000426
 30
0.0
 40
61.5
  0
CIRCLE
  5
1BCB3
  8
0
  6
VERDECKT
 62
     1
 10
0.0000000000001312
 20
-0.0000000000000032
 30
0.0
 40
51.4999999999999787
  0
CIRCLE
  5
1BCB4
  8
0
  6
VERDECKT
 62
     1
 10
0.0000000000001137
 20
0.0
 30
0.0
 40
50.7000000000000028
  0
CIRCLE
  5
1BCB5
  8
0
  6
VERDECKT
 62
     1
 10
0.0000000000001004
 20
0.0000000000000074
 30
0.0
 40
51.8000000000000114
  0
CIRCLE
  5
1BCB6
  8
0
  6
VERDECKT
 62
     1
 10
0.0000000000000423
 20
-0.0016575748095043
 30
0.0
 40
57.75
  0
CIRCLE
  5
1BCB7
  8
0
  6
VERDECKT
 62
     1
 10
0.0000000000000412
 20
-0.0016575748095046
 30
0.0
 40
57.1171444324796695
  0
CIRCLE
  5
1BCB8
  8
0
  6
VERDECKT
 62
     1
 10
0.0000000000000403
 20
-0.0016575748095048
 30
0.0
 40
60.0
  0
CIRCLE
  5
1BCB9
  8
0
  6
VERDECKT
 62
     1
 10
0.0000000000000403
 20
-0.0016575748095048
 30
0.0
 40
58.0
  0
CIRCLE
  5
1BCBA
  8
0
  6
VERDECKT
 62
     1
 10
0.0000000000000407
 20
-0.0016575748095047
 30
0.0
 40
56.5995849235806077
  0
CIRCLE
  5
1BCBB
  8
0
  6
VERDECKT
 62
     1
 10
0.0000000000000407
 20
-0.0016575748095047
 30
0.0
 40
54.3989794855663717
  0
CIRCLE
  5
1BCBC
  8
0
  6
VERDECKT
 62
     1
 10
0.0000000000000442
 20
-0.0016575748095037
 30
0.0
 40
59.5
  0
CIRCLE
  5
1BCBD
  8
0
  6
VERDECKT
 62
     1
 10
0.0000000000000441
 20
-0.0016575748095038
 30
0.0
 40
54.8394515204001891
  0
CIRCLE
  5
1BCBE
  8
0
  6
VERDECKT
 62
     1
 10
0.0000000000001711
 20
-0.0000000000000426
 30
0.0
 40
62.4659258262891015
  0
ENDBLK
  5
1BCC0
  8
0
  0
BLOCK
  8
0
  2
A$C40E76CC6
 70
     0
 10
0.0
 20
0.0
 30
0.0
  3
A$C40E76CC6
  1

  0
LINE
  5
1BCC4
  8
0
  6
CONTINUOUS
 62
     3
 10
-60.4999999999998934
 20
269.9999999999997158
 30
-0.00000000000006
 11
60.5000000000001066
 21
269.9999999999997158
 31
-0.00000000000006
210
0.0
220
1.0
230
-0.0000000000000002
  0
LINE
  5
1BCC5
  8
0
  6
CONTINUOUS
 62
     3
 10
-50.6999999999998607
 20
-0.0000000000003159
 30
0.0
 11
50.7000000000001023
 21
-0.0000000000003094
 31
0.0
210
0.0
220
1.0
230
-0.0000000000000002
  0
ARC
  5
1BCC6
  8
0
  6
CONTINUOUS
 62
     3
 10
53.9999999999995595
 20
259.9999999999997726
 30
0.0
 40
6.5000000000003411
210
0.0
220
-0.0000000000000002
230
-1.0
 50
329.9796896468815817
 51
357.7179753288701818
  0
ARC
  5
1BCC7
  8
0
  6
CONTINUOUS
 62
     3
 10
-53.9999999999997797
 20
259.9999999999997726
 30
0.0
 40
6.5000000000003313
210
0.0
220
-0.0000000000000002
230
-1.0
 50
182.2820246711297898
 51
210.0203103531183899
  0
LINE
  5
1BCC8
  8
0
  6
CONTINUOUS
 62
     3
 10
-52.8415189189037804
 20
245.0030695945887089
 30
-0.0000000000000544
 11
-59.6280127027123825
 21
256.7480047635169171
 31
-0.000000000000057
210
0.0
220
1.0
230
-0.0000000000000002
  0
LINE
  5
1BCC9
  8
0
  6
CONTINUOUS
 62
     3
 10
52.8415189189040007
 20
245.0030695945887089
 30
-0.0000000000000544
 11
59.6280127027126028
 21
256.7480047635169171
 31
-0.000000000000057
210
0.0
220
1.0
230
-0.0000000000000002
  0
ARC
  5
1BCCA
  8
0
  6
CONTINUOUS
 62
     3
 10
61.5000000000000924
 20
239.9999999999996874
 30
0.0
 40
10.0000000000002096
210
0.0
220
-0.0000000000000002
230
-1.0
 50
149.9796896468810132
 51
179.9999999999996021
  0
ARC
  5
1BCCB
  8
0
  6
CONTINUOUS
 62
     3
 10
-61.5000000000001421
 20
239.999999999999801
 30
0.0
 40
10.0000000000000302
210
0.0
220
-0.0000000000000002
230
-1.0
 50
0.0
 51
30.0203103531189903
  0
LINE
  5
1BCCC
  8
0
  6
CONTINUOUS
 62
     3
 10
60.5000000000001066
 20
269.9999999999997158
 30
-0.00000000000006
 11
60.5000000000001066
 21
267.9999999999997726
 31
-0.0000000000000595
210
0.0
220
1.0
230
-0.0000000000000002
  0
LINE
  5
1BCCD
  8
0
  6
CONTINUOUS
 62
     3
 10
-60.4999999999999005
 20
269.9999999999997158
 30
-0.00000000000006
 11
-60.4999999999999005
 21
267.9999999999997726
 31
-0.0000000000000595
210
0.0
220
1.0
230
-0.0000000000000002
  0
ARC
  5
1BCCE
  8
0
  6
CONTINUOUS
 62
     3
 10
50.4999999999962697
 20
8.0498756211207123
 30
0.0
 40
1.0000000000036089
210
0.0
220
-0.0000000000000002
230
-1.0
 50
354.2894068625121804
 51
359.9999999999910756
  0
ARC
  5
1BCCF
  8
0
  6
CONTINUOUS
 62
     3
 10
-50.4999999999965468
 20
8.0498756211207176
 30
0.0
 40
1.000000000003566
210
0.0
220
-0.0000000000000002
230
-1.0
 50
180.000000000008697
 51
185.7105931374879049
  0
LINE
  5
1BCD0
  8
0
  6
CONTINUOUS
 62
     3
 10
51.5000000000000995
 20
239.999999999999801
 30
-0.0000000000000533
 11
51.5000000000001066
 21
8.0498756211205791
 31
-0.0000000000000018
210
0.0
220
1.0
230
-0.0000000000000002
  0
LINE
  5
1BCD1
  8
0
  6
CONTINUOUS
 62
     3
 10
-51.4999999999999005
 20
239.999999999999801
 30
-0.0000000000000533
 11
-51.4999999999998792
 21
8.0498756211205507
 31
-0.0000000000000018
210
0.0
220
1.0
230
-0.0000000000000002
  0
LINE
  5
1BCD2
  8
0
  6
CONTINUOUS
 62
     3
 10
-50.6999999999998892
 20
-0.0000000000003157
 30
0.0
 11
-51.4950371902098709
 21
7.95037190209956
 31
-0.0000000000000018
210
0.0
220
1.0
230
-0.0000000000000002
  0
LINE
  5
1BCD3
  8
0
  6
CONTINUOUS
 62
     3
 10
50.7000000000001094
 20
-0.0000000000003131
 30
0.0
 11
51.4950371902100983
 21
7.9503719020995671
 31
-0.0000000000000018
210
0.0
220
1.0
230
-0.0000000000000002
  0
LINE
  5
1BCD4
  8
0
  6
CONTINUOUS
 62
     3
 10
-55.6090464708851684
 20
-50.0000000000000071
 30
0.0000000000000111
 11
55.6090464708852892
 21
-50.0000000000000071
 31
0.0000000000000111
210
0.0
220
1.0
230
-0.0000000000000002
  0
LINE
  5
1BCD5
  8
0
  6
CONTINUOUS
 62
     3
 10
-57.7499999999999503
 20
-66.0000000000000995
 30
0.0000000000000147
 11
57.7500000000000497
 21
-66.0000000000000995
 31
0.0000000000000147
210
0.0
220
1.0
230
-0.0000000000000002
  0
LINE
  5
1BCD6
  8
0
  6
CONTINUOUS
 62
     3
 10
-59.4999999999999432
 20
-67.5000000000001563
 30
0.000000000000015
 11
59.5000000000000568
 21
-67.5000000000001563
 31
0.000000000000015
210
0.0
220
1.0
230
-0.0000000000000002
  0
LINE
  5
1BCD7
  8
0
  6
CONTINUOUS
 62
     3
 10
-59.4999999999999432
 20
-68.5000000000001137
 30
0.0000000000000152
 11
59.5000000000000568
 21
-68.5000000000001137
 31
0.0000000000000152
210
0.0
220
1.0
230
-0.0000000000000002
  0
LINE
  5
1BCD8
  8
0
  6
CONTINUOUS
 62
     3
 10
-57.1171444324796127
 20
-70.8828555675204655
 30
0.0000000000000157
 11
57.1171444324797335
 21
-70.8828555675204655
 31
0.0000000000000157
210
0.0
220
1.0
230
-0.0000000000000002
  0
LINE
  5
1BCD9
  8
0
  6
CONTINUOUS
 62
     3
 10
-59.9999999999999432
 20
-75.0000000000000711
 30
0.0000000000000167
 11
60.0000000000000568
 21
-75.0000000000000711
 31
0.0000000000000167
210
0.0
220
1.0
230
-0.0000000000000002
  0
LINE
  5
1BCDA
  8
0
  6
CONTINUOUS
 62
     3
 10
-49.4999999999999432
 20
-77.0000000000000853
 30
0.0000000000000171
 11
49.5000000000000568
 21
-77.0000000000000853
 31
0.0000000000000171
210
0.0
220
1.0
230
-0.0000000000000002
  0
LINE
  5
1BCDB
  8
0
  6
CONTINUOUS
 62
     3
 10
-59.4999999999999432
 20
-57.0000000000001279
 30
0.0000000000000127
 11
59.5000000000000568
 21
-57.0000000000001279
 31
0.0000000000000127
210
0.0
220
1.0
230
-0.0000000000000002
  0
ARC
  5
1BCDC
  8
0
  6
CONTINUOUS
 62
     3
 10
55.6394515204001365
 20
-57.8000000000001606
 30
0.0
 40
0.8000000000000042
210
0.0
220
-0.0000000000000002
230
-1.0
 50
89.9999999999959357
 51
199.8552143693231073
  0
ARC
  5
1BCDD
  8
0
  6
CONTINUOUS
 62
     3
 10
-55.6394515204002573
 20
-57.8000000000001606
 30
0.0
 40
0.8000000000000133
210
0.0
220
-0.0000000000000002
230
-1.0
 50
340.144785630676779
 51
90.0000000000040643
  0
LINE
  5
1BCDE
  8
0
  6
CONTINUOUS
 62
     3
 10
54.8870084006469199
 20
-58.0717155710222315
 30
0.0000000000000129
 11
57.7500000000000924
 21
-66.0000000000000853
 31
0.0000000000000147
210
0.0
220
1.0
230
-0.0000000000000002
  0
LINE
  5
1BCDF
  8
0
  6
CONTINUOUS
 62
     3
 10
-54.8870084006467991
 20
-58.0717155710222315
 30
0.0000000000000129
 11
-57.7499999999999716
 21
-66.0000000000000853
 31
0.0000000000000147
210
0.0
220
1.0
230
-0.0000000000000002
  0
LINE
  5
1BCE0
  8
0
  6
CONTINUOUS
 62
     3
 10
57.7500000000000497
 20
-66.0000000000000995
 30
0.0000000000000147
 11
59.5000000000000568
 21
-67.5000000000001563
 31
0.000000000000015
210
0.0
220
1.0
230
-0.0000000000000002
  0
LINE
  5
1BCE1
  8
0
  6
CONTINUOUS
 62
     3
 10
-57.7499999999999503
 20
-66.0000000000000995
 30
0.0000000000000147
 11
-59.4999999999999432
 21
-67.5000000000001563
 31
0.000000000000015
210
0.0
220
1.0
230
-0.0000000000000002
  0
LINE
  5
1BCE2
  8
0
  6
CONTINUOUS
 62
     3
 10
59.5000000000000568
 20
-67.5000000000001563
 30
0.000000000000015
 11
59.5000000000000568
 21
-68.5000000000001137
 31
0.0000000000000152
210
0.0
220
1.0
230
-0.0000000000000002
  0
LINE
  5
1BCE3
  8
0
  6
CONTINUOUS
 62
     3
 10
-59.4999999999999432
 20
-67.5000000000001563
 30
0.000000000000015
 11
-59.4999999999999432
 21
-68.5000000000001137
 31
0.0000000000000152
210
0.0
220
1.0
230
-0.0000000000000002
  0
LINE
  5
1BCE4
  8
0
  6
CONTINUOUS
 62
     3
 10
-57.1171444324796127
 20
-70.8828555675204655
 30
0.0000000000000157
 11
-59.4999999999999289
 21
-68.5000000000001137
 31
0.0000000000000152
210
0.0
220
1.0
230
-0.0000000000000002
  0
LINE
  5
1BCE5
  8
0
  6
CONTINUOUS
 62
     3
 10
57.1171444324797335
 20
-70.8828555675204655
 30
0.0000000000000157
 11
59.5000000000000497
 21
-68.5000000000001137
 31
0.0000000000000152
210
0.0
220
1.0
230
-0.0000000000000002
  0
LINE
  5
1BCE6
  8
0
  6
CONTINUOUS
 62
     3
 10
57.1171444324797335
 20
-70.8828555675204655
 30
0.0000000000000157
 11
60.0000000000000497
 21
-75.0000000000000711
 31
0.0000000000000167
210
0.0
220
1.0
230
-0.0000000000000002
  0
LINE
  5
1BCE7
  8
0
  6
CONTINUOUS
 62
     3
 10
-57.1171444324796127
 20
-70.8828555675204655
 30
0.0000000000000157
 11
-59.9999999999999289
 21
-75.0000000000000711
 31
0.0000000000000167
210
0.0
220
1.0
230
-0.0000000000000002
  0
ARC
  5
1BCE8
  8
0
  6
CONTINUOUS
 62
     3
 10
49.4999999999999005
 20
-72.0000000000000142
 30
0.0
 40
5.0000000000000853
210
0.0
220
-0.0000000000000002
230
-1.0
 50
270.0
 51
323.1301023541556106
  0
ARC
  5
1BCE9
  8
0
  6
CONTINUOUS
 62
     3
 10
-49.5000000000000071
 20
-72.0000000000000142
 30
0.0
 40
5.000000000000087
210
0.0
220
-0.0000000000000002
230
-1.0
 50
216.8698976458439063
 51
269.9999999999994884
  0
ARC
  5
1BCEA
  8
0
  6
CONTINUOUS
 62
     3
 10
55.6090464708851684
 20
-51.4999999999999574
 30
0.0
 40
1.4999999999999469
210
0.0
220
-0.0000000000000002
230
-1.0
 50
25.8941133784704611
 51
90.0
  0
ARC
  5
1BCEB
  8
0
  6
CONTINUOUS
 62
     3
 10
-55.6090464708852892
 20
-51.4999999999999574
 30
0.0
 40
1.49999999999995
210
0.0
220
-0.0000000000000002
230
-1.0
 50
90.0
 51
154.1058866215294927
  0
LINE
  5
1BCEC
  8
0
  6
CONTINUOUS
 62
     3
 10
56.9584504483275893
 20
-50.8449359530071021
 30
0.0000000000000113
 11
59.0984106065129069
 21
-55.2531625413522107
 31
0.0000000000000123
210
0.0
220
1.0
230
-0.0000000000000002
  0
LINE
  5
1BCED
  8
0
  6
CONTINUOUS
 62
     3
 10
-56.9584504483274685
 20
-50.8449359530071021
 30
0.0000000000000113
 11
-59.0984106065127932
 21
-55.2531625413522107
 31
0.0000000000000123
210
0.0
220
1.0
230
-0.0000000000000002
  0
ARC
  5
1BCEE
  8
0
  6
CONTINUOUS
 62
     3
 10
55.4999999999988987
 20
-57.0000000000004405
 30
0.0
 40
4.0000000000010374
210
0.0
220
-0.0000000000000002
230
-1.0
 50
0.0000000000044782
 51
25.8941133784711894
  0
ARC
  5
1BCEF
  8
0
  6
CONTINUOUS
 62
     3
 10
-55.4999999999990195
 20
-57.0000000000004405
 30
0.0
 40
4.0000000000010374
210
0.0
220
-0.0000000000000002
230
-1.0
 50
154.1058866215288106
 51
179.9999999999955094
  0
LINE
  5
1BCF0
  8
0
  6
CONTINUOUS
 62
     3
 10
0.0000000000001137
 20
266.9999999999997158
 30
-0.0000000000000593
 11
280.0
 21
266.9999999999997158
 31
-0.0000000000000593
210
0.0
220
1.0
230
-0.0000000000000002
  0
LINE
  5
1BCF1
  8
0
  6
CONTINUOUS
 62
     3
 10
280.0000000000001137
 20
267.9999999999997158
 30
-0.0000000000000595
 11
0.0000000000001137
 21
267.9999999999990905
 31
-0.0000000000000595
210
0.0
220
1.0
230
-0.0000000000000002
  0
LINE
  5
1BCF2
  8
0
  6
CONTINUOUS
 62
     3
 10
300.0000000000002274
 20
266.9999999999996021
 30
-0.0000000000000593
 11
280.0
 21
266.9999999999996021
 31
-0.0000000000000593
210
0.0
220
1.0
230
-0.0000000000000002
  0
LINE
  5
1BCF3
  8
0
  6
CONTINUOUS
 62
     3
 10
300.0
 20
266.9999999999997158
 30
-0.0000000000000593
 11
300.0
 21
267.9999999999997726
 31
-0.0000000000000595
210
0.0
220
1.0
230
-0.0000000000000002
  0
LINE
  5
1BCF4
  8
0
  6
CONTINUOUS
 62
     3
 10
300.0000000000002274
 20
267.9999999999997726
 30
-0.0000000000000595
 11
280.0000000000001137
 21
267.9999999999997726
 31
-0.0000000000000595
210
0.0
220
1.0
230
-0.0000000000000002
  0
LINE
  5
1BCF5
  8
0
  6
CONTINUOUS
 62
     3
 10
0.0000000000001046
 20
266.9999999999997158
 30
-0.0000000000000593
 11
-122.4999999999999005
 21
266.9999999999997158
 31
-0.0000000000000593
210
0.0
220
1.0
230
-0.0000000000000002
  0
LINE
  5
1BCF6
  8
0
  6
CONTINUOUS
 62
     3
 10
-122.499999999999801
 20
267.9999999999997726
 30
-0.0000000000000595
 11
0.0000000000000853
 21
267.9999999999997726
 31
-0.0000000000000595
210
0.0
220
1.0
230
-0.0000000000000002
  0
LINE
  5
1BCF7
  8
0
  6
CONTINUOUS
 62
     3
 10
62.465925826289201
 20
259.741180954897402
 30
-0.0000000000000577
 11
-62.4659258262889807
 21
259.741180954897402
 31
-0.0000000000000577
210
0.0
220
1.0
230
-0.0000000000000002
  0
LINE
  5
1BCF8
  8
0
  6
CONTINUOUS
 62
     3
 10
-122.4999999999999005
 20
267.9999999999997726
 30
-0.0000000000000595
 11
-122.4999999999999005
 21
266.9999999999996021
 31
-0.0000000000000593
210
0.0
220
1.0
230
-0.0000000000000002
  0
LINE
  5
1BCF9
  8
0
  6
CONTINUOUS
 62
     3
 10
-62.4659258262889807
 20
259.741180954897402
 30
-0.0000000000000577
 11
-64.2123216891177151
 21
266.2588190451024843
 31
-0.0000000000000591
210
0.0
220
1.0
230
-0.0000000000000002
  0
LINE
  5
1BCFA
  8
0
  6
CONTINUOUS
 62
     3
 10
62.465925826289201
 20
259.741180954897402
 30
-0.0000000000000577
 11
64.2123216891179425
 21
266.2588190451024843
 31
-0.0000000000000591
210
0.0
220
1.0
230
-0.0000000000000002
  0
ARC
  5
1BCFB
  8
0
  6
CONTINUOUS
 62
     3
 10
-65.1782475154071363
 20
265.9999999999997726
 30
0.0
 40
1.0000000000001561
210
0.0
220
-0.0000000000000002
230
-1.0
 50
15.0000000000089102
 51
89.999999999992653
  0
ARC
  5
1BCFC
  8
0
  6
CONTINUOUS
 62
     3
 10
65.178247515406909
 20
265.9999999999997726
 30
0.0
 40
1.0000000000001701
210
0.0
220
-0.0000000000000002
230
-1.0
 50
90.0000000000073328
 51
164.999999999991104
  0
LINE
  5
1BCFD
  8
0
  6
VERDECKT
 62
     1
 10
-49.2074442146849194
 20
0.1492555785311862
 30
0.0
 11
49.2074442146851325
 21
0.1492555785311924
 31
0.0
210
0.0
220
1.0
230
-0.0000000000000002
  0
ARC
  5
1BCFE
  8
0
  6
VERDECKT
 62
     1
 10
54.0000000000164135
 20
259.9999999999993747
 30
0.0
 40
6.4999999999834799
210
0.0
220
-0.0000000000000002
230
-1.0
 50
357.717975328868306
 51
0.0000000000030024
  0
ARC
  5
1BCFF
  8
0
  6
VERDECKT
 62
     1
 10
-53.9999999999808082
 20
260.0
 30
0.0
 40
6.5000000000192983
210
0.0
220
-0.0000000000000002
230
-1.0
 50
180.000000000002899
 51
182.2820246711251002
  0
ARC
  5
1BD00
  8
0
  6
VERDECKT
 62
     1
 10
61.5000000000000782
 20
239.999999999999801
 30
0.0
 40
11.5000000000001901
210
0.0
220
-0.0000000000000002
230
-1.0
 50
149.9796896468810985
 51
179.999999999999801
  0
ARC
  5
1BD01
  8
0
  6
VERDECKT
 62
     1
 10
-61.5000000000000426
 20
239.999999999999801
 30
0.0
 40
11.4999999999999307
210
0.0
220
-0.0000000000000002
230
-1.0
 50
359.9999999999997726
 51
30.0203103531191502
  0
LINE
  5
1BD02
  8
0
  6
VERDECKT
 62
     1
 10
-51.5427467567393407
 20
245.7535300337771105
 30
-0.0000000000000546
 11
-58.329240540547957
 21
257.4984652027052903
 31
-0.0000000000000572
210
0.0
220
1.0
230
-0.0000000000000002
  0
LINE
  5
1BD03
  8
0
  6
VERDECKT
 62
     1
 10
51.542746756739561
 20
245.7535300337771105
 30
-0.0000000000000546
 11
58.3292405405481702
 21
257.4984652027052903
 31
-0.0000000000000572
210
0.0
220
1.0
230
-0.0000000000000002
  0
ARC
  5
1BD04
  8
0
  6
VERDECKT
 62
     1
 10
54.0000000000002132
 20
259.9999999999997158
 30
0.0
 40
4.9999999999996669
210
0.0
220
-0.0000000000000002
230
-1.0
 50
329.9796896468793079
 51
0.0000000000012582
  0
ARC
  5
1BD05
  8
0
  6
VERDECKT
 62
     1
 10
-54.0000000000004192
 20
259.9999999999997158
 30
0.0
 40
4.9999999999996794
210
0.0
220
-0.0000000000000002
230
-1.0
 50
179.9999999999986073
 51
210.0203103531206068
  0
LINE
  5
1BD06
  8
0
  6
VERDECKT
 62
     1
 10
59.0000000000001066
 20
269.9999999999997726
 30
-0.00000000000006
 11
59.0000000000001066
 21
259.9999999999997726
 31
-0.0000000000000577
210
0.0
220
1.0
230
-0.0000000000000002
  0
LINE
  5
1BD07
  8
0
  6
VERDECKT
 62
     1
 10
-58.9999999999998934
 20
269.9999999999997726
 30
-0.00000000000006
 11
-58.9999999999998934
 21
259.9999999999997726
 31
-0.0000000000000577
210
0.0
220
1.0
230
-0.0000000000000002
  0
LINE
  5
1BD08
  8
0
  6
VERDECKT
 62
     1
 10
60.5000000000001066
 20
267.9999999999997726
 30
-0.0000000000000595
 11
60.5000000000001066
 21
259.9999999999997158
 31
-0.0000000000000577
210
0.0
220
1.0
230
-0.0000000000000002
  0
LINE
  5
1BD09
  8
0
  6
VERDECKT
 62
     1
 10
-60.4999999999999005
 20
267.9999999999997726
 30
-0.0000000000000595
 11
-60.4999999999999005
 21
259.9999999999997158
 31
-0.0000000000000577
210
0.0
220
1.0
230
-0.0000000000000002
  0
ARC
  5
1BD0A
  8
0
  6
VERDECKT
 62
     1
 10
48.9999999999962128
 20
8.1246890528021023
 30
0.0
 40
1.0000000000036731
210
0.0
220
-0.0000000000000002
230
-1.0
 50
354.2894068625122941
 51
359.9999999999909051
  0
ARC
  5
1BD0B
  8
0
  6
VERDECKT
 62
     1
 10
-48.9999999999964402
 20
8.1246890528021094
 30
0.0
 40
1.0000000000036731
210
0.0
220
-0.0000000000000002
230
-1.0
 50
180.0000000000090097
 51
185.7105931374877059
  0
LINE
  5
1BD0C
  8
0
  6
VERDECKT
 62
     1
 10
-49.2074442146849123
 20
0.1492555785311867
 30
0.0
 11
-49.995037190209878
 21
8.0251853337809447
 31
-0.0000000000000018
210
0.0
220
1.0
230
-0.0000000000000002
  0
LINE
  5
1BD0D
  8
0
  6
VERDECKT
 62
     1
 10
49.2074442146851183
 20
0.1492555785311862
 30
0.0
 11
49.9950371902100983
 21
8.0251853337809518
 31
-0.0000000000000018
210
0.0
220
1.0
230
-0.0000000000000002
  0
LINE
  5
1BD0E
  8
0
  6
VERDECKT
 62
     1
 10
50.0000000000000995
 20
239.999999999999801
 30
-0.0000000000000533
 11
50.0000000000001066
 21
8.1246890528019566
 31
-0.0000000000000018
210
0.0
220
1.0
230
-0.0000000000000002
  0
LINE
  5
1BD0F
  8
0
  6
VERDECKT
 62
     1
 10
-49.9999999999999005
 20
239.999999999999801
 30
-0.0000000000000533
 11
-49.9999999999998934
 21
8.1246890528019566
 31
-0.0000000000000018
210
0.0
220
1.0
230
-0.0000000000000002
  0
LINE
  5
1BD10
  8
0
  6
VERDECKT
 62
     1
 10
49.2074442146851325
 20
0.1492555785311911
 30
0.0
 11
50.7000000000001094
 21
-0.0000000000003075
 31
0.0
210
0.0
220
1.0
230
-0.0000000000000002
  0
LINE
  5
1BD11
  8
0
  6
VERDECKT
 62
     1
 10
-49.2074442146849123
 20
0.149255578531185
 30
0.0
 11
-50.6999999999998892
 21
-0.0000000000003139
 31
0.0
210
0.0
220
1.0
230
-0.0000000000000002
  0
LINE
  5
1BD12
  8
0
  6
VERDECKT
 62
     1
 10
-51.7999999999998906
 20
-59.9132265073573222
 30
0.0000000000000133
 11
51.8000000000001322
 21
-59.9132265073573222
 31
0.0000000000000133
210
0.0
220
1.0
230
-0.0000000000000002
  0
LINE
  5
1BD13
  8
0
  6
VERDECKT
 62
     1
 10
47.5000000000001066
 20
-75.44398402515192
 30
0.0000000000000168
 11
-47.4999999999998792
 21
-75.44398402515192
 31
0.0000000000000168
210
0.0
220
1.0
230
-0.0000000000000002
  0
LINE
  5
1BD14
  8
0
  6
VERDECKT
 62
     1
 10
-56.5995849235805508
 20
-73.0000000000000426
 30
0.0000000000000162
 11
56.5995849235806574
 21
-73.0000000000000426
 31
0.0000000000000162
210
0.0
220
1.0
230
-0.0000000000000002
  0
ARC
  5
1BD15
  8
0
  6
VERDECKT
 62
     1
 10
55.6090464708851187
 20
-51.4932265073572495
 30
0.0
 40
1.499999999999968
210
0.0
220
-0.0000000000000002
230
-1.0
 50
95.4470566892314451
 51
165.0000000000017906
  0
ARC
  5
1BD16
  8
0
  6
VERDECKT
 62
     1
 10
-55.6090464708853389
 20
-51.4932265073572495
 30
0.0
 40
1.499999999999968
210
0.0
220
-0.0000000000000002
230
-1.0
 50
14.9999999999981704
 51
84.5529433107685549
  0
LINE
  5
1BD17
  8
0
  6
VERDECKT
 62
     1
 10
-51.7999999999998906
 20
-59.9132265073573222
 30
0.0000000000000133
 11
-54.1601577314515268
 21
-51.104997939703523
 31
0.0000000000000113
210
0.0
220
1.0
230
-0.0000000000000002
  0
LINE
  5
1BD18
  8
0
  6
VERDECKT
 62
     1
 10
51.800000000000118
 20
-59.9132265073573222
 30
0.0000000000000133
 11
54.1601577314517613
 21
-51.104997939703523
 31
0.0000000000000113
210
0.0
220
1.0
230
-0.0000000000000002
  0
LINE
  5
1BD19
  8
0
  6
VERDECKT
 62
     1
 10
51.8000000000001322
 20
-59.9132265073573222
 30
0.0000000000000133
 11
51.8000000000001322
 21
-70.4932265073573063
 31
0.0000000000000157
210
0.0
220
1.0
230
-0.0000000000000002
  0
LINE
  5
1BD1A
  8
0
  6
VERDECKT
 62
     1
 10
-51.7999999999998906
 20
-59.9132265073573222
 30
0.0000000000000133
 11
-51.7999999999998906
 21
-70.4932265073573063
 31
0.0000000000000157
210
0.0
220
1.0
230
-0.0000000000000002
  0
ARC
  5
1BD1B
  8
0
  6
VERDECKT
 62
     1
 10
46.7999999999998479
 20
-70.4932265073572353
 30
0.0
 40
5.0000000000000488
210
0.0
220
-0.0000000000000002
230
-1.0
 50
278.0478462473117816
 51
359.9999999999993179
  0
ARC
  5
1BD1C
  8
0
  6
VERDECKT
 62
     1
 10
-46.8000000000000824
 20
-70.4932265073572353
 30
0.0
 40
5.0000000000000417
210
0.0
220
-0.0000000000000002
230
-1.0
 50
180.0000000000005969
 51
261.9521537526882184
  0
LINE
  5
1BD1D
  8
0
  6
VERDECKT
 62
     1
 10
-47.4999999999998792
 20
-77.0000000000000853
 30
0.0000000000000171
 11
-47.4999999999998792
 21
-75.44398402515192
 31
0.0000000000000168
210
0.0
220
1.0
230
-0.0000000000000002
  0
LINE
  5
1BD1E
  8
0
  6
VERDECKT
 62
     1
 10
47.5000000000001066
 20
-77.0000000000000853
 30
0.0000000000000171
 11
47.5000000000001066
 21
-75.44398402515192
 31
0.0000000000000168
210
0.0
220
1.0
230
-0.0000000000000002
  0
LINE
  5
1BD1F
  8
0
  6
VERDECKT
 62
     1
 10
56.5995849235806432
 20
-73.0000000000000568
 30
0.0000000000000162
 11
58.0000000000000284
 21
-75.0000000000000853
 31
0.0000000000000167
210
0.0
220
1.0
230
-0.0000000000000002
  0
LINE
  5
1BD20
  8
0
  6
VERDECKT
 62
     1
 10
-56.5995849235805224
 20
-73.0000000000000568
 30
0.0000000000000162
 11
-57.9999999999999076
 21
-75.0000000000000853
 31
0.0000000000000167
210
0.0
220
1.0
230
-0.0000000000000002
  0
ARC
  5
1BD21
  8
0
  6
VERDECKT
 62
     1
 10
49.5000000000000284
 20
-72.0000000000001421
 30
0.0
 40
4.9999999999999121
210
0.0
220
-0.0000000000000002
230
-1.0
 50
323.130102354156179
 51
348.4630409671851226
  0
ARC
  5
1BD22
  8
0
  6
VERDECKT
 62
     1
 10
-49.5000000000001492
 20
-72.0000000000001421
 30
0.0
 40
4.9999999999999103
210
0.0
220
-0.0000000000000002
230
-1.0
 50
191.5369590328147922
 51
216.8698976458437926
  0
LINE
  5
1BD23
  8
0
  6
VERDECKT
 62
     1
 10
61.5000000000001208
 20
259.9999999999997726
 30
-0.0000000000000577
 11
-61.4999999999998792
 21
259.9999999999997726
 31
-0.0000000000000577
210
0.0
220
1.0
230
-0.0000000000000002
  0
LINE
  5
1BD24
  8
0
  6
VERDECKT
 62
     1
 10
276.0000000000002274
 20
266.9999999999996021
 30
-0.0000000000000593
 11
276.0000000000002274
 21
267.9999999999997726
 31
-0.0000000000000595
210
0.0
220
1.0
230
-0.0000000000000002
  0
LINE
  5
1BD25
  8
0
  6
VERDECKT
 62
     1
 10
284.0000000000001137
 20
266.9999999999996021
 30
-0.0000000000000593
 11
284.0000000000001137
 21
267.9999999999997726
 31
-0.0000000000000595
210
0.0
220
1.0
230
-0.0000000000000002
  0
LINE
  5
1BD26
  8
0
  6
VERDECKT
 62
     1
 10
-61.4999999999998934
 20
259.9999999999997726
 30
-0.0000000000000577
 11
-63.2463958628285212
 21
266.5176380902049118
 31
-0.0000000000000592
210
0.0
220
1.0
230
-0.0000000000000002
  0
LINE
  5
1BD27
  8
0
  6
VERDECKT
 62
     1
 10
61.5000000000001208
 20
259.9999999999997726
 30
-0.0000000000000577
 11
63.2463958628287486
 21
266.5176380902049118
 31
-0.0000000000000592
210
0.0
220
1.0
230
-0.0000000000000002
  0
LINE
  5
1BD28
  8
0
  6
VERDECKT
 62
     1
 10
61.5000000000001208
 20
259.9999999999998863
 30
-0.0000000000000577
 11
62.4659258262891868
 21
259.7411809548972883
 31
-0.0000000000000577
210
0.0
220
1.0
230
-0.0000000000000002
  0
LINE
  5
1BD29
  8
0
  6
VERDECKT
 62
     1
 10
-61.4999999999999005
 20
259.9999999999998863
 30
-0.0000000000000577
 11
-62.4659258262889594
 21
259.7411809548972883
 31
-0.0000000000000577
210
0.0
220
1.0
230
-0.0000000000000002
  0
ARC
  5
1BD2A
  8
0
  6
VERDECKT
 62
     1
 10
-65.1782475154069516
 20
265.9999999999998863
 30
0.0
 40
2.0000000000000728
210
0.0
220
-0.0000000000000002
230
-1.0
 50
14.9999999999989697
 51
89.99999999999838
  0
ARC
  5
1BD2B
  8
0
  6
VERDECKT
 62
     1
 10
65.1782475154067242
 20
265.9999999999998863
 30
0.0
 40
2.000000000000056
210
0.0
220
-0.0000000000000002
230
-1.0
 50
90.0000000000016058
 51
165.0000000000009948
  0
ENDBLK
  5
1BD2D
  8
0
  0
BLOCK
  8
0
  2
A$C1210BA7F
 70
     0
 10
0.0
 20
0.0
 30
0.0
  3
A$C1210BA7F
  1

  0
LINE
  5
1BD31
  8
0
  6
CONTINUOUS
 62
     3
 10
-60.5000000000000711
 20
269.9999999999997726
 30
-0.00000000000006
 11
60.4999999999999574
 21
269.9999999999997726
 31
-0.00000000000006
210
-0.0000000000000002
220
1.0
230
-0.0000000000000002
  0
LINE
  5
1BD32
  8
0
  6
CONTINUOUS
 62
     3
 10
-50.7000000000000171
 20
-0.000000000000327
 30
0.0
 11
50.7000000000000171
 21
-0.0000000000002983
 31
0.0
210
-0.0000000000000002
220
1.0
230
-0.0000000000000002
  0
ARC
  5
1BD33
  8
0
  6
CONTINUOUS
 62
     3
 10
53.9999999999998721
 20
259.9999999999997726
 30
0.0
 40
6.5000000000002114
210
0.0
220
-0.0000000000000002
230
-1.0
 50
329.9796896468815248
 51
357.7179753288706934
  0
ARC
  5
1BD34
  8
0
  6
CONTINUOUS
 62
     3
 10
-53.9999999999996305
 20
259.9999999999998863
 30
0.0
 40
6.5000000000003331
210
0.0
220
-0.0000000000000002
230
-1.0
 50
182.2820246711297898
 51
210.0203103531183899
  0
LINE
  5
1BD35
  8
0
  6
CONTINUOUS
 62
     3
 10
-52.8415189189039509
 20
245.0030695945887089
 30
-0.0000000000000544
 11
-59.6280127027125602
 21
256.748004763516974
 31
-0.000000000000057
210
-0.0000000000000002
220
1.0
230
-0.0000000000000002
  0
LINE
  5
1BD36
  8
0
  6
CONTINUOUS
 62
     3
 10
52.8415189189038514
 20
245.0030695945887089
 30
-0.0000000000000544
 11
59.6280127027124465
 21
256.748004763516974
 31
-0.000000000000057
210
-0.0000000000000002
220
1.0
230
-0.0000000000000002
  0
ARC
  5
1BD37
  8
0
  6
CONTINUOUS
 62
     3
 10
61.50000000000027
 20
239.999999999999801
 30
0.0
 40
10.0000000000002096
210
0.0
220
-0.0000000000000002
230
-1.0
 50
149.9796896468810132
 51
179.9999999999996021
  0
ARC
  5
1BD38
  8
0
  6
CONTINUOUS
 62
     3
 10
-61.4999999999999574
 20
239.999999999999801
 30
0.0
 40
10.0
210
0.0
220
-0.0000000000000002
230
-1.0
 50
0.0
 51
30.020310353119239
  0
LINE
  5
1BD39
  8
0
  6
CONTINUOUS
 62
     3
 10
60.4999999999999574
 20
269.9999999999997726
 30
-0.00000000000006
 11
60.4999999999999574
 21
267.9999999999998863
 31
-0.0000000000000595
210
-0.0000000000000002
220
1.0
230
-0.0000000000000002
  0
LINE
  5
1BD3A
  8
0
  6
CONTINUOUS
 62
     3
 10
-60.5000000000000782
 20
269.9999999999997726
 30
-0.00000000000006
 11
-60.5000000000000782
 21
267.9999999999998863
 31
-0.0000000000000595
210
-0.0000000000000002
220
1.0
230
-0.0000000000000002
  0
ARC
  5
1BD3B
  8
0
  6
CONTINUOUS
 62
     3
 10
50.4999999999964331
 20
8.0498756211207052
 30
0.0
 40
1.0000000000035809
210
0.0
220
-0.0000000000000002
230
-1.0
 50
354.2894068625120099
 51
359.9999999999910187
  0
ARC
  5
1BD3C
  8
0
  6
CONTINUOUS
 62
     3
 10
-50.4999999999963833
 20
8.0498756211207319
 30
0.0
 40
1.000000000003638
210
0.0
220
-0.0000000000000002
230
-1.0
 50
180.0000000000088107
 51
185.7105931374875922
  0
LINE
  5
1BD3D
  8
0
  6
CONTINUOUS
 62
     3
 10
51.4999999999999503
 20
239.999999999999801
 30
-0.0000000000000533
 11
51.5000000000000213
 21
8.0498756211205915
 31
-0.0000000000000018
210
-0.0000000000000002
220
1.0
230
-0.0000000000000002
  0
LINE
  5
1BD3E
  8
0
  6
CONTINUOUS
 62
     3
 10
-51.5000000000000782
 20
239.999999999999801
 30
-0.0000000000000533
 11
-51.5000000000000213
 21
8.0498756211205418
 31
-0.0000000000000018
210
-0.0000000000000002
220
1.0
230
-0.0000000000000002
  0
LINE
  5
1BD3F
  8
0
  6
CONTINUOUS
 62
     3
 10
-50.7000000000000171
 20
-0.000000000000327
 30
0.0
 11
-51.495037190210013
 21
7.950371902099552
 31
-0.0000000000000018
210
-0.0000000000000002
220
1.0
230
-0.0000000000000002
  0
LINE
  5
1BD40
  8
0
  6
CONTINUOUS
 62
     3
 10
50.7000000000000171
 20
-0.0000000000002983
 30
0.0
 11
51.495037190210013
 21
7.9503719020995796
 31
-0.0000000000000018
210
-0.0000000000000002
220
1.0
230
-0.0000000000000002
  0
LINE
  5
1BD41
  8
0
  6
CONTINUOUS
 62
     3
 10
-55.6073888960757614
 20
-50.0000000000000284
 30
0.0000000000000111
 11
0.0016575748095105
 21
-50.0000000000000213
 31
0.0000000000000111
210
-0.0000000000000002
220
1.0
230
-0.0000000000000002
  0
LINE
  5
1BD42
  8
0
  6
CONTINUOUS
 62
     3
 10
0.0016575748095261
 20
-50.0000000000000213
 30
0.0000000000000111
 11
55.6107040456947672
 21
-50.0
 31
0.0000000000000111
210
-0.0000000000000002
220
1.0
230
-0.0000000000000002
  0
LINE
  5
1BD43
  8
0
  6
CONTINUOUS
 62
     3
 10
-57.7483424251904722
 20
-66.0000000000001137
 30
0.0000000000000147
 11
0.001657574809514
 21
-66.0000000000001137
 31
0.0000000000000147
210
-0.0000000000000002
220
1.0
230
-0.0000000000000002
  0
LINE
  5
1BD44
  8
0
  6
CONTINUOUS
 62
     3
 10
0.0016575748095311
 20
-66.0000000000001137
 30
0.0000000000000147
 11
57.7516575748095207
 21
-66.0000000000000995
 31
0.0000000000000147
210
-0.0000000000000002
220
1.0
230
-0.0000000000000002
  0
LINE
  5
1BD45
  8
0
  6
CONTINUOUS
 62
     3
 10
-59.4983424251904509
 20
-67.5000000000001847
 30
0.000000000000015
 11
0.0016575748095143
 21
-67.5000000000001705
 31
0.000000000000015
210
-0.0000000000000002
220
1.0
230
-0.0000000000000002
  0
LINE
  5
1BD46
  8
0
  6
CONTINUOUS
 62
     3
 10
0.0016575748095245
 20
-67.5000000000001705
 30
0.000000000000015
 11
59.5016575748095207
 21
-67.5000000000001563
 31
0.000000000000015
210
-0.0000000000000002
220
1.0
230
-0.0000000000000002
  0
LINE
  5
1BD47
  8
0
  6
CONTINUOUS
 62
     3
 10
-59.4983424251904509
 20
-68.5000000000001563
 30
0.0000000000000152
 11
0.0016575748095146
 21
-68.5000000000001421
 31
0.0000000000000152
210
-0.0000000000000002
220
1.0
230
-0.0000000000000002
  0
LINE
  5
1BD48
  8
0
  6
CONTINUOUS
 62
     3
 10
0.0016575748095247
 20
-68.5000000000001421
 30
0.0000000000000152
 11
59.5016575748095207
 21
-68.5000000000001137
 31
0.0000000000000152
210
-0.0000000000000002
220
1.0
230
-0.0000000000000002
  0
LINE
  5
1BD49
  8
0
  6
CONTINUOUS
 62
     3
 10
-57.1154868576701631
 20
-70.8828555675205081
 30
0.0000000000000157
 11
0.0016575748095151
 21
-70.8828555675204939
 31
0.0000000000000157
210
-0.0000000000000002
220
1.0
230
-0.0000000000000002
  0
LINE
  5
1BD4A
  8
0
  6
CONTINUOUS
 62
     3
 10
0.0016575748095238
 20
-70.8828555675204939
 30
0.0000000000000157
 11
57.1188020072891973
 21
-70.8828555675204655
 31
0.0000000000000157
210
-0.0000000000000002
220
1.0
230
-0.0000000000000002
  0
LINE
  5
1BD4B
  8
0
  6
CONTINUOUS
 62
     3
 10
-59.9983424251905006
 20
-75.0000000000000995
 30
0.0000000000000167
 11
0.001657574809516
 21
-75.0000000000000853
 31
0.0000000000000167
210
-0.0000000000000002
220
1.0
230
-0.0000000000000002
  0
LINE
  5
1BD4C
  8
0
  6
CONTINUOUS
 62
     3
 10
0.0016575748095287
 20
-75.0000000000000853
 30
0.0000000000000167
 11
60.0016575748095278
 21
-75.0000000000000711
 31
0.0000000000000167
210
-0.0000000000000002
220
1.0
230
-0.0000000000000002
  0
LINE
  5
1BD4D
  8
0
  6
CONTINUOUS
 62
     3
 10
-49.4983424251905078
 20
-77.0000000000001279
 30
0.0000000000000171
 11
0.0016575748095165
 21
-77.0000000000001137
 31
0.0000000000000171
210
-0.0000000000000002
220
1.0
230
-0.0000000000000002
  0
LINE
  5
1BD4E
  8
0
  6
CONTINUOUS
 62
     3
 10
0.0016575748095322
 20
-77.0000000000001137
 30
0.0000000000000171
 11
49.5016575748095207
 21
-77.0000000000000853
 31
0.0000000000000171
210
-0.0000000000000002
220
1.0
230
-0.0000000000000002
  0
LINE
  5
1BD4F
  8
0
  6
CONTINUOUS
 62
     3
 10
-59.4983424251904509
 20
-57.0000000000001705
 30
0.0000000000000127
 11
0.001657574809512
 21
-57.0000000000001421
 31
0.0000000000000127
210
-0.0000000000000002
220
1.0
230
-0.0000000000000002
  0
LINE
  5
1BD50
  8
0
  6
CONTINUOUS
 62
     3
 10
0.0016575748095215
 20
-57.0000000000001421
 30
0.0000000000000127
 11
59.5016575748095207
 21
-57.0000000000001208
 31
0.0000000000000127
210
-0.0000000000000002
220
1.0
230
-0.0000000000000002
  0
ARC
  5
1BD51
  8
0
  6
CONTINUOUS
 62
     3
 10
55.6377939455907011
 20
-57.8000000000001819
 30
0.0
 40
0.8000000000000044
210
0.0
220
-0.0000000000000002
230
-1.0
 50
89.9999999999959357
 51
199.8552143693231073
  0
ARC
  5
1BD52
  8
0
  6
CONTINUOUS
 62
     3
 10
-55.6411090952097283
 20
-57.8000000000001606
 30
0.0
 40
0.8000000000000135
210
0.0
220
-0.0000000000000002
230
-1.0
 50
340.144785630676779
 51
90.0000000000040643
  0
LINE
  5
1BD53
  8
0
  6
CONTINUOUS
 62
     3
 10
54.8886659754563979
 20
-58.0717155710222315
 30
0.0000000000000129
 11
57.7516575748095633
 21
-66.0000000000000853
 31
0.0000000000000147
210
-0.0000000000000002
220
1.0
230
-0.0000000000000002
  0
LINE
  5
1BD54
  8
0
  6
CONTINUOUS
 62
     3
 10
-54.8853508258373566
 20
-58.0717155710222528
 30
0.0000000000000129
 11
-57.748342425190522
 21
-66.0000000000001137
 31
0.0000000000000147
210
-0.0000000000000002
220
1.0
230
-0.0000000000000002
  0
LINE
  5
1BD55
  8
0
  6
CONTINUOUS
 62
     3
 10
57.7516575748095278
 20
-66.0000000000000995
 30
0.0000000000000147
 11
59.5016575748095278
 21
-67.5000000000001563
 31
0.000000000000015
210
-0.0000000000000002
220
1.0
230
-0.0000000000000002
  0
LINE
  5
1BD56
  8
0
  6
CONTINUOUS
 62
     3
 10
-57.7483424251904935
 20
-66.0000000000001137
 30
0.0000000000000147
 11
-59.4983424251904935
 21
-67.5000000000001847
 31
0.000000000000015
210
-0.0000000000000002
220
1.0
230
-0.0000000000000002
  0
LINE
  5
1BD57
  8
0
  6
CONTINUOUS
 62
     3
 10
59.5016575748095278
 20
-67.5000000000001563
 30
0.000000000000015
 11
59.5016575748095278
 21
-68.5000000000001137
 31
0.0000000000000152
210
-0.0000000000000002
220
1.0
230
-0.0000000000000002
  0
LINE
  5
1BD58
  8
0
  6
CONTINUOUS
 62
     3
 10
-59.4983424251904935
 20
-67.5000000000001847
 30
0.000000000000015
 11
-59.4983424251904935
 21
-68.5000000000001563
 31
0.0000000000000152
210
-0.0000000000000002
220
1.0
230
-0.0000000000000002
  0
LINE
  5
1BD59
  8
0
  6
CONTINUOUS
 62
     3
 10
-57.1154868576701702
 20
-70.8828555675205081
 30
0.0000000000000157
 11
-59.4983424251904935
 21
-68.5000000000001563
 31
0.0000000000000152
210
-0.0000000000000002
220
1.0
230
-0.0000000000000002
  0
LINE
  5
1BD5A
  8
0
  6
CONTINUOUS
 62
     3
 10
57.1188020072891973
 20
-70.8828555675204655
 30
0.0000000000000157
 11
59.5016575748095207
 21
-68.5000000000001137
 31
0.0000000000000152
210
-0.0000000000000002
220
1.0
230
-0.0000000000000002
  0
LINE
  5
1BD5B
  8
0
  6
CONTINUOUS
 62
     3
 10
57.1188020072891973
 20
-70.8828555675204655
 30
0.0000000000000157
 11
60.0016575748095278
 21
-75.0000000000000711
 31
0.0000000000000167
210
-0.0000000000000002
220
1.0
230
-0.0000000000000002
  0
LINE
  5
1BD5C
  8
0
  6
CONTINUOUS
 62
     3
 10
-57.1154868576701702
 20
-70.8828555675205081
 30
0.0000000000000157
 11
-59.9983424251904935
 21
-75.0000000000000995
 31
0.0000000000000167
210
-0.0000000000000002
220
1.0
230
-0.0000000000000002
  0
ARC
  5
1BD5D
  8
0
  6
CONTINUOUS
 62
     3
 10
49.4983424251904509
 20
-72.0000000000000711
 30
0.0
 40
5.0000000000000711
210
0.0
220
-0.0000000000000002
230
-1.0
 50
270.0
 51
323.1301023541557811
  0
ARC
  5
1BD5E
  8
0
  6
CONTINUOUS
 62
     3
 10
-49.5016575748094994
 20
-72.0000000000000426
 30
0.0
 40
5.0000000000000737
210
0.0
220
-0.0000000000000002
230
-1.0
 50
216.8698976458437926
 51
269.9999999999994884
  0
ARC
  5
1BD5F
  8
0
  6
CONTINUOUS
 62
     3
 10
55.607388896075733
 20
-51.4999999999999787
 30
0.0
 40
1.4999999999999469
210
0.0
220
-0.0000000000000002
230
-1.0
 50
25.8941133784704505
 51
89.9999999999999858
  0
ARC
  5
1BD60
  8
0
  6
CONTINUOUS
 62
     3
 10
-55.6107040456947672
 20
-51.4999999999999503
 30
0.0
 40
1.49999999999995
210
0.0
220
-0.0000000000000002
230
-1.0
 50
89.9999999999999858
 51
154.1058866215294927
  0
LINE
  5
1BD61
  8
0
  6
CONTINUOUS
 62
     3
 10
56.9601080231370815
 20
-50.8449359530070879
 30
0.0000000000000113
 11
59.1000681813223778
 21
-55.2531625413521894
 31
0.0000000000000123
210
-0.0000000000000002
220
1.0
230
-0.0000000000000002
  0
LINE
  5
1BD62
  8
0
  6
CONTINUOUS
 62
     3
 10
-56.9567928735180189
 20
-50.8449359530071234
 30
0.0000000000000113
 11
-59.0967530317033507
 21
-55.2531625413522391
 31
0.0000000000000123
210
-0.0000000000000002
220
1.0
230
-0.0000000000000002
  0
ARC
  5
1BD63
  8
0
  6
CONTINUOUS
 62
     3
 10
55.498342425189783
 20
-57.0000000000004121
 30
0.0
 40
4.0000000000007114
210
0.0
220
-0.0000000000000002
230
-1.0
 50
0.0000000000034477
 51
25.8941133784723014
  0
ARC
  5
1BD64
  8
0
  6
CONTINUOUS
 62
     3
 10
-55.5016575748086822
 20
-57.0000000000004121
 30
0.0
 40
4.0000000000008624
210
0.0
220
-0.0000000000000002
230
-1.0
 50
154.1058866215279011
 51
179.9999999999957083
  0
LINE
  5
1BD65
  8
0
  6
CONTINUOUS
 62
     3
 10
122.4999999999999005
 20
266.9999999999997726
 30
-0.0000000000000593
 11
122.4999999999999005
 21
267.9999999999998863
 31
-0.0000000000000595
210
-0.0000000000000002
220
1.0
230
-0.0000000000000002
  0
LINE
  5
1BD66
  8
0
  6
CONTINUOUS
 62
     3
 10
122.5
 20
266.9999999999997158
 30
-0.0000000000000593
 11
-122.5
 21
266.9999999999997158
 31
-0.0000000000000593
210
-0.0000000000000002
220
1.0
230
-0.0000000000000002
  0
LINE
  5
1BD67
  8
0
  6
CONTINUOUS
 62
     3
 10
-122.5
 20
267.9999999999998863
 30
-0.0000000000000595
 11
122.5
 21
267.9999999999998863
 31
-0.0000000000000595
210
-0.0000000000000002
220
1.0
230
-0.0000000000000002
  0
LINE
  5
1BD68
  8
0
  6
CONTINUOUS
 62
     3
 10
-122.5000000000000995
 20
267.9999999999997726
 30
-0.0000000000000595
 11
-122.5000000000000995
 21
266.9999999999997726
 31
-0.0000000000000593
210
-0.0000000000000002
220
1.0
230
-0.0000000000000002
  0
LINE
  5
1BD69
  8
0
  6
CONTINUOUS
 62
     3
 10
62.4659258262891015
 20
259.7411809548975157
 30
-0.0000000000000577
 11
-62.4659258262891228
 21
259.7411809548975157
 31
-0.0000000000000577
210
-0.0000000000000002
220
1.0
230
-0.0000000000000002
  0
LINE
  5
1BD6A
  8
0
  6
CONTINUOUS
 62
     3
 10
-62.4659258262891228
 20
259.7411809548975157
 30
-0.0000000000000577
 11
-64.212321689117843
 21
266.258819045102598
 31
-0.0000000000000591
210
-0.0000000000000002
220
1.0
230
-0.0000000000000002
  0
LINE
  5
1BD6B
  8
0
  6
CONTINUOUS
 62
     3
 10
62.4659258262891015
 20
259.7411809548975157
 30
-0.0000000000000577
 11
64.2123216891178288
 21
266.258819045102598
 31
-0.0000000000000591
210
-0.0000000000000002
220
1.0
230
-0.0000000000000002
  0
ARC
  5
1BD6C
  8
0
  6
CONTINUOUS
 62
     3
 10
-65.1782475154070227
 20
265.9999999999997726
 30
0.0
 40
1.000000000000157
210
0.0
220
-0.0000000000000002
230
-1.0
 50
15.0000000000088995
 51
89.999999999992653
  0
ARC
  5
1BD6D
  8
0
  6
CONTINUOUS
 62
     3
 10
65.1782475154070511
 20
265.9999999999997726
 30
0.0
 40
1.0000000000001701
210
0.0
220
-0.0000000000000002
230
-1.0
 50
90.0000000000073044
 51
164.9999999999909903
  0
LINE
  5
1BD6E
  8
0
  6
VERDECKT
 62
     1
 10
-49.207444214685033
 20
0.1492555785311754
 30
0.0
 11
49.207444214685033
 21
0.1492555785312033
 31
0.0
210
-0.0000000000000002
220
1.0
230
-0.0000000000000002
  0
ARC
  5
1BD6F
  8
0
  6
VERDECKT
 62
     1
 10
54.0000000000165983
 20
259.9999999999993747
 30
0.0
 40
6.4999999999834817
210
0.0
220
-0.0000000000000002
230
-1.0
 50
357.717975328868306
 51
0.0000000000029897
  0
ARC
  5
1BD70
  8
0
  6
VERDECKT
 62
     1
 10
-53.9999999999806519
 20
260.0000000000001137
 30
0.0
 40
6.5000000000193001
210
0.0
220
-0.0000000000000002
230
-1.0
 50
180.000000000002899
 51
182.2820246711251002
  0
ARC
  5
1BD71
  8
0
  6
VERDECKT
 62
     1
 10
61.5000000000002629
 20
239.999999999999801
 30
0.0
 40
11.5000000000001901
210
0.0
220
-0.0000000000000002
230
-1.0
 50
149.9796896468810985
 51
179.999999999999801
  0
ARC
  5
1BD72
  8
0
  6
VERDECKT
 62
     1
 10
-61.5000000000001634
 20
239.999999999999801
 30
0.0
 40
11.5000000000001901
210
0.0
220
-0.0000000000000002
230
-1.0
 50
0.0000000000001272
 51
30.0203103531188518
  0
LINE
  5
1BD73
  8
0
  6
VERDECKT
 62
     1
 10
-51.5427467567395325
 20
245.7535300337771957
 30
-0.0000000000000546
 11
-58.3292405405481418
 21
257.4984652027052903
 31
-0.0000000000000572
210
-0.0000000000000002
220
1.0
230
-0.0000000000000002
  0
LINE
  5
1BD74
  8
0
  6
VERDECKT
 62
     1
 10
51.5427467567394118
 20
245.7535300337771957
 30
-0.0000000000000546
 11
58.329240540548021
 21
257.4984652027052903
 31
-0.0000000000000572
210
-0.0000000000000002
220
1.0
230
-0.0000000000000002
  0
ARC
  5
1BD75
  8
0
  6
VERDECKT
 62
     1
 10
54.0000000000003979
 20
259.9999999999997726
 30
0.0
 40
4.9999999999996678
210
0.0
220
-0.0000000000000002
230
-1.0
 50
329.9796896468793079
 51
0.0000000000012455
  0
ARC
  5
1BD76
  8
0
  6
VERDECKT
 62
     1
 10
-54.00000000000027
 20
259.9999999999997726
 30
0.0
 40
4.9999999999996803
210
0.0
220
-0.0000000000000002
230
-1.0
 50
179.9999999999986073
 51
210.0203103531206068
  0
LINE
  5
1BD77
  8
0
  6
VERDECKT
 62
     1
 10
58.9999999999999503
 20
269.9999999999998863
 30
-0.00000000000006
 11
58.9999999999999503
 21
259.9999999999998863
 31
-0.0000000000000577
210
-0.0000000000000002
220
1.0
230
-0.0000000000000002
  0
LINE
  5
1BD78
  8
0
  6
VERDECKT
 62
     1
 10
-59.0000000000000782
 20
269.9999999999998863
 30
-0.00000000000006
 11
-59.0000000000000782
 21
259.9999999999998863
 31
-0.0000000000000577
210
-0.0000000000000002
220
1.0
230
-0.0000000000000002
  0
LINE
  5
1BD79
  8
0
  6
VERDECKT
 62
     1
 10
60.4999999999999574
 20
267.9999999999998863
 30
-0.0000000000000595
 11
60.4999999999999574
 21
259.9999999999997726
 31
-0.0000000000000577
210
-0.0000000000000002
220
1.0
230
-0.0000000000000002
  0
LINE
  5
1BD7A
  8
0
  6
VERDECKT
 62
     1
 10
-60.5000000000000782
 20
267.9999999999998863
 30
-0.0000000000000595
 11
-60.5000000000000782
 21
259.9999999999997726
 31
-0.0000000000000577
210
-0.0000000000000002
220
1.0
230
-0.0000000000000002
  0
ARC
  5
1BD7B
  8
0
  6
VERDECKT
 62
     1
 10
48.9999999999963904
 20
8.1246890528020916
 30
0.0
 40
1.000000000003616
210
0.0
220
-0.0000000000000002
230
-1.0
 50
354.2894068625121236
 51
359.9999999999910187
  0
ARC
  5
1BD7C
  8
0
  6
VERDECKT
 62
     1
 10
-48.9999999999963407
 20
8.1246890528021218
 30
0.0
 40
1.0000000000036731
210
0.0
220
-0.0000000000000002
230
-1.0
 50
180.0000000000090097
 51
185.7105931374875922
  0
LINE
  5
1BD7D
  8
0
  6
VERDECKT
 62
     1
 10
-49.207444214685033
 20
0.1492555785311758
 30
0.0
 11
-49.9950371902099988
 21
8.0251853337809358
 31
-0.0000000000000018
210
-0.0000000000000002
220
1.0
230
-0.0000000000000002
  0
LINE
  5
1BD7E
  8
0
  6
VERDECKT
 62
     1
 10
49.207444214685033
 20
0.1492555785312038
 30
0.0
 11
49.9950371902099988
 21
8.0251853337809642
 31
-0.0000000000000018
210
-0.0000000000000002
220
1.0
230
-0.0000000000000002
  0
LINE
  5
1BD7F
  8
0
  6
VERDECKT
 62
     1
 10
49.9999999999999503
 20
239.999999999999801
 30
-0.0000000000000533
 11
50.0000000000000071
 21
8.1246890528019691
 31
-0.0000000000000018
210
-0.0000000000000002
220
1.0
230
-0.0000000000000002
  0
LINE
  5
1BD80
  8
0
  6
VERDECKT
 62
     1
 10
-50.0000000000000711
 20
239.999999999999801
 30
-0.0000000000000533
 11
-50.0000000000000071
 21
8.1246890528019478
 31
-0.0000000000000018
210
-0.0000000000000002
220
1.0
230
-0.0000000000000002
  0
LINE
  5
1BD81
  8
0
  6
VERDECKT
 62
     1
 10
49.207444214685033
 20
0.1492555785312021
 30
0.0
 11
50.7000000000000171
 21
-0.0000000000002963
 31
0.0
210
-0.0000000000000002
220
1.0
230
-0.0000000000000002
  0
LINE
  5
1BD82
  8
0
  6
VERDECKT
 62
     1
 10
-49.207444214685033
 20
0.1492555785311742
 30
0.0
 11
-50.7000000000000171
 21
-0.000000000000325
 31
0.0
210
-0.0000000000000002
220
1.0
230
-0.0000000000000002
  0
LINE
  5
1BD83
  8
0
  6
VERDECKT
 62
     1
 10
-51.8000000000000611
 20
-59.9132265073573507
 30
0.0000000000000133
 11
-0.0000000000000009
 21
-59.9132265073573365
 31
0.0000000000000133
210
-0.0000000000000002
220
1.0
230
-0.0000000000000002
  0
LINE
  5
1BD84
  8
0
  6
VERDECKT
 62
     1
 10
0.0000000000000114
 20
-59.9132265073573365
 30
0.0000000000000133
 11
51.8000000000000185
 21
-59.9132265073573222
 31
0.0000000000000133
210
-0.0000000000000002
220
1.0
230
-0.0000000000000002
  0
LINE
  5
1BD85
  8
0
  6
VERDECKT
 62
     1
 10
47.4999999999999929
 20
-75.44398402515192
 30
0.0000000000000168
 11
0.0000000000000168
 21
-75.4439840251519342
 31
0.0000000000000168
210
-0.0000000000000002
220
1.0
230
-0.0000000000000002
  0
LINE
  5
1BD86
  8
0
  6
VERDECKT
 62
     1
 10
0.0000000000000054
 20
-75.4439840251519342
 30
0.0000000000000168
 11
-47.4999999999999929
 21
-75.4439840251519485
 31
0.0000000000000168
210
-0.0000000000000002
220
1.0
230
-0.0000000000000002
  0
LINE
  5
1BD87
  8
0
  6
VERDECKT
 62
     1
 10
-56.597927348771087
 20
-73.0000000000000711
 30
0.0000000000000162
 11
0.0016575748095156
 21
-73.0000000000000568
 31
0.0000000000000162
210
-0.0000000000000002
220
1.0
230
-0.0000000000000002
  0
LINE
  5
1BD88
  8
0
  6
VERDECKT
 62
     1
 10
0.0016575748095238
 20
-73.0000000000000568
 30
0.0000000000000162
 11
56.6012424983901425
 21
-73.0000000000000426
 31
0.0000000000000162
210
-0.0000000000000002
220
1.0
230
-0.0000000000000002
  0
ARC
  5
1BD89
  8
0
  6
VERDECKT
 62
     1
 10
55.6090464708852323
 20
-51.4932265073572566
 30
0.0
 40
1.4999999999999609
210
0.0
220
-0.0000000000000002
230
-1.0
 50
95.4470566892311751
 51
165.0000000000019895
  0
ARC
  5
1BD8A
  8
0
  6
VERDECKT
 62
     1
 10
-55.6090464708852465
 20
-51.4932265073572424
 30
0.0
 40
1.4999999999999689
210
0.0
220
-0.0000000000000002
230
-1.0
 50
14.9999999999981508
 51
84.5529433107633537
  0
LINE
  5
1BD8B
  8
0
  6
VERDECKT
 62
     1
 10
-51.8000000000000114
 20
-59.9132265073573507
 30
0.0000000000000133
 11
-54.1601577314516476
 21
-51.1049979397035514
 31
0.0000000000000113
210
-0.0000000000000002
220
1.0
230
-0.0000000000000002
  0
LINE
  5
1BD8C
  8
0
  6
VERDECKT
 62
     1
 10
51.8000000000000327
 20
-59.9132265073573222
 30
0.0000000000000133
 11
54.1601577314516618
 21
-51.1049979397035088
 31
0.0000000000000113
210
-0.0000000000000002
220
1.0
230
-0.0000000000000002
  0
LINE
  5
1BD8D
  8
0
  6
VERDECKT
 62
     1
 10
51.8000000000000327
 20
-59.9132265073573222
 30
0.0000000000000133
 11
51.8000000000000327
 21
-70.4932265073573063
 31
0.0000000000000157
210
-0.0000000000000002
220
1.0
230
-0.0000000000000002
  0
LINE
  5
1BD8E
  8
0
  6
VERDECKT
 62
     1
 10
-51.8000000000000185
 20
-59.9132265073573507
 30
0.0000000000000133
 11
-51.8000000000000185
 21
-70.4932265073573348
 31
0.0000000000000157
210
-0.0000000000000002
220
1.0
230
-0.0000000000000002
  0
ARC
  5
1BD8F
  8
0
  6
VERDECKT
 62
     1
 10
46.7999999999999616
 20
-70.4932265073572779
 30
0.0
 40
5.0000000000000506
210
0.0
220
-0.0000000000000002
230
-1.0
 50
278.0478462473118952
 51
359.9999999999993179
  0
ARC
  5
1BD90
  8
0
  6
VERDECKT
 62
     1
 10
-46.7999999999999687
 20
-70.4932265073572353
 30
0.0
 40
5.0000000000000497
210
0.0
220
-0.0000000000000002
230
-1.0
 50
180.0000000000005969
 51
261.9521537526879911
  0
LINE
  5
1BD91
  8
0
  6
VERDECKT
 62
     1
 10
-47.5
 20
-77.0000000000001279
 30
0.0000000000000171
 11
-47.5
 21
-75.4439840251519485
 31
0.0000000000000168
210
-0.0000000000000002
220
1.0
230
-0.0000000000000002
  0
LINE
  5
1BD92
  8
0
  6
VERDECKT
 62
     1
 10
47.5000000000000071
 20
-77.0000000000000853
 30
0.0000000000000171
 11
47.5000000000000071
 21
-75.44398402515192
 31
0.0000000000000168
210
-0.0000000000000002
220
1.0
230
-0.0000000000000002
  0
LINE
  5
1BD93
  8
0
  6
VERDECKT
 62
     1
 10
56.601242498390107
 20
-73.0000000000000568
 30
0.0000000000000162
 11
58.0016575748094994
 21
-75.0000000000000853
 31
0.0000000000000167
210
-0.0000000000000002
220
1.0
230
-0.0000000000000002
  0
LINE
  5
1BD94
  8
0
  6
VERDECKT
 62
     1
 10
-56.5979273487710728
 20
-73.0000000000000853
 30
0.0000000000000162
 11
-57.9983424251904722
 21
-75.0000000000001137
 31
0.0000000000000167
210
-0.0000000000000002
220
1.0
230
-0.0000000000000002
  0
ARC
  5
1BD95
  8
0
  6
VERDECKT
 62
     1
 10
49.4983424251903301
 20
-72.0000000000000568
 30
0.0
 40
5.0000000000001847
210
0.0
220
-0.0000000000000002
230
-1.0
 50
323.1301023541569748
 51
348.4630409671844973
  0
ARC
  5
1BD96
  8
0
  6
VERDECKT
 62
     1
 10
-49.5016575748093715
 20
-72.0000000000000142
 30
0.0
 40
5.0000000000001839
210
0.0
220
-0.0000000000000002
230
-1.0
 50
191.5369590328155027
 51
216.8698976458429968
  0
LINE
  5
1BD97
  8
0
  6
VERDECKT
 62
     1
 10
61.5
 20
259.9999999999998863
 30
-0.0000000000000577
 11
-61.5000000000000284
 21
259.9999999999998863
 31
-0.0000000000000577
210
-0.0000000000000002
220
1.0
230
-0.0000000000000002
  0
LINE
  5
1BD98
  8
0
  6
VERDECKT
 62
     1
 10
-98.5000000000000995
 20
267.9999999999997726
 30
-0.0000000000000595
 11
-98.5000000000000995
 21
266.9999999999997158
 31
-0.0000000000000593
210
-0.0000000000000002
220
1.0
230
-0.0000000000000002
  0
LINE
  5
1BD99
  8
0
  6
VERDECKT
 62
     1
 10
-106.5000000000000995
 20
267.9999999999997726
 30
-0.0000000000000595
 11
-106.5000000000000995
 21
266.9999999999997158
 31
-0.0000000000000593
210
-0.0000000000000002
220
1.0
230
-0.0000000000000002
  0
LINE
  5
1BD9A
  8
0
  6
VERDECKT
 62
     1
 10
98.5000000000000142
 20
266.9999999999997158
 30
-0.0000000000000593
 11
98.5000000000000142
 21
267.9999999999997726
 31
-0.0000000000000595
210
-0.0000000000000002
220
1.0
230
-0.0000000000000002
  0
LINE
  5
1BD9B
  8
0
  6
VERDECKT
 62
     1
 10
106.5
 20
266.9999999999997158
 30
-0.0000000000000593
 11
106.5
 21
267.9999999999997726
 31
-0.0000000000000595
210
-0.0000000000000002
220
1.0
230
-0.0000000000000002
  0
LINE
  5
1BD9C
  8
0
  6
VERDECKT
 62
     1
 10
-61.5000000000000284
 20
259.9999999999998863
 30
-0.0000000000000577
 11
-63.2463958628286704
 21
266.5176380902050255
 31
-0.0000000000000592
210
-0.0000000000000002
220
1.0
230
-0.0000000000000002
  0
LINE
  5
1BD9D
  8
0
  6
VERDECKT
 62
     1
 10
61.5000000000000071
 20
259.9999999999998863
 30
-0.0000000000000577
 11
63.246395862828642
 21
266.5176380902050255
 31
-0.0000000000000592
210
-0.0000000000000002
220
1.0
230
-0.0000000000000002
  0
LINE
  5
1BD9E
  8
0
  6
VERDECKT
 62
     1
 10
61.5000000000000213
 20
260.0
 30
-0.0000000000000577
 11
62.4659258262890802
 21
259.741180954897402
 31
-0.0000000000000577
210
-0.0000000000000002
220
1.0
230
-0.0000000000000002
  0
LINE
  5
1BD9F
  8
0
  6
VERDECKT
 62
     1
 10
-61.5000000000000426
 20
260.0
 30
-0.0000000000000577
 11
-62.4659258262891086
 21
259.741180954897402
 31
-0.0000000000000577
210
-0.0000000000000002
220
1.0
230
-0.0000000000000002
  0
ARC
  5
1BDA0
  8
0
  6
VERDECKT
 62
     1
 10
-65.1782475154068237
 20
266.0
 30
0.0
 40
2.0000000000000742
210
0.0
220
-0.0000000000000002
230
-1.0
 50
14.9999999999989502
 51
89.9999999999983658
  0
ARC
  5
1BDA1
  8
0
  6
VERDECKT
 62
     1
 10
65.1782475154068663
 20
266.0
 30
0.0
 40
2.0000000000000568
210
0.0
220
-0.0000000000000002
230
-1.0
 50
90.0000000000016058
 51
165.0000000000009948
  0
ENDBLK
  5
1BDA3
  8
0
  0
ENDSEC
  0
SECTION
  2
ENTITIES
  0
TEXT
  5
416B
  8
VOLL
 10
441.2467849443549994
 20
195.2108867802037935
 30
0.0
 40
1.8
  1

  7
GREEKS
  0
INSERT
  5
46F1
  8
ADSK_ASSOC_ENTITY_BACKUPS
  2
*S0
 10
0.0
 20
0.0
 30
0.0
  0
INSERT
  5
1BCC1
  8
STEMPEL
  2
A$C7AB7772D
 10
0.0016575748091319
 20
-299.5000000000001137
 30
0.0000000000000171
  0
INSERT
  5
1BD2E
  8
STEMPEL
  2
A$C40E76CC6
 10
0.0
 20
0.0
 30
0.0
  0
INSERT
  5
1BDA4
  8
STEMPEL
  2
A$C1210BA7F
 10
522.4999999999997726
 20
-0.0000000000000568
 30
0.0
  0
VIEWPORT
  5
46D0
 67
     1
  8
0
 10
154.2839188622724009
 20
281.9144811699457023
 30
0.0
 40
1855.446910954733994
 41
991.1503097716265529
 68
     1
 69
     1
1001
ACAD
1000
MVIEW
1002
{
1070
    16
1010
0.0
1020
0.0
1030
0.0
1010
0.0
1020
0.0
1030
1.0
1040
0.0
1040
991.1503097716265529
1040
154.2839188622724009
1040
281.9144811699457023
1040
50.0
1040
0.0
1040
0.0
1070
     0
1070
  1500
1070
     1
1070
     1
1070
     0
1070
     0
1070
     0
1070
     0
1040
0.0
1040
0.0
1040
0.0
1040
10.0
1040
10.0
1040
10.0
1040
10.0
1070
     0
1002
{
1002
}
1002
}
  0
ENDSEC
  0
EOF
