  0
SECTION
  2
HEADER
  9
$ACADVER
  1
AC1009
  9
$INSBASE
 10
0.0
 20
0.0
 30
0.0
  9
$EXTMIN
 10
-122.4999999999999005
 20
-372.5
 30
-0.0000000000000597
  9
$EXTMAX
 10
622.5
 20
269.0000000000001137
 30
0.0000000000000618
  9
$LIMMIN
 10
0.0
 20
0.0
  9
$LIMMAX
 10
419.9999999999998863
 20
594.0
  9
$ORTHOMODE
 70
     1
  9
$REGENMODE
 70
     1
  9
$FILLMODE
 70
     1
  9
$QTEXTMODE
 70
     0
  9
$MIRRTEXT
 70
     1
  9
$DRAGMODE
 70
     2
  9
$LTSCALE
 40
10.0
  9
$OSMODE
 70
   511
  9
$ATTMODE
 70
     1
  9
$TEXTSIZE
 40
3.5
  9
$TRACEWID
 40
1.0
  9
$TEXTSTYLE
  7
STANDARD
  9
$CLAYER
  8
STEMPEL
  9
$CELTYPE
  6
BYLAYER
  9
$CECOLOR
 62
   256
  9
$DIMSCALE
 40
1.0
  9
$DIMASZ
 40
3.5
  9
$DIMEXO
 40
1.0
  9
$DIMDLI
 40
0.38
  9
$DIMRND
 40
0.0
  9
$DIMDLE
 40
0.0
  9
$DIMEXE
 40
1.0
  9
$DIMTP
 40
0.0
  9
$DIMTM
 40
0.000000001
  9
$DIMTXT
 40
3.5
  9
$DIMCEN
 40
0.09
  9
$DIMTSZ
 40
0.0
  9
$DIMTOL
 70
     0
  9
$DIMLIM
 70
     0
  9
$DIMTIH
 70
     0
  9
$DIMTOH
 70
     0
  9
$DIMSE1
 70
     0
  9
$DIMSE2
 70
     0
  9
$DIMTAD
 70
     1
  9
$DIMZIN
 70
     8
  9
$DIMBLK
  1

  9
$DIMASO
 70
     1
  9
$DIMSHO
 70
     0
  9
$DIMPOST
  1

  9
$DIMAPOST
  1

  9
$DIMALT
 70
     0
  9
$DIMALTD
 70
     2
  9
$DIMALTF
 40
25.3999999999999986
  9
$DIMLFAC
 40
2.0
  9
$DIMTOFL
 70
     1
  9
$DIMTVP
 40
0.0
  9
$DIMTIX
 70
     0
  9
$DIMSOXD
 70
     0
  9
$DIMSAH
 70
     0
  9
$DIMBLK1
  1

  9
$DIMBLK2
  1

  9
$DIMSTYLE
  2
LORO
  9
$DIMCLRD
 70
     0
  9
$DIMCLRE
 70
     0
  9
$DIMCLRT
 70
     1
  9
$DIMTFAC
 40
0.5
  9
$DIMGAP
 40
1.5
  9
$LUNITS
 70
     2
  9
$LUPREC
 70
     2
  9
$SKETCHINC
 40
1.0
  9
$FILLETRAD
 40
2.0
  9
$AUNITS
 70
     0
  9
$AUPREC
 70
     2
  9
$MENU
  1
ACAD
  9
$ELEVATION
 40
0.0
  9
$PELEVATION
 40
0.0
  9
$THICKNESS
 40
0.0
  9
$LIMCHECK
 70
     0
  9
$BLIPMODE
 70
     0
  9
$CHAMFERA
 40
0.0
  9
$CHAMFERB
 40
0.0
  9
$SKPOLY
 70
     0
  9
$TDCREATE
 40
2455397.867048610933125
  9
$TDUPDATE
 40
2460592.3615162041969597
  9
$TDINDWG
 40
0.9405378819
  9
$TDUSRTIMER
 40
0.9405378819
  9
$USRTIMER
 70
     1
  9
$ANGBASE
 50
0.0
  9
$ANGDIR
 70
     0
  9
$PDMODE
 70
     0
  9
$PDSIZE
 40
0.0
  9
$PLINEWID
 40
0.0
  9
$COORDS
 70
     1
  9
$SPLFRAME
 70
     0
  9
$SPLINETYPE
 70
     6
  9
$SPLINESEGS
 70
     8
  9
$ATTDIA
 70
     1
  9
$ATTREQ
 70
     1
  9
$HANDLING
 70
     1
  9
$HANDSEED
  5
4FDF
  9
$SURFTAB1
 70
     6
  9
$SURFTAB2
 70
     6
  9
$SURFTYPE
 70
     6
  9
$SURFU
 70
     6
  9
$SURFV
 70
     6
  9
$UCSNAME
  2

  9
$UCSORG
 10
0.0
 20
0.0
 30
0.0
  9
$UCSXDIR
 10
1.0
 20
0.0
 30
0.0
  9
$UCSYDIR
 10
0.0
 20
1.0
 30
0.0
  9
$PUCSNAME
  2

  9
$PUCSORG
 10
0.0
 20
0.0
 30
0.0
  9
$PUCSXDIR
 10
1.0
 20
0.0
 30
0.0
  9
$PUCSYDIR
 10
0.0
 20
1.0
 30
0.0
  9
$USERI1
 70
     0
  9
$USERI2
 70
     0
  9
$USERI3
 70
     0
  9
$USERI4
 70
     0
  9
$USERI5
 70
     0
  9
$USERR1
 40
0.0
  9
$USERR2
 40
0.0
  9
$USERR3
 40
0.0
  9
$USERR4
 40
0.0
  9
$USERR5
 40
0.0
  9
$WORLDVIEW
 70
     1
  9
$SHADEDGE
 70
     3
  9
$SHADEDIF
 70
    70
  9
$TILEMODE
 70
     1
  9
$MAXACTVP
 70
    16
  9
$PLIMCHECK
 70
     0
  9
$PEXTMIN
 10
1.0000000000000000E+20
 20
1.0000000000000000E+20
 30
1.0000000000000000E+20
  9
$PEXTMAX
 10
-1.0000000000000000E+20
 20
-1.0000000000000000E+20
 30
-1.0000000000000000E+20
  9
$PLIMMIN
 10
-0.25
 20
-0.2500000000000568
  9
$PLIMMAX
 10
593.75
 20
419.7499999999998863
  9
$UNITMODE
 70
     0
  9
$VISRETAIN
 70
     0
  9
$PLINEGEN
 70
     0
  9
$PSLTSCALE
 70
     0
  0
ENDSEC
  0
SECTION
  2
TABLES
  0
TABLE
  2
VPORT
 70
     1
  0
VPORT
  2
*ACTIVE
 70
     0
 10
0.0
 20
0.0
 11
1.0
 21
1.0
 12
161.25
 22
-124.9999999999999005
 13
0.0
 23
0.0
 14
1.0
 24
1.0
 15
10.0
 25
10.0
 16
0.0000000000003553
 26
0.0
 36
1598.5291928180770356
 17
88.75
 27
73.25
 37
0.000000000000001
 40
644.8067010309280249
 41
1.8847807394668961
 42
50.0
 43
0.0
 44
0.0
 50
0.0
 51
0.0
 71
     0
 72
  1500
 73
     1
 74
     0
 75
     0
 76
     0
 77
     0
 78
     0
  0
ENDTAB
  0
TABLE
  2
LTYPE
 70
     6
  0
LTYPE
  2
CONTINUOUS
 70
     0
  3
Solid line
 72
    65
 73
     0
 40
0.0
  0
LTYPE
  2
STRICHPUNKT
 70
     0
  3
__ . __ . __ . __ . __ . __ . __ . __ . __ . __
 72
    65
 73
     4
 40
1.0
 49
0.5
 49
-0.25
 49
0.0
 49
-0.25
  0
LTYPE
  2
VERDECKT
 70
     0
  3
Verdeckt __ __ __ __ __ __ __ __ __ __ __ __ __
 72
    65
 73
     2
 40
0.375
 49
0.25
 49
-0.125
  0
ENDTAB
  0
TABLE
  2
LAYER
 70
    18
  0
LAYER
  2
0
 70
     0
 62
     7
  6
CONTINUOUS
  0
LAYER
  2
VOLL
 70
     0
 62
     1
  6
CONTINUOUS
  0
LAYER
  2
STEMPEL
 70
     0
 62
     3
  6
CONTINUOUS
  0
LAYER
  2
ADSK_ASSOC_ENTITY_BACKUPS
 70
     1
 62
    -7
  6
CONTINUOUS
  0
ENDTAB
  0
TABLE
  2
STYLE
 70
     4
  0
STYLE
  2
STANDARD
 70
     0
 40
0.0
 41
0.8
 50
0.0
 71
     0
 42
3.5
  3
simplex.shx
  4

  0
STYLE
  2
GREEKS
 70
     0
 40
0.0
 41
0.8
 50
0.0
 71
     0
 42
2.5
  3
SIMPLEX.shx
  4

  0
ENDTAB
  0
TABLE
  2
VIEW
 70
     1
  0
ENDTAB
  0
TABLE
  2
UCS
 70
     0
  0
ENDTAB
  0
TABLE
  2
APPID
 70
    28
  0
APPID
  2
ACAD
 70
     0
  0
APPID
  2
ACAECLAYERSTANDARD
 70
     0
  0
APPID
  2
ACCMTRANSPARENCY
 70
     0
  0
APPID
  2
ACAD_NAV_VCDISPLAY
 70
     0
  0
APPID
  2
ACAD_PSEXT
 70
     0
  0
APPID
  2
ACAD_EXEMPT_FROM_CAD_STANDARDS
 70
     0
  0
APPID
  2
ACSYNERGY
 70
     0
  0
APPID
  2
SYNERGY_BODY_TBR_ID
 70
     0
  0
APPID
  2
ACAD_VIEW_EDGE_ID
 70
     0
  0
APPID
  2
ACSYNERGYSKETCH
 70
     0
  0
APPID
  2
ACAD_MODELDOC_XFORM
 70
     0
  0
APPID
  2
ACAD_MLEADERVER
 70
     0
  0
APPID
  2
ACADANNOMONITORALERTICONDI
 70
     0
  0
APPID
  2
ACAD_DSTYLE_DIMJAG
 70
     0
  0
APPID
  2
ACAD_DSTYLE_DIMTALN
 70
     0
  0
APPID
  2
ACAD_DSTYLE_DIMBREAK
 70
     0
  0
APPID
  2
ACAD_STEPID
 70
     0
  0
APPID
  2
ACAD_TC
 70
     0
  0
APPID
  2
ACDBDYNAMICBLOCKGUID
 70
     0
  0
APPID
  2
ACADANNOPO
 70
     0
  0
APPID
  2
PLOTTRANSPARENCY
 70
     0
  0
APPID
  2
ACADANNOAV
 70
     0
  0
APPID
  2
ACAD_DIMASSOC_CALC_DIMLFAC
 70
     0
  0
APPID
  2
ACAD_DIMASSOC_DIMLFAC
 70
     0
  0
APPID
  2
ACAD_DIMASSOC_OVERRIDDEN_D
 70
     0
  0
APPID
  2
ACAD_DSTYLE_DIMRADIAL_EXTENSION
 70
     0
  0
APPID
  2
ACADANNOTATIVE
 70
     0
  0
APPID
  2
AcDbAttr
 70
     0
  0
ENDTAB
  0
TABLE
  2
DIMSTYLE
 70
     2
  0
DIMSTYLE
  2
LORO
 70
     0
  3

  4

  5

  6

  7

 40
1.0
 41
3.5
 42
1.0
 43
0.38
 44
1.0
 45
0.0
 46
0.0
 47
0.0
 48
0.000000001
140
3.5
141
0.09
142
0.0
143
25.3999999999999986
144
2.0
145
0.0
146
0.5
147
1.5
 71
     0
 72
     0
 73
     0
 74
     0
 75
     0
 76
     0
 77
     1
 78
     8
170
     0
171
     2
172
     1
173
     0
174
     0
175
     0
176
     0
177
     0
178
     1
  0
ENDTAB
  0
ENDSEC
  0
SECTION
  2
BLOCKS
  0
BLOCK
  8
0
  2
$MODEL_SPACE
 70
     0
 10
0.0
 20
0.0
 30
0.0
  3
$MODEL_SPACE
  1

  0
ENDBLK
  5
38
  8
0
  0
BLOCK
 67
     1
  8
0
  2
$PAPER_SPACE
 70
     0
 10
0.0
 20
0.0
 30
0.0
  3
$PAPER_SPACE
  1

  0
ENDBLK
  5
36
 67
     1
  8
0
  0
BLOCK
  8
0
  2
*S0
 70
     1
 10
0.0
 20
0.0
 30
0.0
  3
*S0
  1

  0
ENDBLK
  5
ACE
  8
0
  0
BLOCK
  8
0
  2
A$CDE54E623
 70
     0
 10
0.0
 20
0.0
 30
0.0
  3
A$CDE54E623
  1

  0
CIRCLE
  5
4E23
  8
0
  6
CONTINUOUS
 62
     3
 10
0.0000000000000594
 20
0.0
 30
0.0
 40
50.2000000000000313
  0
CIRCLE
  5
4E24
  8
0
  6
CONTINUOUS
 62
     3
 10
0.0000000000000594
 20
0.0
 30
0.0
 40
49.0000000000000213
  0
CIRCLE
  5
4E25
  8
0
  6
CONTINUOUS
 62
     3
 10
0.0000000000000557
 20
0.0
 30
0.0
 40
39.5000000000000071
  0
CIRCLE
  5
4E26
  8
0
  6
CONTINUOUS
 62
     3
 10
-0.0000000000000445
 20
-0.0016575748095115
 30
0.0
 40
32.0
  0
CIRCLE
  5
4E27
  8
0
  6
CONTINUOUS
 62
     3
 10
0.0000000000000569
 20
-0.0000000000000284
 30
0.0
 40
34.3092665479436008
  0
CIRCLE
  5
4E28
  8
0
  6
CONTINUOUS
 62
     3
 10
0.0000000000000559
 20
0.0
 30
0.0
 40
35.3000000000000114
  0
LINE
  5
4E29
  8
0
  6
CONTINUOUS
 62
     3
 10
300.0000000000002274
 20
-102.5
 30
0.0000000000000568
 11
300.0000000000002274
 21
102.5
 31
0.0000000000000568
  0
ARC
  5
4E2A
  8
0
  6
CONTINUOUS
 62
     3
 10
280.0000000000001137
 20
102.5
 30
0.0000000000000568
 40
20.0
 50
0.0
 51
89.9999999999999858
  0
LINE
  5
4E2B
  8
0
  6
CONTINUOUS
 62
     3
 10
280.0000000000001137
 20
122.5
 30
0.0000000000000568
 11
0.0
 21
122.5
 31
-0.0000000000000049
  0
CIRCLE
  5
4E2C
  8
0
  6
CONTINUOUS
 62
     3
 10
280.0000000000001137
 20
102.5
 30
0.0000000000000568
 40
3.9999999999999898
  0
CIRCLE
  5
4E2D
  8
0
  6
CONTINUOUS
 62
     3
 10
280.0000000000001137
 20
-102.5
 30
0.0000000000000568
 40
4.0000000000000071
  0
LINE
  5
4E2E
  8
0
  6
CONTINUOUS
 62
     3
 10
0.0000000000000648
 20
-122.5
 30
0.0
 11
280.0000000000001137
 21
-122.5
 31
0.0000000000000618
  0
ARC
  5
4E2F
  8
0
  6
CONTINUOUS
 62
     3
 10
280.0000000000001137
 20
-102.5
 30
0.0000000000000568
 40
20.0
 50
270.0
 51
0.0
  0
ARC
  5
4E30
  8
0
  6
CONTINUOUS
 62
     3
 10
0.0000000000000873
 20
-0.0000000000000071
 30
0.0
 40
122.5
 50
90.0
 51
270.0
  0
CIRCLE
  5
4E31
  8
0
  6
VERDECKT
 62
     1
 10
0.0000000000000557
 20
0.0
 30
0.0
 40
40.4663561740293289
  0
CIRCLE
  5
4E32
  8
0
  6
VERDECKT
 62
     1
 10
-0.0000000000000412
 20
-0.0016575748095106
 30
0.0
 40
37.0
  0
CIRCLE
  5
4E33
  8
0
  6
VERDECKT
 62
     1
 10
-0.000000000000041
 20
-0.0016575748095105
 30
0.0
 40
42.3000000000000114
  0
CIRCLE
  5
4E34
  8
0
  6
VERDECKT
 62
     1
 10
-0.0000000000000422
 20
-0.0016575748095108
 30
0.0
 40
40.4999999999999929
  0
CIRCLE
  5
4E35
  8
0
  6
VERDECKT
 62
     1
 10
-0.0000000000000428
 20
-0.001657574809511
 30
0.0
 40
41.900000000000027
  0
CIRCLE
  5
4E36
  8
0
  6
VERDECKT
 62
     1
 10
-0.0000000000000443
 20
-0.0016575748095114
 30
0.0
 40
42.8000000000000114
  0
CIRCLE
  5
4E37
  8
0
  6
VERDECKT
 62
     1
 10
-0.0000000000000443
 20
-0.0016575748095114
 30
0.0
 40
41.0
  0
CIRCLE
  5
4E38
  8
0
  6
VERDECKT
 62
     1
 10
-0.0000000000000411
 20
-0.0016575748095105
 30
0.0
 40
38.7140740033711026
  0
CIRCLE
  5
4E39
  8
0
  6
VERDECKT
 62
     1
 10
0.0000000000000568
 20
-0.0000000000000284
 30
0.0
 40
35.5
  0
CIRCLE
  5
4E3A
  8
0
  6
VERDECKT
 62
     1
 10
0.0000000000000559
 20
0.0
 30
0.0
 40
36.5
  0
CIRCLE
  5
4E3B
  8
0
  6
VERDECKT
 62
     1
 10
0.0000000000000584
 20
0.0
 30
0.0
 40
40.7499999999999929
  0
CIRCLE
  5
4E3C
  8
0
  6
VERDECKT
 62
     1
 10
0.0000000000000587
 20
0.0
 30
0.0
 40
39.9347703342132974
  0
CIRCLE
  5
4E3D
  8
0
  6
VERDECKT
 62
     1
 10
0.0000000000000855
 20
0.0
 30
0.0
 40
50.887304130497057
  0
CIRCLE
  5
4E3E
  8
0
  6
VERDECKT
 62
     1
 10
0.0000000000000856
 20
0.0
 30
0.0
 40
50.0
  0
ENDBLK
  5
4E40
  8
0
  0
BLOCK
  8
0
  2
A$CC850D7EA
 70
     0
 10
0.0
 20
0.0
 30
0.0
  3
A$CC850D7EA
  1

  0
LINE
  5
4E44
  8
0
  6
CONTINUOUS
 62
     3
 10
50.2000000000000171
 20
269.0000000000001137
 30
-0.0000000000000597
 11
-50.2000000000000171
 21
269.0000000000001137
 31
-0.0000000000000597
210
0.0
220
1.0
230
-0.0000000000000002
  0
LINE
  5
4E45
  8
0
  6
CONTINUOUS
 62
     3
 10
40.4663561740293432
 20
235.5
 30
-0.0000000000000523
 11
-40.4663561740293289
 21
235.5
 31
-0.0000000000000523
210
0.0
220
1.0
230
-0.0000000000000002
  0
ARC
  5
4E46
  8
0
  6
CONTINUOUS
 62
     3
 10
-40.2000000000008271
 20
260.9999999999997158
 30
0.0
 40
9.9999999999991367
210
0.0
220
-0.0000000000000002
230
-1.0
 50
194.4775121859291005
 51
209.1143386591444084
  0
ARC
  5
4E47
  8
0
  6
CONTINUOUS
 62
     3
 10
40.1999999999991573
 20
261.0000000000005116
 30
0.0
 40
10.0000000000009592
210
0.0
220
-0.0000000000000002
230
-1.0
 50
330.8856613408569274
 51
345.5224878140692226
  0
LINE
  5
4E48
  8
0
  6
CONTINUOUS
 62
     3
 10
-50.2000000000000313
 20
267.0000000000001137
 30
-0.0000000000000593
 11
-50.2000000000000313
 21
269.0000000000001137
 31
-0.0000000000000597
210
0.0
220
1.0
230
-0.0000000000000002
  0
LINE
  5
4E49
  8
0
  6
CONTINUOUS
 62
     3
 10
50.2000000000000313
 20
267.0
 30
-0.0000000000000593
 11
50.2000000000000313
 21
269.0000000000001137
 31
-0.0000000000000597
210
0.0
220
1.0
230
-0.0000000000000002
  0
ARC
  5
4E4A
  8
0
  6
CONTINUOUS
 62
     3
 10
-16.3074518232963186
 20
253.2861558683187866
 30
0.0
 40
29.9999999999999183
210
0.0
220
-0.0000000000000002
230
-1.0
 50
191.2917700051418137
 51
216.361070218876705
  0
ARC
  5
4E4B
  8
0
  6
CONTINUOUS
 62
     3
 10
16.3074518232964216
 20
253.2861558683187866
 30
0.0
 40
29.9999999999998188
210
0.0
220
-0.0000000000000002
230
-1.0
 50
323.6389297811231245
 51
348.7082299948580726
  0
ARC
  5
4E4C
  8
0
  6
CONTINUOUS
 62
     3
 10
-75.1460194773267034
 20
241.5378386942691975
 30
0.0
 40
29.9999999999997797
210
0.0
220
-0.0000000000000002
230
-1.0
 50
11.2917700051424106
 51
29.1143386591440212
  0
ARC
  5
4E4D
  8
0
  6
CONTINUOUS
 62
     3
 10
75.1460194773263765
 20
241.5378386942693112
 30
0.0
 40
29.9999999999994209
210
0.0
220
-0.0000000000000002
230
-1.0
 50
150.8856613408559042
 51
168.7082299948575894
  0
LINE
  5
4E4E
  8
0
  6
CONTINUOUS
 62
     3
 10
-42.3000000000000327
 20
-57.0000000000001279
 30
0.0000000000000127
 11
42.2999999999999829
 21
-57.0000000000001279
 31
0.0000000000000127
210
0.0
220
1.0
230
-0.0000000000000002
  0
LINE
  5
4E4F
  8
0
  6
CONTINUOUS
 62
     3
 10
-40.5000000000000284
 20
-62.4949548389092868
 30
0.0000000000000139
 11
40.4999999999999716
 21
-62.4949548389092868
 31
0.0000000000000139
210
0.0
220
1.0
230
-0.0000000000000002
  0
LINE
  5
4E50
  8
0
  6
CONTINUOUS
 62
     3
 10
-40.5000000000000284
 20
-63.6000000000001009
 30
0.0000000000000141
 11
40.4999999999999716
 21
-63.6000000000001009
 31
0.0000000000000141
210
0.0
220
1.0
230
-0.0000000000000002
  0
LINE
  5
4E51
  8
0
  6
CONTINUOUS
 62
     3
 10
-41.9000000000000625
 20
-65.0000000000001279
 30
0.0000000000000144
 11
41.8999999999999986
 21
-65.0000000000001279
 31
0.0000000000000144
210
0.0
220
1.0
230
-0.0000000000000002
  0
LINE
  5
4E52
  8
0
  6
CONTINUOUS
 62
     3
 10
-41.9000000000000625
 20
-66.0000000000001137
 30
0.0000000000000147
 11
41.8999999999999986
 21
-66.0000000000001137
 31
0.0000000000000147
210
0.0
220
1.0
230
-0.0000000000000002
  0
LINE
  5
4E53
  8
0
  6
CONTINUOUS
 62
     3
 10
-40.5000000000000711
 20
-67.4000000000001052
 30
0.000000000000015
 11
40.5000000000000213
 21
-67.4000000000001052
 31
0.000000000000015
210
0.0
220
1.0
230
-0.0000000000000002
  0
LINE
  5
4E54
  8
0
  6
CONTINUOUS
 62
     3
 10
-40.5000000000000711
 20
-68.0000000000001279
 30
0.0000000000000151
 11
40.5000000000000213
 21
-68.0000000000001279
 31
0.0000000000000151
210
0.0
220
1.0
230
-0.0000000000000002
  0
LINE
  5
4E55
  8
0
  6
CONTINUOUS
 62
     3
 10
-42.8000000000000327
 20
-72.0000000000001279
 30
0.000000000000016
 11
42.7999999999999687
 21
-72.0000000000001279
 31
0.000000000000016
210
0.0
220
1.0
230
-0.0000000000000002
  0
LINE
  5
4E56
  8
0
  6
CONTINUOUS
 62
     3
 10
-34.5000000000000284
 20
-74.5000000000001279
 30
0.0000000000000165
 11
34.4999999999999716
 21
-74.5000000000001279
 31
0.0000000000000165
210
0.0
220
1.0
230
-0.0000000000000002
  0
ARC
  5
4E57
  8
0
  6
CONTINUOUS
 62
     3
 10
38.8970615154280708
 20
-53.0000000000001421
 30
0.0
 40
1.0000000000000271
210
0.0
220
-0.0000000000000002
230
-1.0
 50
29.4119136655303883
 51
89.9999999999992042
  0
ARC
  5
4E58
  8
0
  6
CONTINUOUS
 62
     3
 10
-38.8970615154280068
 20
-53.0000000000001421
 30
0.0
 40
1.000000000000028
210
0.0
220
-0.0000000000000002
230
-1.0
 50
90.00000000000081
 51
150.5880863344696081
  0
LINE
  5
4E59
  8
0
  6
CONTINUOUS
 62
     3
 10
38.897061515428021
 20
-52.0000000000000995
 30
0.0000000000000115
 11
-38.8970615154280779
 21
-52.0000000000000995
 31
0.0000000000000115
210
0.0
220
1.0
230
-0.0000000000000002
  0
LINE
  5
4E5A
  8
0
  6
CONTINUOUS
 62
     3
 10
39.7681732327772792
 20
-52.5089151031677801
 30
0.0000000000000117
 11
42.2999999999999901
 21
-57.0000000000001279
 31
0.0000000000000127
210
0.0
220
1.0
230
-0.0000000000000002
  0
LINE
  5
4E5B
  8
0
  6
CONTINUOUS
 62
     3
 10
-39.7681732327773432
 20
-52.5089151031677801
 30
0.0000000000000117
 11
-42.3000000000000398
 21
-57.0000000000001279
 31
0.0000000000000127
210
0.0
220
1.0
230
-0.0000000000000002
  0
ARC
  5
4E5C
  8
0
  6
CONTINUOUS
 62
     3
 10
39.214074003371131
 20
-57.5000000000000711
 30
0.0
 40
0.5
210
0.0
220
-0.0000000000000002
230
-1.0
 50
90.0000000000016058
 51
199.9999999999990052
  0
ARC
  5
4E5D
  8
0
  6
CONTINUOUS
 62
     3
 10
-39.2140740033710671
 20
-57.5000000000000711
 30
0.0
 40
0.4999999999999987
210
0.0
220
-0.0000000000000002
230
-1.0
 50
339.9999999999998863
 51
89.9999999999983658
  0
LINE
  5
4E5E
  8
0
  6
CONTINUOUS
 62
     3
 10
38.7442276929781002
 20
-57.6710100716628915
 30
0.0000000000000128
 11
40.4999999999999787
 21
-62.4949548389092868
 31
0.0000000000000139
210
0.0
220
1.0
230
-0.0000000000000002
  0
LINE
  5
4E5F
  8
0
  6
CONTINUOUS
 62
     3
 10
-38.7442276929781713
 20
-57.6710100716628986
 30
0.0000000000000128
 11
-40.5000000000000284
 21
-62.4949548389092868
 31
0.0000000000000139
210
0.0
220
1.0
230
-0.0000000000000002
  0
LINE
  5
4E60
  8
0
  6
CONTINUOUS
 62
     3
 10
40.4999999999999716
 20
-62.4949548389092868
 30
0.0000000000000139
 11
40.4999999999999716
 21
-63.6000000000001009
 31
0.0000000000000141
210
0.0
220
1.0
230
-0.0000000000000002
  0
LINE
  5
4E61
  8
0
  6
CONTINUOUS
 62
     3
 10
-40.5000000000000284
 20
-62.4949548389092868
 30
0.0000000000000139
 11
-40.5000000000000284
 21
-63.6000000000001009
 31
0.0000000000000141
210
0.0
220
1.0
230
-0.0000000000000002
  0
LINE
  5
4E62
  8
0
  6
CONTINUOUS
 62
     3
 10
40.4999999999999716
 20
-63.6000000000001009
 30
0.0000000000000141
 11
41.8999999999999986
 21
-65.0000000000001279
 31
0.0000000000000144
210
0.0
220
1.0
230
-0.0000000000000002
  0
LINE
  5
4E63
  8
0
  6
CONTINUOUS
 62
     3
 10
-40.5000000000000284
 20
-63.6000000000001009
 30
0.0000000000000141
 11
-41.9000000000000625
 21
-65.0000000000001279
 31
0.0000000000000144
210
0.0
220
1.0
230
-0.0000000000000002
  0
LINE
  5
4E64
  8
0
  6
CONTINUOUS
 62
     3
 10
41.8999999999999986
 20
-65.0000000000001279
 30
0.0000000000000144
 11
41.8999999999999986
 21
-66.0000000000001137
 31
0.0000000000000147
210
0.0
220
1.0
230
-0.0000000000000002
  0
LINE
  5
4E65
  8
0
  6
CONTINUOUS
 62
     3
 10
-41.9000000000000625
 20
-65.0000000000001279
 30
0.0000000000000144
 11
-41.9000000000000625
 21
-66.0000000000001137
 31
0.0000000000000147
210
0.0
220
1.0
230
-0.0000000000000002
  0
LINE
  5
4E66
  8
0
  6
CONTINUOUS
 62
     3
 10
-40.5000000000000782
 20
-67.4000000000001052
 30
0.000000000000015
 11
-41.9000000000000625
 21
-66.0000000000001137
 31
0.0000000000000147
210
0.0
220
1.0
230
-0.0000000000000002
  0
LINE
  5
4E67
  8
0
  6
CONTINUOUS
 62
     3
 10
40.5000000000000284
 20
-67.4000000000001052
 30
0.000000000000015
 11
41.8999999999999986
 21
-66.0000000000001137
 31
0.0000000000000147
210
0.0
220
1.0
230
-0.0000000000000002
  0
LINE
  5
4E68
  8
0
  6
CONTINUOUS
 62
     3
 10
40.5000000000000284
 20
-67.4000000000001052
 30
0.000000000000015
 11
40.5000000000000284
 21
-68.0000000000001279
 31
0.0000000000000151
210
0.0
220
1.0
230
-0.0000000000000002
  0
LINE
  5
4E69
  8
0
  6
CONTINUOUS
 62
     3
 10
-40.5000000000000782
 20
-67.4000000000001052
 30
0.000000000000015
 11
-40.5000000000000782
 21
-68.0000000000001279
 31
0.0000000000000151
210
0.0
220
1.0
230
-0.0000000000000002
  0
LINE
  5
4E6A
  8
0
  6
CONTINUOUS
 62
     3
 10
40.5000000000000284
 20
-68.0000000000001279
 30
0.0000000000000151
 11
42.7999999999999829
 21
-72.0000000000001279
 31
0.000000000000016
210
0.0
220
1.0
230
-0.0000000000000002
  0
LINE
  5
4E6B
  8
0
  6
CONTINUOUS
 62
     3
 10
-40.5000000000000782
 20
-68.0000000000001279
 30
0.0000000000000151
 11
-42.8000000000000327
 21
-72.0000000000001279
 31
0.000000000000016
210
0.0
220
1.0
230
-0.0000000000000002
  0
ARC
  5
4E6C
  8
0
  6
CONTINUOUS
 62
     3
 10
34.5000000000000568
 20
-70.5000000000001705
 30
0.0
 40
3.9999999999999569
210
0.0
220
-0.0000000000000002
230
-1.0
 50
270.0
 51
337.9756871629587067
  0
ARC
  5
4E6D
  8
0
  6
CONTINUOUS
 62
     3
 10
-34.5
 20
-70.5000000000001705
 30
0.0
 40
3.9999999999999538
210
0.0
220
-0.0000000000000002
230
-1.0
 50
202.0243128370416912
 51
270.0000000000003979
  0
LINE
  5
4E6E
  8
0
  6
CONTINUOUS
 62
     3
 10
35.5000000000000568
 20
0.0000000000000284
 30
0.0
 11
-35.4999999999999432
 21
0.0000000000000284
 31
0.0
210
0.0
220
1.0
230
-0.0000000000000002
  0
LINE
  5
4E6F
  8
0
  6
CONTINUOUS
 62
     3
 10
40.75
 20
235.119431665331291
 30
-0.0000000000000522
 11
-40.7499999999999787
 21
235.119431665331291
 31
-0.0000000000000522
210
0.0
220
1.0
230
-0.0000000000000002
  0
ARC
  5
4E70
  8
0
  6
CONTINUOUS
 62
     3
 10
-35.4999999999999218
 20
8.0622577482985012
 30
0.0
 40
1.0000000000001421
210
0.0
220
-0.0000000000000002
230
-1.0
 50
179.9999999999988916
 51
187.1250163488992939
  0
ARC
  5
4E71
  8
0
  6
CONTINUOUS
 62
     3
 10
35.4999999999998366
 20
8.0622577482985083
 30
0.0
 40
1.0000000000001059
210
0.0
220
-0.0000000000000002
230
-1.0
 50
352.8749836511005924
 51
0.0000000000012213
  0
LINE
  5
4E72
  8
0
  6
CONTINUOUS
 62
     3
 10
-35.4999999999999503
 20
0.0000000000000338
 30
0.0
 11
-36.492277876713608
 21
7.9382230137093268
 31
-0.0000000000000018
210
0.0
220
1.0
230
-0.0000000000000002
  0
LINE
  5
4E73
  8
0
  6
CONTINUOUS
 62
     3
 10
35.5000000000000568
 20
0.000000000000028
 30
0.0
 11
36.4922778767137288
 21
7.9382230137093197
 31
-0.0000000000000018
210
0.0
220
1.0
230
-0.0000000000000002
  0
LINE
  5
4E74
  8
0
  6
CONTINUOUS
 62
     3
 10
-36.5000000000000426
 20
8.0622577482985225
 30
-0.0000000000000018
 11
-36.5
 21
229.0
 31
-0.0000000000000508
210
0.0
220
1.0
230
-0.0000000000000002
  0
LINE
  5
4E75
  8
0
  6
CONTINUOUS
 62
     3
 10
36.4999999999999716
 20
8.0622577482985225
 30
-0.0000000000000018
 11
36.5
 21
229.0
 31
-0.0000000000000508
210
0.0
220
1.0
230
-0.0000000000000002
  0
ARC
  5
4E76
  8
0
  6
CONTINUOUS
 62
     3
 10
-41.4999999999999503
 20
229.0000000000001137
 30
0.0
 40
4.9999999999999503
210
0.0
220
-0.0000000000000002
230
-1.0
 50
359.9999999999997158
 51
47.2065004727365078
  0
ARC
  5
4E77
  8
0
  6
CONTINUOUS
 62
     3
 10
41.4999999999999432
 20
229.0000000000001137
 30
0.0
 40
4.9999999999999476
210
0.0
220
-0.0000000000000002
230
-1.0
 50
132.7934995272634922
 51
180.0000000000003126
  0
LINE
  5
4E78
  8
0
  6
CONTINUOUS
 62
     3
 10
-38.1032097258887319
 20
232.6690347277865101
 30
-0.0000000000000517
 11
-40.7499999999999787
 21
235.119431665331291
 31
-0.0000000000000522
210
0.0
220
1.0
230
-0.0000000000000002
  0
LINE
  5
4E79
  8
0
  6
CONTINUOUS
 62
     3
 10
38.1032097258887532
 20
232.6690347277865101
 30
-0.0000000000000517
 11
40.75
 21
235.119431665331291
 31
-0.0000000000000522
210
0.0
220
1.0
230
-0.0000000000000002
  0
LINE
  5
4E7A
  8
0
  6
CONTINUOUS
 62
     3
 10
40.3976700511860827
 20
235.5
 30
-0.0000000000000523
 11
40.75
 21
235.119431665331291
 31
-0.0000000000000522
210
0.0
220
1.0
230
-0.0000000000000002
  0
LINE
  5
4E7B
  8
0
  6
CONTINUOUS
 62
     3
 10
-40.3976700511860685
 20
235.5
 30
-0.0000000000000523
 11
-40.7499999999999787
 21
235.119431665331291
 31
-0.0000000000000522
210
0.0
220
1.0
230
-0.0000000000000002
  0
LINE
  5
4E7C
  8
0
  6
CONTINUOUS
 62
     3
 10
50.8873041304970926
 20
258.5
 30
-0.0000000000000574
 11
-50.8873041304970286
 21
258.5
 31
-0.0000000000000574
210
0.0
220
1.0
230
-0.0000000000000002
  0
LINE
  5
4E7D
  8
0
  6
CONTINUOUS
 62
     3
 10
300.0000000000001137
 20
267.0
 30
-0.0000000000000593
 11
300.0000000000001137
 21
266.0
 31
-0.0000000000000591
210
0.0
220
1.0
230
-0.0000000000000002
  0
LINE
  5
4E7E
  8
0
  6
CONTINUOUS
 62
     3
 10
0.0000000000000059
 20
266.0
 30
-0.0000000000000591
 11
280.0
 21
266.0
 31
-0.0000000000000591
210
0.0
220
1.0
230
-0.0000000000000002
  0
LINE
  5
4E7F
  8
0
  6
CONTINUOUS
 62
     3
 10
0.0000000000000059
 20
267.0
 30
-0.0000000000000593
 11
280.0
 21
267.0
 31
-0.0000000000000593
210
0.0
220
1.0
230
-0.0000000000000002
  0
LINE
  5
4E80
  8
0
  6
CONTINUOUS
 62
     3
 10
300.0
 20
266.0
 30
-0.0000000000000591
 11
280.0
 21
266.0
 31
-0.0000000000000591
210
0.0
220
1.0
230
-0.0000000000000002
  0
LINE
  5
4E81
  8
0
  6
CONTINUOUS
 62
     3
 10
300.0
 20
267.0
 30
-0.0000000000000593
 11
280.0
 21
267.0
 31
-0.0000000000000593
210
0.0
220
1.0
230
-0.0000000000000002
  0
LINE
  5
4E82
  8
0
  6
CONTINUOUS
 62
     3
 10
-0.000000000000017
 20
266.0
 30
-0.0000000000000591
 11
-122.4999999999999005
 21
266.0
 31
-0.0000000000000591
210
0.0
220
1.0
230
-0.0000000000000002
  0
LINE
  5
4E83
  8
0
  6
CONTINUOUS
 62
     3
 10
-0.000000000000017
 20
267.0
 30
-0.0000000000000593
 11
-122.4999999999999005
 21
267.0
 31
-0.0000000000000593
210
0.0
220
1.0
230
-0.0000000000000002
  0
LINE
  5
4E84
  8
0
  6
CONTINUOUS
 62
     3
 10
-50.8873041304970002
 20
258.4999999999998863
 30
-0.0000000000000574
 11
-54.2253917390058078
 21
264.9223695138127823
 31
-0.0000000000000588
210
0.0
220
1.0
230
-0.0000000000000002
  0
LINE
  5
4E85
  8
0
  6
CONTINUOUS
 62
     3
 10
50.8873041304970926
 20
258.5
 30
-0.0000000000000574
 11
54.2253917390058575
 21
264.9223695138127823
 31
-0.0000000000000588
210
0.0
220
1.0
230
-0.0000000000000002
  0
ARC
  5
4E86
  8
0
  6
CONTINUOUS
 62
     3
 10
-56.0000000000000071
 20
264.0
 30
0.0
 40
1.9999999999999789
210
0.0
220
-0.0000000000000002
230
-1.0
 50
27.4635841578825897
 51
90.0000000000006253
  0
ARC
  5
4E87
  8
0
  6
CONTINUOUS
 62
     3
 10
55.9999999999999503
 20
264.0
 30
0.0
 40
2.0
210
0.0
220
-0.0000000000000002
230
-1.0
 50
89.9999999999993889
 51
152.5364158421174068
  0
LINE
  5
4E88
  8
0
  6
CONTINUOUS
 62
     3
 10
-122.4999999999999005
 20
266.0
 30
-0.0000000000000591
 11
-122.4999999999999005
 21
267.0
 31
-0.0000000000000593
210
0.0
220
1.0
230
-0.0000000000000002
  0
LINE
  5
4E89
  8
0
  6
VERDECKT
 62
     1
 10
39.5000000000000071
 20
236.2114462347327901
 30
-0.0000000000000524
 11
-39.5
 21
236.2114462347327901
 31
-0.0000000000000524
210
0.0
220
1.0
230
-0.0000000000000002
  0
ARC
  5
4E8A
  8
0
  6
VERDECKT
 62
     1
 10
-40.1999999999999318
 20
261.0000000000001137
 30
0.0
 40
10.0000000000000995
210
0.0
220
-0.0000000000000002
230
-1.0
 50
180.0
 51
194.4775121859296974
  0
ARC
  5
4E8B
  8
0
  6
VERDECKT
 62
     1
 10
40.1999999999999318
 20
261.0000000000001137
 30
0.0
 40
10.0000000000000995
210
0.0
220
-0.0000000000000002
230
-1.0
 50
345.5224878140703026
 51
0.0000000000000127
  0
LINE
  5
4E8C
  8
0
  6
VERDECKT
 62
     1
 10
-50.2000000000000313
 20
261.0000000000001137
 30
-0.000000000000058
 11
-50.2000000000000313
 21
267.0000000000001137
 31
-0.0000000000000593
210
0.0
220
1.0
230
-0.0000000000000002
  0
LINE
  5
4E8D
  8
0
  6
VERDECKT
 62
     1
 10
50.2000000000000313
 20
261.0000000000001137
 30
-0.000000000000058
 11
50.2000000000000313
 21
267.0
 31
-0.0000000000000593
210
0.0
220
1.0
230
-0.0000000000000002
  0
LINE
  5
4E8E
  8
0
  6
VERDECKT
 62
     1
 10
-49.0000000000000213
 20
261.0000000000001137
 30
-0.000000000000058
 11
-49.0000000000000213
 21
269.0000000000001137
 31
-0.0000000000000597
210
0.0
220
1.0
230
-0.0000000000000002
  0
LINE
  5
4E8F
  8
0
  6
VERDECKT
 62
     1
 10
49.0000000000000213
 20
261.0000000000001137
 30
-0.000000000000058
 11
49.0000000000000213
 21
269.0000000000001137
 31
-0.0000000000000597
210
0.0
220
1.0
230
-0.0000000000000002
  0
ARC
  5
4E90
  8
0
  6
VERDECKT
 62
     1
 10
-40.2000000000000384
 20
261.0000000000001137
 30
0.0
 40
8.7999999999999812
210
0.0
220
-0.0000000000000002
230
-1.0
 50
180.0
 51
209.1143386591442095
  0
ARC
  5
4E91
  8
0
  6
VERDECKT
 62
     1
 10
40.2000000000000384
 20
261.0000000000001137
 30
0.0
 40
8.7999999999999812
210
0.0
220
-0.0000000000000002
230
-1.0
 50
330.8856613408557905
 51
0.0000000000000127
  0
ARC
  5
4E92
  8
0
  6
VERDECKT
 62
     1
 10
-75.1460194773271155
 20
241.5378386942691122
 30
0.0
 40
31.2000000000001982
210
0.0
220
-0.0000000000000002
230
-1.0
 50
11.2917700051426397
 51
29.1143386591438613
  0
ARC
  5
4E93
  8
0
  6
VERDECKT
 62
     1
 10
75.1460194773267744
 20
241.5378386942691975
 30
0.0
 40
31.1999999999998714
210
0.0
220
-0.0000000000000002
230
-1.0
 50
150.8856613408559895
 51
168.7082299948573905
  0
ARC
  5
4E94
  8
0
  6
VERDECKT
 62
     1
 10
-16.3074518232958816
 20
253.286155868319014
 30
0.0
 40
28.8000000000003809
210
0.0
220
-0.0000000000000002
230
-1.0
 50
191.2917700051420127
 51
216.3610702188765913
  0
ARC
  5
4E95
  8
0
  6
VERDECKT
 62
     1
 10
16.3074518232961303
 20
253.2861558683189003
 30
0.0
 40
28.8000000000001108
210
0.0
220
-0.0000000000000002
230
-1.0
 50
323.638929781123295
 51
348.7082299948580726
  0
LINE
  5
4E96
  8
0
  6
VERDECKT
 62
     1
 10
39.5000000000000071
 20
236.2114462347327901
 30
-0.0000000000000524
 11
40.4663561740293289
 21
235.5
 31
-0.0000000000000523
210
0.0
220
1.0
230
-0.0000000000000002
  0
LINE
  5
4E97
  8
0
  6
VERDECKT
 62
     1
 10
-39.5
 20
236.2114462347327901
 30
-0.0000000000000524
 11
-40.4663561740293289
 21
235.5
 31
-0.0000000000000523
210
0.0
220
1.0
230
-0.0000000000000002
  0
LINE
  5
4E98
  8
0
  6
VERDECKT
 62
     1
 10
-37.0000000000000284
 20
-58.0000000000001279
 30
0.0000000000000129
 11
36.9999999999999716
 21
-58.0000000000001279
 31
0.0000000000000129
210
0.0
220
1.0
230
-0.0000000000000002
  0
LINE
  5
4E99
  8
0
  6
VERDECKT
 62
     1
 10
-32.0000000000000284
 20
-73.0000000000001279
 30
0.0000000000000162
 11
31.9999999999999716
 21
-73.0000000000001279
 31
0.0000000000000162
210
0.0
220
1.0
230
-0.0000000000000002
  0
LINE
  5
4E9A
  8
0
  6
VERDECKT
 62
     1
 10
36.9999999999999716
 20
-58.0000000000001279
 30
0.0000000000000129
 11
36.9999999999999716
 21
-68.0000000000001279
 31
0.0000000000000151
210
0.0
220
1.0
230
-0.0000000000000002
  0
LINE
  5
4E9B
  8
0
  6
VERDECKT
 62
     1
 10
-37.0000000000000284
 20
-58.0000000000001279
 30
0.0000000000000129
 11
-37.0000000000000284
 21
-68.0000000000001279
 31
0.0000000000000151
210
0.0
220
1.0
230
-0.0000000000000002
  0
LINE
  5
4E9C
  8
0
  6
VERDECKT
 62
     1
 10
-37.0000000000000284
 20
-58.0000000000001279
 30
0.0000000000000129
 11
-37.9122537624158724
 21
-52.8263518223331729
 31
0.0000000000000117
210
0.0
220
1.0
230
-0.0000000000000002
  0
LINE
  5
4E9D
  8
0
  6
VERDECKT
 62
     1
 10
36.9999999999999716
 20
-58.0000000000001279
 30
0.0000000000000129
 11
37.9122537624158227
 21
-52.8263518223331729
 31
0.0000000000000117
210
0.0
220
1.0
230
-0.0000000000000002
  0
ARC
  5
4E9E
  8
0
  6
VERDECKT
 62
     1
 10
38.8970615154280921
 20
-53.0000000000001066
 30
0.0
 40
1.0000000000000071
210
0.0
220
-0.0000000000000002
230
-1.0
 50
90.0000000000003979
 51
169.9999999999990052
  0
ARC
  5
4E9F
  8
0
  6
VERDECKT
 62
     1
 10
-38.8970615154280281
 20
-53.0000000000001066
 30
0.0
 40
1.0000000000000071
210
0.0
220
-0.0000000000000002
230
-1.0
 50
10.0000000000009397
 51
89.9999999999995879
  0
LINE
  5
4EA0
  8
0
  6
VERDECKT
 62
     1
 10
40.1756658041690287
 20
-70.4725600474013305
 30
0.0000000000000156
 11
40.9999999999999574
 21
-72.0000000000001279
 31
0.000000000000016
210
0.0
220
1.0
230
-0.0000000000000002
  0
LINE
  5
4EA1
  8
0
  6
VERDECKT
 62
     1
 10
-40.1756658041690784
 20
-70.4725600474013305
 30
0.0000000000000156
 11
-41.0000000000000284
 21
-72.0000000000001279
 31
0.000000000000016
210
0.0
220
1.0
230
-0.0000000000000002
  0
ARC
  5
4EA2
  8
0
  6
VERDECKT
 62
     1
 10
39.3836461788299275
 20
-70.9000000000001336
 30
0.0
 40
0.9000000000000328
210
0.0
220
-0.0000000000000002
230
-1.0
 50
28.3550060284115588
 51
89.9999999999986642
  0
ARC
  5
4EA3
  8
0
  6
VERDECKT
 62
     1
 10
39.3836461788299701
 20
-70.9000000000001336
 30
0.0
 40
0.9000000000000341
210
0.0
220
-0.0000000000000002
230
-1.0
 50
90.0000000000013358
 51
175.3175831377299119
  0
ARC
  5
4EA4
  8
0
  6
VERDECKT
 62
     1
 10
-39.3836461788299133
 20
-70.9000000000001336
 30
0.0
 40
0.9000000000000262
210
0.0
220
-0.0000000000000002
230
-1.0
 50
4.6824168622700792
 51
89.9999999999986358
  0
ARC
  5
4EA5
  8
0
  6
VERDECKT
 62
     1
 10
-39.3836461788298706
 20
-70.9000000000001336
 30
0.0
 40
0.9000000000000341
210
0.0
220
-0.0000000000000002
230
-1.0
 50
90.0000000000013358
 51
151.6449939715884057
  0
LINE
  5
4EA6
  8
0
  6
VERDECKT
 62
     1
 10
39.3836461788298919
 20
-70.0000000000001137
 30
0.0000000000000155
 11
-39.3836461788299488
 21
-70.0000000000001137
 31
0.0000000000000155
210
0.0
220
1.0
230
-0.0000000000000002
  0
ARC
  5
4EA7
  8
0
  6
VERDECKT
 62
     1
 10
34.5000000000001776
 20
-70.5000000000001847
 30
0.0
 40
3.999999999999837
210
0.0
220
-0.0000000000000002
230
-1.0
 50
337.9756871629576835
 51
355.3175831377308214
  0
ARC
  5
4EA8
  8
0
  6
VERDECKT
 62
     1
 10
-34.5000000000001208
 20
-70.5000000000001847
 30
0.0
 40
3.999999999999837
210
0.0
220
-0.0000000000000002
230
-1.0
 50
184.6824168622690934
 51
202.0243128370422028
  0
LINE
  5
4EA9
  8
0
  6
VERDECKT
 62
     1
 10
31.9999999999999716
 20
-73.0000000000001279
 30
0.0000000000000162
 11
31.9999999999999716
 21
-74.5000000000001279
 31
0.0000000000000165
210
0.0
220
1.0
230
-0.0000000000000002
  0
LINE
  5
4EAA
  8
0
  6
VERDECKT
 62
     1
 10
-32.0000000000000284
 20
-73.0000000000001279
 30
0.0000000000000162
 11
-32.0000000000000284
 21
-74.5000000000001279
 31
0.0000000000000165
210
0.0
220
1.0
230
-0.0000000000000002
  0
ARC
  5
4EAB
  8
0
  6
VERDECKT
 62
     1
 10
32.0000000000000284
 20
-68.0000000000001279
 30
0.0
 40
5.0
210
0.0
220
-0.0000000000000002
230
-1.0
 50
270.0
 51
0.0
  0
ARC
  5
4EAC
  8
0
  6
VERDECKT
 62
     1
 10
-31.9999999999999716
 20
-68.0000000000001279
 30
0.0
 40
5.0
210
0.0
220
-0.0000000000000002
230
-1.0
 50
180.0
 51
270.0
  0
LINE
  5
4EAD
  8
0
  6
VERDECKT
 62
     1
 10
34.3092665479436576
 20
0.1488416815070934
 30
0.0
 11
-34.309266547943551
 21
0.1488416815070934
 31
0.0
210
0.0
220
1.0
230
-0.0000000000000002
  0
LINE
  5
4EAE
  8
0
  6
VERDECKT
 62
     1
 10
39.9347703342132974
 20
236.0000000000001137
 30
-0.0000000000000524
 11
-39.9347703342132974
 21
236.0000000000001137
 31
-0.0000000000000524
210
0.0
220
1.0
230
-0.0000000000000002
  0
ARC
  5
4EAF
  8
0
  6
VERDECKT
 62
     1
 10
-34.2999999999999687
 20
8.1369670462568227
 30
0.0
 40
1.0000000000000919
210
0.0
220
-0.0000000000000002
230
-1.0
 50
179.9999999999988063
 51
187.1250163488994076
  0
ARC
  5
4EB0
  8
0
  6
VERDECKT
 62
     1
 10
34.3000000000016598
 20
8.1369670462567711
 30
0.0
 40
0.9999999999982875
210
0.0
220
-0.0000000000000002
230
-1.0
 50
352.8749836510908153
 51
0.000000000004566
  0
LINE
  5
4EB1
  8
0
  6
VERDECKT
 62
     1
 10
-34.309266547943551
 20
0.1488416815071001
 30
0.0
 11
-35.2922778767136194
 21
8.0129323116676456
 31
-0.0000000000000018
210
0.0
220
1.0
230
-0.0000000000000002
  0
LINE
  5
4EB2
  8
0
  6
VERDECKT
 62
     1
 10
34.3092665479436576
 20
0.1488416815070934
 30
0.0
 11
35.2922778767137402
 21
8.0129323116676403
 31
-0.0000000000000018
210
0.0
220
1.0
230
-0.0000000000000002
  0
LINE
  5
4EB3
  8
0
  6
VERDECKT
 62
     1
 10
34.3092665479436576
 20
0.1488416815070806
 30
0.0
 11
35.5000000000000568
 21
0.0000000000000298
 31
0.0
210
0.0
220
1.0
230
-0.0000000000000002
  0
LINE
  5
4EB4
  8
0
  6
VERDECKT
 62
     1
 10
-34.309266547943551
 20
0.1488416815070928
 30
0.0
 11
-35.4999999999999432
 21
0.0000000000000425
 31
0.0
210
0.0
220
1.0
230
-0.0000000000000002
  0
LINE
  5
4EB5
  8
0
  6
VERDECKT
 62
     1
 10
-35.3000000000000398
 20
8.1369670462568422
 30
-0.0000000000000018
 11
-35.3000000000000114
 21
229.0
 31
-0.0000000000000508
210
0.0
220
1.0
230
-0.0000000000000002
  0
LINE
  5
4EB6
  8
0
  6
VERDECKT
 62
     1
 10
35.2999999999999687
 20
8.1369670462568422
 30
-0.0000000000000018
 11
35.3000000000000114
 21
229.0
 31
-0.0000000000000508
210
0.0
220
1.0
230
-0.0000000000000002
  0
LINE
  5
4EB7
  8
0
  6
VERDECKT
 62
     1
 10
39.9347703342132974
 20
236.0000000000001137
 30
-0.0000000000000524
 11
40.3976700511860827
 21
235.5
 31
-0.0000000000000523
210
0.0
220
1.0
230
-0.0000000000000002
  0
LINE
  5
4EB8
  8
0
  6
VERDECKT
 62
     1
 10
-39.9347703342132903
 20
236.0000000000001137
 30
-0.0000000000000524
 11
-40.3976700511860685
 21
235.5
 31
-0.0000000000000523
210
0.0
220
1.0
230
-0.0000000000000002
  0
LINE
  5
4EB9
  8
0
  6
VERDECKT
 62
     1
 10
-37.2879800601020079
 20
233.5496030624553043
 30
-0.0000000000000519
 11
-39.9347703342132831
 21
236.0000000000001137
 31
-0.0000000000000524
210
0.0
220
1.0
230
-0.0000000000000002
  0
LINE
  5
4EBA
  8
0
  6
VERDECKT
 62
     1
 10
37.2879800601020079
 20
233.5496030624553043
 30
-0.0000000000000519
 11
39.9347703342132831
 21
236.0000000000001137
 31
-0.0000000000000524
210
0.0
220
1.0
230
-0.0000000000000002
  0
ARC
  5
4EBB
  8
0
  6
VERDECKT
 62
     1
 10
-41.4999999999999503
 20
229.0000000000001137
 30
0.0
 40
6.1999999999999451
210
0.0
220
-0.0000000000000002
230
-1.0
 50
359.9999999999997158
 51
47.206500472736252
  0
ARC
  5
4EBC
  8
0
  6
VERDECKT
 62
     1
 10
41.4999999999999076
 20
229.0000000000001137
 30
0.0
 40
6.1999999999999273
210
0.0
220
-0.0000000000000002
230
-1.0
 50
132.7934995272634922
 51
180.000000000000199
  0
LINE
  5
4EBD
  8
0
  6
VERDECKT
 62
     1
 10
50.0000000000000213
 20
258.9611847569063912
 30
-0.0000000000000575
 11
-49.9999999999999574
 21
258.9611847569063912
 31
-0.0000000000000575
210
0.0
220
1.0
230
-0.0000000000000002
  0
ARC
  5
4EBE
  8
0
  6
VERDECKT
 62
     1
 10
-55.9999999999999574
 20
264.0000000000001137
 30
0.0
 40
2.9999999999999192
210
0.0
220
-0.0000000000000002
230
-1.0
 50
27.4635841578806215
 51
90.0000000000012363
  0
ARC
  5
4EBF
  8
0
  6
VERDECKT
 62
     1
 10
55.9999999999999005
 20
264.0000000000001137
 30
0.0
 40
2.9999999999999432
210
0.0
220
-0.0000000000000002
230
-1.0
 50
89.9999999999987637
 51
152.5364158421193963
  0
LINE
  5
4EC0
  8
0
  6
VERDECKT
 62
     1
 10
-49.9999999999999574
 20
258.9611847569063912
 30
-0.0000000000000575
 11
-53.3380876085087721
 21
265.3835542707192872
 31
-0.0000000000000589
210
0.0
220
1.0
230
-0.0000000000000002
  0
LINE
  5
4EC1
  8
0
  6
VERDECKT
 62
     1
 10
50.0000000000000213
 20
258.9611847569063912
 30
-0.0000000000000575
 11
53.3380876085088005
 21
265.3835542707192872
 31
-0.0000000000000589
210
0.0
220
1.0
230
-0.0000000000000002
  0
LINE
  5
4EC2
  8
0
  6
VERDECKT
 62
     1
 10
50.0
 20
258.9611847569063912
 30
-0.0000000000000575
 11
50.8873041304970926
 21
258.5
 31
-0.0000000000000574
210
0.0
220
1.0
230
-0.0000000000000002
  0
LINE
  5
4EC3
  8
0
  6
VERDECKT
 62
     1
 10
-49.9999999999999432
 20
258.9611847569063912
 30
-0.0000000000000575
 11
-50.8873041304970073
 21
258.5
 31
-0.0000000000000574
210
0.0
220
1.0
230
-0.0000000000000002
  0
LINE
  5
4EC4
  8
0
  6
VERDECKT
 62
     1
 10
284.0
 20
267.0
 30
-0.0000000000000593
 11
284.0
 21
266.0
 31
-0.0000000000000591
210
0.0
220
1.0
230
-0.0000000000000002
  0
LINE
  5
4EC5
  8
0
  6
VERDECKT
 62
     1
 10
276.0
 20
267.0
 30
-0.0000000000000593
 11
276.0
 21
266.0
 31
-0.0000000000000591
210
0.0
220
1.0
230
-0.0000000000000002
  0
ENDBLK
  5
4EC7
  8
0
  0
BLOCK
  8
0
  2
A$C33FA2972
 70
     0
 10
0.0
 20
0.0
 30
0.0
  3
A$C33FA2972
  1

  0
LINE
  5
4ECB
  8
0
  6
CONTINUOUS
 62
     3
 10
50.1999999999999602
 20
269.0000000000001137
 30
-0.0000000000000597
 11
-50.2000000000001023
 21
269.0000000000001137
 31
-0.0000000000000597
210
-0.0000000000000002
220
1.0
230
-0.0000000000000002
  0
LINE
  5
4ECC
  8
0
  6
CONTINUOUS
 62
     3
 10
40.4663561740292934
 20
235.5000000000001137
 30
-0.0000000000000523
 11
-40.4663561740294
 21
235.5000000000001137
 31
-0.0000000000000523
210
-0.0000000000000002
220
1.0
230
-0.0000000000000002
  0
ARC
  5
4ECD
  8
0
  6
CONTINUOUS
 62
     3
 10
-40.1999999999991289
 20
261.0000000000005116
 30
0.0
 40
10.0000000000009095
210
0.0
220
-0.0000000000000002
230
-1.0
 50
194.4775121859304932
 51
209.1143386591427884
  0
ARC
  5
4ECE
  8
0
  6
CONTINUOUS
 62
     3
 10
40.1999999999992212
 20
261.0000000000005116
 30
0.0
 40
10.0000000000009699
210
0.0
220
-0.0000000000000002
230
-1.0
 50
330.8856613408569274
 51
345.5224878140691089
  0
LINE
  5
4ECF
  8
0
  6
CONTINUOUS
 62
     3
 10
-50.2000000000001023
 20
267.0000000000001137
 30
-0.0000000000000593
 11
-50.2000000000001023
 21
269.0000000000001137
 31
-0.0000000000000597
210
-0.0000000000000002
220
1.0
230
-0.0000000000000002
  0
LINE
  5
4ED0
  8
0
  6
CONTINUOUS
 62
     3
 10
50.1999999999999886
 20
267.0000000000001137
 30
-0.0000000000000593
 11
50.1999999999999886
 21
269.0000000000001137
 31
-0.0000000000000597
210
-0.0000000000000002
220
1.0
230
-0.0000000000000002
  0
ARC
  5
4ED1
  8
0
  6
CONTINUOUS
 62
     3
 10
-16.3074518232962689
 20
253.2861558683189003
 30
0.0
 40
29.9999999999999289
210
0.0
220
-0.0000000000000002
230
-1.0
 50
191.2917700051418137
 51
216.361070218876705
  0
ARC
  5
4ED2
  8
0
  6
CONTINUOUS
 62
     3
 10
16.3074518232964785
 20
253.2861558683187866
 30
0.0
 40
29.9999999999998188
210
0.0
220
-0.0000000000000002
230
-1.0
 50
323.6389297811231245
 51
348.7082299948580726
  0
ARC
  5
4ED3
  8
0
  6
CONTINUOUS
 62
     3
 10
-75.146019477326675
 20
241.5378386942693112
 30
0.0
 40
29.9999999999997904
210
0.0
220
-0.0000000000000002
230
-1.0
 50
11.2917700051423999
 51
29.1143386591440105
  0
ARC
  5
4ED4
  8
0
  6
CONTINUOUS
 62
     3
 10
75.1460194773264476
 20
241.5378386942693965
 30
0.0
 40
29.9999999999994316
210
0.0
220
-0.0000000000000002
230
-1.0
 50
150.8856613408557905
 51
168.7082299948575042
  0
LINE
  5
4ED5
  8
0
  6
CONTINUOUS
 62
     3
 10
-42.2983424251904907
 20
-57.0000000000001492
 30
0.0000000000000127
 11
0.0016575748095191
 21
-57.0000000000001421
 31
0.0000000000000127
210
-0.0000000000000002
220
1.0
230
-0.0000000000000002
  0
LINE
  5
4ED6
  8
0
  6
CONTINUOUS
 62
     3
 10
0.0016575748095288
 20
-57.0000000000001421
 30
0.0000000000000127
 11
42.301657574809532
 21
-57.0000000000001279
 31
0.0000000000000127
210
-0.0000000000000002
220
1.0
230
-0.0000000000000002
  0
LINE
  5
4ED7
  8
0
  6
CONTINUOUS
 62
     3
 10
-40.4983424251904793
 20
-62.4949548389093223
 30
0.0000000000000139
 11
0.0016575748095203
 21
-62.4949548389093081
 31
0.0000000000000139
210
-0.0000000000000002
220
1.0
230
-0.0000000000000002
  0
LINE
  5
4ED8
  8
0
  6
CONTINUOUS
 62
     3
 10
0.0016575748095303
 20
-62.4949548389093081
 30
0.0000000000000139
 11
40.5016575748095278
 21
-62.494954838909301
 31
0.0000000000000139
210
-0.0000000000000002
220
1.0
230
-0.0000000000000002
  0
LINE
  5
4ED9
  8
0
  6
CONTINUOUS
 62
     3
 10
-40.4983424251904793
 20
-63.600000000000108
 30
0.0000000000000141
 11
0.0016575748095206
 21
-63.6000000000001009
 31
0.0000000000000141
210
-0.0000000000000002
220
1.0
230
-0.0000000000000002
  0
LINE
  5
4EDA
  8
0
  6
CONTINUOUS
 62
     3
 10
0.0016575748095306
 20
-63.6000000000001009
 30
0.0000000000000141
 11
40.5016575748095278
 21
-63.6000000000001009
 31
0.0000000000000141
210
-0.0000000000000002
220
1.0
230
-0.0000000000000002
  0
LINE
  5
4EDB
  8
0
  6
CONTINUOUS
 62
     3
 10
-41.8983424251905134
 20
-65.0000000000001563
 30
0.0000000000000144
 11
0.0016575748095209
 21
-65.0000000000001421
 31
0.0000000000000144
210
-0.0000000000000002
220
1.0
230
-0.0000000000000002
  0
LINE
  5
4EDC
  8
0
  6
CONTINUOUS
 62
     3
 10
0.0016575748095289
 20
-65.0000000000001421
 30
0.0000000000000144
 11
41.9016575748095619
 21
-65.0000000000001279
 31
0.0000000000000144
210
-0.0000000000000002
220
1.0
230
-0.0000000000000002
  0
LINE
  5
4EDD
  8
0
  6
CONTINUOUS
 62
     3
 10
-41.8983424251905134
 20
-66.0000000000001563
 30
0.0000000000000147
 11
0.0016575748095211
 21
-66.0000000000001421
 31
0.0000000000000147
210
-0.0000000000000002
220
1.0
230
-0.0000000000000002
  0
LINE
  5
4EDE
  8
0
  6
CONTINUOUS
 62
     3
 10
0.0016575748095292
 20
-66.0000000000001421
 30
0.0000000000000147
 11
41.9016575748095619
 21
-66.0000000000001137
 31
0.0000000000000147
210
-0.0000000000000002
220
1.0
230
-0.0000000000000002
  0
LINE
  5
4EDF
  8
0
  6
CONTINUOUS
 62
     3
 10
-40.4983424251905291
 20
-67.4000000000001336
 30
0.000000000000015
 11
0.0016575748095214
 21
-67.4000000000001194
 31
0.000000000000015
210
-0.0000000000000002
220
1.0
230
-0.0000000000000002
  0
LINE
  5
4EE0
  8
0
  6
CONTINUOUS
 62
     3
 10
0.0016575748095269
 20
-67.4000000000001194
 30
0.000000000000015
 11
40.5016575748095917
 21
-67.4000000000001052
 31
0.000000000000015
210
-0.0000000000000002
220
1.0
230
-0.0000000000000002
  0
LINE
  5
4EE1
  8
0
  6
CONTINUOUS
 62
     3
 10
-40.4983424251905291
 20
-68.0000000000001563
 30
0.0000000000000151
 11
0.0016575748095216
 21
-68.0000000000001421
 31
0.0000000000000151
210
-0.0000000000000002
220
1.0
230
-0.0000000000000002
  0
LINE
  5
4EE2
  8
0
  6
CONTINUOUS
 62
     3
 10
0.0016575748095271
 20
-68.0000000000001421
 30
0.0000000000000151
 11
40.5016575748095917
 21
-68.0000000000001279
 31
0.0000000000000151
210
-0.0000000000000002
220
1.0
230
-0.0000000000000002
  0
LINE
  5
4EE3
  8
0
  6
CONTINUOUS
 62
     3
 10
-42.7983424251904907
 20
-72.0000000000001563
 30
0.000000000000016
 11
0.0016575748095224
 21
-72.0000000000001421
 31
0.000000000000016
210
-0.0000000000000002
220
1.0
230
-0.0000000000000002
  0
LINE
  5
4EE4
  8
0
  6
CONTINUOUS
 62
     3
 10
0.0016575748095341
 20
-72.0000000000001421
 30
0.000000000000016
 11
42.8016575748095391
 21
-72.0000000000001279
 31
0.000000000000016
210
-0.0000000000000002
220
1.0
230
-0.0000000000000002
  0
LINE
  5
4EE5
  8
0
  6
CONTINUOUS
 62
     3
 10
-34.4983424251904793
 20
-74.5000000000001563
 30
0.0000000000000165
 11
0.001657574809523
 21
-74.5000000000001421
 31
0.0000000000000165
210
-0.0000000000000002
220
1.0
230
-0.0000000000000002
  0
LINE
  5
4EE6
  8
0
  6
CONTINUOUS
 62
     3
 10
0.0016575748095302
 20
-74.5000000000001421
 30
0.0000000000000165
 11
34.501657574809542
 21
-74.5000000000001279
 31
0.0000000000000165
210
-0.0000000000000002
220
1.0
230
-0.0000000000000002
  0
ARC
  5
4EE7
  8
0
  6
CONTINUOUS
 62
     3
 10
38.8954039406185217
 20
-53.0000000000001421
 30
0.0
 40
1.0000000000000271
210
0.0
220
-0.0000000000000002
230
-1.0
 50
29.4119136655303812
 51
89.9999999999992042
  0
ARC
  5
4EE8
  8
0
  6
CONTINUOUS
 62
     3
 10
-38.8987190902375701
 20
-53.0000000000001421
 30
0.0
 40
1.000000000000028
210
0.0
220
-0.0000000000000002
230
-1.0
 50
90.0000000000007958
 51
150.5880863344696081
  0
LINE
  5
4EE9
  8
0
  6
CONTINUOUS
 62
     3
 10
38.8987190902375914
 20
-52.0000000000000995
 30
0.0000000000000115
 11
-38.8954039406185288
 21
-52.0000000000001208
 31
0.0000000000000115
210
-0.0000000000000002
220
1.0
230
-0.0000000000000002
  0
LINE
  5
4EEA
  8
0
  6
CONTINUOUS
 62
     3
 10
39.7698308075868425
 20
-52.5089151031677801
 30
0.0000000000000117
 11
42.3016575748095534
 21
-57.0000000000001279
 31
0.0000000000000127
210
-0.0000000000000002
220
1.0
230
-0.0000000000000002
  0
LINE
  5
4EEB
  8
0
  6
CONTINUOUS
 62
     3
 10
-39.766515657967787
 20
-52.5089151031678014
 30
0.0000000000000117
 11
-42.2983424251904907
 21
-57.0000000000001492
 31
0.0000000000000127
210
-0.0000000000000002
220
1.0
230
-0.0000000000000002
  0
ARC
  5
4EEC
  8
0
  6
CONTINUOUS
 62
     3
 10
39.2124164285615819
 20
-57.5000000000000782
 30
0.0
 40
0.499999999999993
210
0.0
220
-0.0000000000000002
230
-1.0
 50
90.0000000000016058
 51
200.0
  0
ARC
  5
4EED
  8
0
  6
CONTINUOUS
 62
     3
 10
-39.2157315781806304
 20
-57.5000000000000711
 30
0.0
 40
0.4999999999999988
210
0.0
220
-0.0000000000000002
230
-1.0
 50
339.9999999999998863
 51
89.9999999999983373
  0
LINE
  5
4EEE
  8
0
  6
CONTINUOUS
 62
     3
 10
38.7458852677876706
 20
-57.6710100716628986
 30
0.0000000000000128
 11
40.501657574809542
 21
-62.494954838909301
 31
0.0000000000000139
210
-0.0000000000000002
220
1.0
230
-0.0000000000000002
  0
LINE
  5
4EEF
  8
0
  6
CONTINUOUS
 62
     3
 10
-38.742570118168608
 20
-57.6710100716629128
 30
0.0000000000000128
 11
-40.4983424251904793
 21
-62.4949548389093223
 31
0.0000000000000139
210
-0.0000000000000002
220
1.0
230
-0.0000000000000002
  0
LINE
  5
4EF0
  8
0
  6
CONTINUOUS
 62
     3
 10
40.5016575748095278
 20
-62.494954838909301
 30
0.0000000000000139
 11
40.5016575748095278
 21
-63.6000000000001009
 31
0.0000000000000141
210
-0.0000000000000002
220
1.0
230
-0.0000000000000002
  0
LINE
  5
4EF1
  8
0
  6
CONTINUOUS
 62
     3
 10
-40.4983424251904793
 20
-62.4949548389093223
 30
0.0000000000000139
 11
-40.4983424251904793
 21
-63.600000000000108
 31
0.0000000000000141
210
-0.0000000000000002
220
1.0
230
-0.0000000000000002
  0
LINE
  5
4EF2
  8
0
  6
CONTINUOUS
 62
     3
 10
40.5016575748095278
 20
-63.6000000000001009
 30
0.0000000000000141
 11
41.901657574809569
 21
-65.0000000000001279
 31
0.0000000000000144
210
-0.0000000000000002
220
1.0
230
-0.0000000000000002
  0
LINE
  5
4EF3
  8
0
  6
CONTINUOUS
 62
     3
 10
-40.4983424251904793
 20
-63.600000000000108
 30
0.0000000000000141
 11
-41.8983424251905134
 21
-65.0000000000001563
 31
0.0000000000000144
210
-0.0000000000000002
220
1.0
230
-0.0000000000000002
  0
LINE
  5
4EF4
  8
0
  6
CONTINUOUS
 62
     3
 10
41.901657574809569
 20
-65.0000000000001279
 30
0.0000000000000144
 11
41.901657574809569
 21
-66.0000000000001137
 31
0.0000000000000147
210
-0.0000000000000002
220
1.0
230
-0.0000000000000002
  0
LINE
  5
4EF5
  8
0
  6
CONTINUOUS
 62
     3
 10
-41.8983424251905134
 20
-65.0000000000001563
 30
0.0000000000000144
 11
-41.8983424251905134
 21
-66.0000000000001563
 31
0.0000000000000147
210
-0.0000000000000002
220
1.0
230
-0.0000000000000002
  0
LINE
  5
4EF6
  8
0
  6
CONTINUOUS
 62
     3
 10
-40.4983424251905291
 20
-67.4000000000001336
 30
0.000000000000015
 11
-41.8983424251905134
 21
-66.0000000000001563
 31
0.0000000000000147
210
-0.0000000000000002
220
1.0
230
-0.0000000000000002
  0
LINE
  5
4EF7
  8
0
  6
CONTINUOUS
 62
     3
 10
40.5016575748095917
 20
-67.4000000000001052
 30
0.000000000000015
 11
41.901657574809569
 21
-66.0000000000001137
 31
0.0000000000000147
210
-0.0000000000000002
220
1.0
230
-0.0000000000000002
  0
LINE
  5
4EF8
  8
0
  6
CONTINUOUS
 62
     3
 10
40.5016575748095917
 20
-67.4000000000001052
 30
0.000000000000015
 11
40.5016575748095917
 21
-68.0000000000001279
 31
0.0000000000000151
210
-0.0000000000000002
220
1.0
230
-0.0000000000000002
  0
LINE
  5
4EF9
  8
0
  6
CONTINUOUS
 62
     3
 10
-40.4983424251905291
 20
-67.4000000000001336
 30
0.000000000000015
 11
-40.4983424251905291
 21
-68.0000000000001563
 31
0.0000000000000151
210
-0.0000000000000002
220
1.0
230
-0.0000000000000002
  0
LINE
  5
4EFA
  8
0
  6
CONTINUOUS
 62
     3
 10
40.5016575748095917
 20
-68.0000000000001279
 30
0.0000000000000151
 11
42.8016575748095391
 21
-72.0000000000001279
 31
0.000000000000016
210
-0.0000000000000002
220
1.0
230
-0.0000000000000002
  0
LINE
  5
4EFB
  8
0
  6
CONTINUOUS
 62
     3
 10
-40.4983424251905291
 20
-68.0000000000001563
 30
0.0000000000000151
 11
-42.7983424251904907
 21
-72.0000000000001563
 31
0.000000000000016
210
-0.0000000000000002
220
1.0
230
-0.0000000000000002
  0
ARC
  5
4EFC
  8
0
  6
CONTINUOUS
 62
     3
 10
34.4983424251905078
 20
-70.500000000000199
 30
0.0
 40
3.9999999999999578
210
0.0
220
-0.0000000000000002
230
-1.0
 50
270.0
 51
337.975687162958593
  0
ARC
  5
4EFD
  8
0
  6
CONTINUOUS
 62
     3
 10
-34.5016575748095633
 20
-70.5000000000001705
 30
0.0
 40
3.9999999999999551
210
0.0
220
-0.0000000000000002
230
-1.0
 50
202.0243128370416912
 51
270.0000000000003979
  0
LINE
  5
4EFE
  8
0
  6
CONTINUOUS
 62
     3
 10
35.5000000000000426
 20
0.0000000000000363
 30
0.0
 11
-35.4999999999999787
 21
0.0000000000000205
 31
0.0
210
-0.0000000000000002
220
1.0
230
-0.0000000000000002
  0
LINE
  5
4EFF
  8
0
  6
CONTINUOUS
 62
     3
 10
40.7499999999999503
 20
235.1194316653314047
 30
-0.0000000000000522
 11
-40.7500000000000497
 21
235.1194316653314047
 31
-0.0000000000000522
210
-0.0000000000000002
220
1.0
230
-0.0000000000000002
  0
ARC
  5
4F00
  8
0
  6
CONTINUOUS
 62
     3
 10
-35.4999999999999289
 20
8.0622577482985101
 30
0.0
 40
1.0000000000001059
210
0.0
220
-0.0000000000000002
230
-1.0
 50
179.9999999999988063
 51
187.1250163488992939
  0
ARC
  5
4F01
  8
0
  6
CONTINUOUS
 62
     3
 10
35.4999999999998721
 20
8.0622577482984958
 30
0.0
 40
1.0000000000001059
210
0.0
220
-0.0000000000000002
230
-1.0
 50
352.8749836511005924
 51
0.0000000000012086
  0
LINE
  5
4F02
  8
0
  6
CONTINUOUS
 62
     3
 10
-35.4999999999999929
 20
0.0000000000000197
 30
0.0
 11
-36.4922778767136435
 21
7.9382230137093144
 31
-0.0000000000000018
210
-0.0000000000000002
220
1.0
230
-0.0000000000000002
  0
LINE
  5
4F03
  8
0
  6
CONTINUOUS
 62
     3
 10
35.5000000000000426
 20
0.0000000000000354
 30
0.0
 11
36.4922778767137004
 21
7.9382230137093304
 31
-0.0000000000000018
210
-0.0000000000000002
220
1.0
230
-0.0000000000000002
  0
LINE
  5
4F04
  8
0
  6
CONTINUOUS
 62
     3
 10
-36.5000000000000071
 20
8.0622577482985154
 30
-0.0000000000000018
 11
-36.5000000000000568
 21
229.0000000000001137
 31
-0.0000000000000508
210
-0.0000000000000002
220
1.0
230
-0.0000000000000002
  0
LINE
  5
4F05
  8
0
  6
CONTINUOUS
 62
     3
 10
36.5000000000000071
 20
8.0622577482985331
 30
-0.0000000000000018
 11
36.4999999999999574
 21
229.0000000000001137
 31
-0.0000000000000508
210
-0.0000000000000002
220
1.0
230
-0.0000000000000002
  0
ARC
  5
4F06
  8
0
  6
CONTINUOUS
 62
     3
 10
-41.4999999999999005
 20
229.0000000000001137
 30
0.0
 40
4.9999999999999512
210
0.0
220
-0.0000000000000002
230
-1.0
 50
359.9999999999996021
 51
47.2065004727365078
  0
ARC
  5
4F07
  8
0
  6
CONTINUOUS
 62
     3
 10
41.5
 20
229.0000000000001137
 30
0.0
 40
4.9999999999999494
210
0.0
220
-0.0000000000000002
230
-1.0
 50
132.7934995272634922
 51
180.0000000000003126
  0
LINE
  5
4F08
  8
0
  6
CONTINUOUS
 62
     3
 10
-38.1032097258887887
 20
232.6690347277865953
 30
-0.0000000000000517
 11
-40.7500000000000497
 21
235.1194316653314047
 31
-0.0000000000000522
210
-0.0000000000000002
220
1.0
230
-0.0000000000000002
  0
LINE
  5
4F09
  8
0
  6
CONTINUOUS
 62
     3
 10
38.1032097258887035
 20
232.6690347277865953
 30
-0.0000000000000517
 11
40.7499999999999432
 21
235.1194316653314047
 31
-0.0000000000000522
210
-0.0000000000000002
220
1.0
230
-0.0000000000000002
  0
LINE
  5
4F0A
  8
0
  6
CONTINUOUS
 62
     3
 10
40.3976700511860329
 20
235.5000000000001137
 30
-0.0000000000000523
 11
40.7499999999999432
 21
235.1194316653314047
 31
-0.0000000000000522
210
-0.0000000000000002
220
1.0
230
-0.0000000000000002
  0
LINE
  5
4F0B
  8
0
  6
CONTINUOUS
 62
     3
 10
-40.3976700511861324
 20
235.5000000000001137
 30
-0.0000000000000523
 11
-40.7500000000000497
 21
235.1194316653314047
 31
-0.0000000000000522
210
-0.0000000000000002
220
1.0
230
-0.0000000000000002
  0
LINE
  5
4F0C
  8
0
  6
CONTINUOUS
 62
     3
 10
50.8873041304970215
 20
258.5
 30
-0.0000000000000574
 11
-50.8873041304971423
 21
258.5
 31
-0.0000000000000574
210
-0.0000000000000002
220
1.0
230
-0.0000000000000002
  0
LINE
  5
4F0D
  8
0
  6
CONTINUOUS
 62
     3
 10
-122.5000000000000995
 20
266.0000000000001137
 30
-0.0000000000000591
 11
-122.5000000000000995
 21
267.0000000000001137
 31
-0.0000000000000593
210
-0.0000000000000002
220
1.0
230
-0.0000000000000002
  0
LINE
  5
4F0E
  8
0
  6
CONTINUOUS
 62
     3
 10
122.4999999999999005
 20
266.0000000000001137
 30
-0.0000000000000591
 11
122.4999999999999005
 21
267.0000000000001137
 31
-0.0000000000000593
210
-0.0000000000000002
220
1.0
230
-0.0000000000000002
  0
LINE
  5
4F0F
  8
0
  6
CONTINUOUS
 62
     3
 10
122.4999999999999005
 20
266.0000000000001137
 30
-0.0000000000000591
 11
-122.5000000000000995
 21
266.0000000000001137
 31
-0.0000000000000591
210
-0.0000000000000002
220
1.0
230
-0.0000000000000002
  0
LINE
  5
4F10
  8
0
  6
CONTINUOUS
 62
     3
 10
122.4999999999999005
 20
267.0000000000001137
 30
-0.0000000000000593
 11
-122.5000000000000995
 21
267.0000000000001137
 31
-0.0000000000000593
210
-0.0000000000000002
220
1.0
230
-0.0000000000000002
  0
LINE
  5
4F11
  8
0
  6
CONTINUOUS
 62
     3
 10
-50.8873041304970926
 20
258.5
 30
-0.0000000000000574
 11
-54.2253917390059073
 21
264.922369513812896
 31
-0.0000000000000588
210
-0.0000000000000002
220
1.0
230
-0.0000000000000002
  0
LINE
  5
4F12
  8
0
  6
CONTINUOUS
 62
     3
 10
50.8873041304969931
 20
258.5
 30
-0.0000000000000574
 11
54.2253917390057865
 21
264.922369513812896
 31
-0.0000000000000588
210
-0.0000000000000002
220
1.0
230
-0.0000000000000002
  0
ARC
  5
4F13
  8
0
  6
CONTINUOUS
 62
     3
 10
-55.9999999999999432
 20
264.0
 30
0.0
 40
1.9999999999999789
210
0.0
220
-0.0000000000000002
230
-1.0
 50
27.4635841578825683
 51
90.0000000000006253
  0
ARC
  5
4F14
  8
0
  6
CONTINUOUS
 62
     3
 10
56.0000000000000426
 20
264.0
 30
0.0
 40
2.0
210
0.0
220
-0.0000000000000002
230
-1.0
 50
89.9999999999993747
 51
152.5364158421174068
  0
LINE
  5
4F15
  8
0
  6
VERDECKT
 62
     1
 10
39.4999999999999716
 20
236.2114462347329038
 30
-0.0000000000000524
 11
-39.5000000000000568
 21
236.2114462347329038
 31
-0.0000000000000524
210
-0.0000000000000002
220
1.0
230
-0.0000000000000002
  0
ARC
  5
4F16
  8
0
  6
VERDECKT
 62
     1
 10
-40.199999999999882
 20
261.0000000000001137
 30
0.0
 40
10.0000000000001101
210
0.0
220
-0.0000000000000002
230
-1.0
 50
180.0
 51
194.4775121859296974
  0
ARC
  5
4F17
  8
0
  6
VERDECKT
 62
     1
 10
40.1999999999999886
 20
261.0000000000001137
 30
0.0
 40
10.0000000000000995
210
0.0
220
-0.0000000000000002
230
-1.0
 50
345.5224878140703026
 51
0.0
  0
LINE
  5
4F18
  8
0
  6
VERDECKT
 62
     1
 10
-50.2000000000001023
 20
261.0000000000001137
 30
-0.000000000000058
 11
-50.2000000000001023
 21
267.0000000000001137
 31
-0.0000000000000593
210
-0.0000000000000002
220
1.0
230
-0.0000000000000002
  0
LINE
  5
4F19
  8
0
  6
VERDECKT
 62
     1
 10
50.1999999999999886
 20
261.0000000000001137
 30
-0.000000000000058
 11
50.1999999999999886
 21
267.0000000000001137
 31
-0.0000000000000593
210
-0.0000000000000002
220
1.0
230
-0.0000000000000002
  0
LINE
  5
4F1A
  8
0
  6
VERDECKT
 62
     1
 10
-49.0000000000000924
 20
261.0000000000001137
 30
-0.000000000000058
 11
-49.0000000000000924
 21
269.0000000000001137
 31
-0.0000000000000597
210
-0.0000000000000002
220
1.0
230
-0.0000000000000002
  0
LINE
  5
4F1B
  8
0
  6
VERDECKT
 62
     1
 10
48.9999999999999787
 20
261.0000000000001137
 30
-0.000000000000058
 11
48.9999999999999787
 21
269.0000000000001137
 31
-0.0000000000000597
210
-0.0000000000000002
220
1.0
230
-0.0000000000000002
  0
ARC
  5
4F1C
  8
0
  6
VERDECKT
 62
     1
 10
-40.1999999999999886
 20
261.0000000000001137
 30
0.0
 40
8.7999999999999847
210
0.0
220
-0.0000000000000002
230
-1.0
 50
180.0
 51
209.1143386591442095
  0
ARC
  5
4F1D
  8
0
  6
VERDECKT
 62
     1
 10
40.2000000000001094
 20
261.0000000000001137
 30
0.0
 40
8.7999999999999847
210
0.0
220
-0.0000000000000002
230
-1.0
 50
330.8856613408557905
 51
0.0
  0
ARC
  5
4F1E
  8
0
  6
VERDECKT
 62
     1
 10
-75.1460194773270729
 20
241.5378386942691122
 30
0.0
 40
31.2000000000002089
210
0.0
220
-0.0000000000000002
230
-1.0
 50
11.2917700051426202
 51
29.11433865914384
  0
ARC
  5
4F1F
  8
0
  6
VERDECKT
 62
     1
 10
75.1460194773268455
 20
241.5378386942691975
 30
0.0
 40
31.1999999999998785
210
0.0
220
-0.0000000000000002
230
-1.0
 50
150.8856613408559895
 51
168.7082299948573905
  0
ARC
  5
4F20
  8
0
  6
VERDECKT
 62
     1
 10
-16.3074518232958283
 20
253.286155868319014
 30
0.0
 40
28.8000000000003915
210
0.0
220
-0.0000000000000002
230
-1.0
 50
191.291770005141899
 51
216.361070218876506
  0
ARC
  5
4F21
  8
0
  6
VERDECKT
 62
     1
 10
16.3074518232958283
 20
253.2861558683190992
 30
0.0
 40
28.8000000000005016
210
0.0
220
-0.0000000000000002
230
-1.0
 50
323.6389297811235224
 51
348.7082299948580157
  0
LINE
  5
4F22
  8
0
  6
VERDECKT
 62
     1
 10
39.4999999999999716
 20
236.2114462347329038
 30
-0.0000000000000524
 11
40.4663561740292934
 21
235.5000000000001137
 31
-0.0000000000000523
210
-0.0000000000000002
220
1.0
230
-0.0000000000000002
  0
LINE
  5
4F23
  8
0
  6
VERDECKT
 62
     1
 10
-39.5000000000000568
 20
236.2114462347329038
 30
-0.0000000000000524
 11
-40.4663561740293929
 21
235.5000000000001137
 31
-0.0000000000000523
210
-0.0000000000000002
220
1.0
230
-0.0000000000000002
  0
LINE
  5
4F24
  8
0
  6
VERDECKT
 62
     1
 10
-36.9983424251904935
 20
-58.0000000000001421
 30
0.0000000000000129
 11
0.0016575748095193
 21
-58.0000000000001421
 31
0.0000000000000129
210
-0.0000000000000002
220
1.0
230
-0.0000000000000002
  0
LINE
  5
4F25
  8
0
  6
VERDECKT
 62
     1
 10
0.0016575748095275
 20
-58.0000000000001421
 30
0.0000000000000129
 11
37.001657574809542
 21
-58.0000000000001421
 31
0.0000000000000129
210
-0.0000000000000002
220
1.0
230
-0.0000000000000002
  0
LINE
  5
4F26
  8
0
  6
VERDECKT
 62
     1
 10
-31.9983424251904793
 20
-73.0000000000001421
 30
0.0000000000000162
 11
0.0016575748095227
 21
-73.0000000000001421
 31
0.0000000000000162
210
-0.0000000000000002
220
1.0
230
-0.0000000000000002
  0
LINE
  5
4F27
  8
0
  6
VERDECKT
 62
     1
 10
0.001657574809535
 20
-73.0000000000001421
 30
0.0000000000000162
 11
32.0016575748095278
 21
-73.0000000000001279
 31
0.0000000000000162
210
-0.0000000000000002
220
1.0
230
-0.0000000000000002
  0
LINE
  5
4F28
  8
0
  6
VERDECKT
 62
     1
 10
37.001657574809542
 20
-58.0000000000001421
 30
0.0000000000000129
 11
37.001657574809542
 21
-68.0000000000001279
 31
0.0000000000000151
210
-0.0000000000000002
220
1.0
230
-0.0000000000000002
  0
LINE
  5
4F29
  8
0
  6
VERDECKT
 62
     1
 10
-36.9983424251904793
 20
-58.0000000000001421
 30
0.0000000000000129
 11
-36.9983424251904793
 21
-68.0000000000001563
 31
0.0000000000000151
210
-0.0000000000000002
220
1.0
230
-0.0000000000000002
  0
LINE
  5
4F2A
  8
0
  6
VERDECKT
 62
     1
 10
-36.9983424251904793
 20
-58.0000000000001421
 30
0.0000000000000129
 11
-37.9105961876063304
 21
-52.8263518223331801
 31
0.0000000000000117
210
-0.0000000000000002
220
1.0
230
-0.0000000000000002
  0
LINE
  5
4F2B
  8
0
  6
VERDECKT
 62
     1
 10
37.001657574809542
 20
-58.0000000000001421
 30
0.0000000000000129
 11
37.9139113372253789
 21
-52.8263518223331729
 31
0.0000000000000117
210
-0.0000000000000002
220
1.0
230
-0.0000000000000002
  0
ARC
  5
4F2C
  8
0
  6
VERDECKT
 62
     1
 10
38.8954039406185288
 20
-53.0000000000001279
 30
0.0
 40
1.0000000000000071
210
0.0
220
-0.0000000000000002
230
-1.0
 50
90.0000000000003979
 51
169.9999999999990052
  0
ARC
  5
4F2D
  8
0
  6
VERDECKT
 62
     1
 10
-38.8987190902375914
 20
-53.0000000000001066
 30
0.0
 40
1.0000000000000071
210
0.0
220
-0.0000000000000002
230
-1.0
 50
10.0000000000009308
 51
89.9999999999995737
  0
LINE
  5
4F2E
  8
0
  6
VERDECKT
 62
     1
 10
40.177323378978592
 20
-70.4725600474013305
 30
0.0000000000000156
 11
41.001657574809542
 21
-72.0000000000001279
 31
0.000000000000016
210
-0.0000000000000002
220
1.0
230
-0.0000000000000002
  0
LINE
  5
4F2F
  8
0
  6
VERDECKT
 62
     1
 10
-40.1740082293595293
 20
-70.4725600474013589
 30
0.0000000000000156
 11
-40.9983424251904722
 21
-72.0000000000001563
 31
0.000000000000016
210
-0.0000000000000002
220
1.0
230
-0.0000000000000002
  0
ARC
  5
4F30
  8
0
  6
VERDECKT
 62
     1
 10
39.3819886040203784
 20
-70.9000000000001762
 30
0.0
 40
0.900000000000033
210
0.0
220
-0.0000000000000002
230
-1.0
 50
28.3550060284115411
 51
89.9999999999986358
  0
ARC
  5
4F31
  8
0
  6
VERDECKT
 62
     1
 10
39.381988604020421
 20
-70.9000000000001762
 30
0.0
 40
0.9000000000000342
210
0.0
220
-0.0000000000000002
230
-1.0
 50
90.0000000000013358
 51
175.3175831377299119
  0
ARC
  5
4F32
  8
0
  6
VERDECKT
 62
     1
 10
-39.3853037536394766
 20
-70.9000000000001336
 30
0.0
 40
0.9000000000000264
210
0.0
220
-0.0000000000000002
230
-1.0
 50
4.6824168622700659
 51
89.9999999999986358
  0
ARC
  5
4F33
  8
0
  6
VERDECKT
 62
     1
 10
-39.385303753639441
 20
-70.9000000000001336
 30
0.0
 40
0.9000000000000342
210
0.0
220
-0.0000000000000002
230
-1.0
 50
90.0000000000013358
 51
151.6449939715884057
  0
LINE
  5
4F34
  8
0
  6
VERDECKT
 62
     1
 10
39.3853037536394623
 20
-70.0000000000001137
 30
0.0000000000000155
 11
-39.3819886040203997
 21
-70.0000000000001421
 31
0.0000000000000155
210
-0.0000000000000002
220
1.0
230
-0.0000000000000002
  0
ARC
  5
4F35
  8
0
  6
VERDECKT
 62
     1
 10
34.4983424251906285
 20
-70.5000000000002132
 30
0.0
 40
3.9999999999998379
210
0.0
220
-0.0000000000000002
230
-1.0
 50
337.9756871629576835
 51
355.3175831377308214
  0
ARC
  5
4F36
  8
0
  6
VERDECKT
 62
     1
 10
-34.5016575748096912
 20
-70.5000000000001847
 30
0.0
 40
3.9999999999998379
210
0.0
220
-0.0000000000000002
230
-1.0
 50
184.6824168622690934
 51
202.0243128370422028
  0
LINE
  5
4F37
  8
0
  6
VERDECKT
 62
     1
 10
32.001657574809542
 20
-73.0000000000001279
 30
0.0000000000000162
 11
32.001657574809542
 21
-74.5000000000001279
 31
0.0000000000000165
210
-0.0000000000000002
220
1.0
230
-0.0000000000000002
  0
LINE
  5
4F38
  8
0
  6
VERDECKT
 62
     1
 10
-31.9983424251904793
 20
-73.0000000000001421
 30
0.0000000000000162
 11
-31.9983424251904793
 21
-74.5000000000001421
 31
0.0000000000000165
210
-0.0000000000000002
220
1.0
230
-0.0000000000000002
  0
ARC
  5
4F39
  8
0
  6
VERDECKT
 62
     1
 10
31.9983424251904793
 20
-68.0000000000001421
 30
0.0
 40
5.0
210
0.0
220
-0.0000000000000002
230
-1.0
 50
270.0
 51
359.9999999999998863
  0
ARC
  5
4F3A
  8
0
  6
VERDECKT
 62
     1
 10
-32.001657574809542
 20
-68.0000000000001279
 30
0.0
 40
5.0
210
0.0
220
-0.0000000000000002
230
-1.0
 50
180.0
 51
270.0
  0
LINE
  5
4F3B
  8
0
  6
VERDECKT
 62
     1
 10
34.3092665479436292
 20
0.1488416815071011
 30
0.0
 11
-34.3092665479435723
 21
0.1488416815070859
 31
0.0
210
-0.0000000000000002
220
1.0
230
-0.0000000000000002
  0
LINE
  5
4F3C
  8
0
  6
VERDECKT
 62
     1
 10
39.9347703342132618
 20
236.0000000000001137
 30
-0.0000000000000524
 11
-39.9347703342133471
 21
236.0000000000001137
 31
-0.0000000000000524
210
-0.0000000000000002
220
1.0
230
-0.0000000000000002
  0
ARC
  5
4F3D
  8
0
  6
VERDECKT
 62
     1
 10
-34.3000000000017735
 20
8.1369670462567747
 30
0.0
 40
0.9999999999982735
210
0.0
220
-0.0000000000000002
230
-1.0
 50
179.9999999999955094
 51
187.1250163489092131
  0
ARC
  5
4F3E
  8
0
  6
VERDECKT
 62
     1
 10
34.3000000000017096
 20
8.1369670462567605
 30
0.0
 40
0.9999999999982735
210
0.0
220
-0.0000000000000002
230
-1.0
 50
352.8749836510907016
 51
0.0000000000044655
  0
LINE
  5
4F3F
  8
0
  6
VERDECKT
 62
     1
 10
-34.3092665479435794
 20
0.1488416815070863
 30
0.0
 11
-35.292277876713662
 21
8.0129323116676368
 31
-0.0000000000000018
210
-0.0000000000000002
220
1.0
230
-0.0000000000000002
  0
LINE
  5
4F40
  8
0
  6
VERDECKT
 62
     1
 10
34.3092665479436434
 20
0.1488416815071015
 30
0.0
 11
35.2922778767137117
 21
8.0129323116676492
 31
-0.0000000000000018
210
-0.0000000000000002
220
1.0
230
-0.0000000000000002
  0
LINE
  5
4F41
  8
0
  6
VERDECKT
 62
     1
 10
34.3092665479436434
 20
0.1488416815070943
 30
0.0
 11
35.5000000000000426
 21
0.000000000000044
 31
0.0
210
-0.0000000000000002
220
1.0
230
-0.0000000000000002
  0
LINE
  5
4F42
  8
0
  6
VERDECKT
 62
     1
 10
-34.3092665479435794
 20
0.1488416815070791
 30
0.0
 11
-35.4999999999999787
 21
0.0000000000000282
 31
0.0
210
-0.0000000000000002
220
1.0
230
-0.0000000000000002
  0
LINE
  5
4F43
  8
0
  6
VERDECKT
 62
     1
 10
-35.3000000000000114
 20
8.1369670462568386
 30
-0.0000000000000018
 11
-35.3000000000000611
 21
229.0000000000001137
 31
-0.0000000000000508
210
-0.0000000000000002
220
1.0
230
-0.0000000000000002
  0
LINE
  5
4F44
  8
0
  6
VERDECKT
 62
     1
 10
35.3000000000000114
 20
8.1369670462568529
 30
-0.0000000000000018
 11
35.2999999999999616
 21
229.0000000000001137
 31
-0.0000000000000508
210
-0.0000000000000002
220
1.0
230
-0.0000000000000002
  0
LINE
  5
4F45
  8
0
  6
VERDECKT
 62
     1
 10
39.9347703342132618
 20
236.0000000000001137
 30
-0.0000000000000524
 11
40.3976700511860329
 21
235.5000000000001137
 31
-0.0000000000000523
210
-0.0000000000000002
220
1.0
230
-0.0000000000000002
  0
LINE
  5
4F46
  8
0
  6
VERDECKT
 62
     1
 10
-39.9347703342133471
 20
236.0000000000001137
 30
-0.0000000000000524
 11
-40.3976700511861324
 21
235.5000000000001137
 31
-0.0000000000000523
210
-0.0000000000000002
220
1.0
230
-0.0000000000000002
  0
LINE
  5
4F47
  8
0
  6
VERDECKT
 62
     1
 10
-37.2879800601020719
 20
233.5496030624553896
 30
-0.0000000000000519
 11
-39.93477033421334
 21
236.000000000000199
 31
-0.0000000000000524
210
-0.0000000000000002
220
1.0
230
-0.0000000000000002
  0
LINE
  5
4F48
  8
0
  6
VERDECKT
 62
     1
 10
37.2879800601019724
 20
233.5496030624553896
 30
-0.0000000000000519
 11
39.9347703342132405
 21
236.000000000000199
 31
-0.0000000000000524
210
-0.0000000000000002
220
1.0
230
-0.0000000000000002
  0
ARC
  5
4F49
  8
0
  6
VERDECKT
 62
     1
 10
-41.4999999999998721
 20
229.0000000000001137
 30
0.0
 40
6.1999999999999122
210
0.0
220
-0.0000000000000002
230
-1.0
 50
359.9999999999997158
 51
47.2065004727365434
  0
ARC
  5
4F4A
  8
0
  6
VERDECKT
 62
     1
 10
41.5000000000000426
 20
229.0000000000001137
 30
0.0
 40
6.1999999999999931
210
0.0
220
-0.0000000000000002
230
-1.0
 50
132.7934995272638048
 51
180.0
  0
LINE
  5
4F4B
  8
0
  6
VERDECKT
 62
     1
 10
49.9999999999999432
 20
258.9611847569065048
 30
-0.0000000000000575
 11
-50.0000000000000568
 21
258.9611847569065048
 31
-0.0000000000000575
210
-0.0000000000000002
220
1.0
230
-0.0000000000000002
  0
ARC
  5
4F4C
  8
0
  6
VERDECKT
 62
     1
 10
-55.9999999999998934
 20
264.0000000000001137
 30
0.0
 40
2.9999999999999201
210
0.0
220
-0.0000000000000002
230
-1.0
 50
27.4635841578806108
 51
90.0000000000012221
  0
ARC
  5
4F4D
  8
0
  6
VERDECKT
 62
     1
 10
56.0000000000000071
 20
264.0000000000001137
 30
0.0
 40
2.9999999999999432
210
0.0
220
-0.0000000000000002
230
-1.0
 50
89.9999999999987637
 51
152.536415842119311
  0
LINE
  5
4F4E
  8
0
  6
VERDECKT
 62
     1
 10
-50.0000000000000711
 20
258.9611847569065048
 30
-0.0000000000000575
 11
-53.3380876085088715
 21
265.3835542707194008
 31
-0.0000000000000589
210
-0.0000000000000002
220
1.0
230
-0.0000000000000002
  0
LINE
  5
4F4F
  8
0
  6
VERDECKT
 62
     1
 10
49.9999999999999503
 20
258.9611847569065048
 30
-0.0000000000000575
 11
53.3380876085087507
 21
265.3835542707194008
 31
-0.0000000000000589
210
-0.0000000000000002
220
1.0
230
-0.0000000000000002
  0
LINE
  5
4F50
  8
0
  6
VERDECKT
 62
     1
 10
49.9999999999999218
 20
258.9611847569063912
 30
-0.0000000000000575
 11
50.8873041304969931
 21
258.5
 31
-0.0000000000000574
210
-0.0000000000000002
220
1.0
230
-0.0000000000000002
  0
LINE
  5
4F51
  8
0
  6
VERDECKT
 62
     1
 10
-50.0000000000000426
 20
258.9611847569063912
 30
-0.0000000000000575
 11
-50.8873041304970997
 21
258.5
 31
-0.0000000000000574
210
-0.0000000000000002
220
1.0
230
-0.0000000000000002
  0
LINE
  5
4F52
  8
0
  6
VERDECKT
 62
     1
 10
-98.5000000000001279
 20
267.0000000000001137
 30
-0.0000000000000593
 11
-98.5000000000001279
 21
266.0000000000001137
 31
-0.0000000000000591
210
-0.0000000000000002
220
1.0
230
-0.0000000000000002
  0
LINE
  5
4F53
  8
0
  6
VERDECKT
 62
     1
 10
-106.5000000000000995
 20
267.0000000000001137
 30
-0.0000000000000593
 11
-106.5000000000000995
 21
266.0000000000001137
 31
-0.0000000000000591
210
-0.0000000000000002
220
1.0
230
-0.0000000000000002
  0
LINE
  5
4F54
  8
0
  6
VERDECKT
 62
     1
 10
106.5
 20
267.0000000000001137
 30
-0.0000000000000593
 11
106.5
 21
266.0000000000001137
 31
-0.0000000000000591
210
-0.0000000000000002
220
1.0
230
-0.0000000000000002
  0
LINE
  5
4F55
  8
0
  6
VERDECKT
 62
     1
 10
98.5000000000000142
 20
267.0000000000001137
 30
-0.0000000000000593
 11
98.5000000000000142
 21
266.0000000000001137
 31
-0.0000000000000591
210
-0.0000000000000002
220
1.0
230
-0.0000000000000002
  0
ENDBLK
  5
4F57
  8
0
  0
ENDSEC
  0
SECTION
  2
ENTITIES
  0
TEXT
  5
3D7
  8
VOLL
 10
78.076754716981128
 20
31.025947764705851
 30
0.0
 40
1.8
  1

  7
GREEKS
  0
INSERT
  5
AD0
  8
ADSK_ASSOC_ENTITY_BACKUPS
  2
*S0
 10
0.0
 20
0.0
 30
0.0
  0
INSERT
  5
4E41
  8
STEMPEL
  2
A$CDE54E623
 10
0.0
 20
-250.0
 30
0.0
  0
INSERT
  5
4EC8
  8
STEMPEL
  2
A$CC850D7EA
 10
0.0
 20
0.0
 30
0.0
  0
INSERT
  5
4F58
  8
STEMPEL
  2
A$C33FA2972
 10
500.0
 20
0.0
 30
0.0
  0
VIEWPORT
  5
AAD
 67
     1
  8
0
 10
296.75
 20
209.75
 30
0.0
 40
795.6883637233959234
 41
422.1649484536083037
 68
     1
 69
     1
1001
ACAD
1000
MVIEW
1002
{
1070
    16
1010
0.0
1020
0.0
1030
0.0
1010
0.0
1020
0.0
1030
1.0
1040
0.0
1040
422.1649484536083037
1040
296.75
1040
209.75
1040
50.0
1040
0.0
1040
0.0
1070
     0
1070
  1500
1070
     1
1070
     1
1070
     0
1070
     0
1070
     0
1070
     0
1040
0.0
1040
0.0
1040
0.0
1040
10.0
1040
10.0
1040
10.0
1040
10.0
1070
     0
1002
{
1002
}
1002
}
  0
TEXT
  5
CB0
 67
     1
  8
VOLL
 10
625.5592565604117681
 20
227.4217200880700887
 30
0.0
 40
3.6000000000000001
  1

  7
GREEKS
  0
TEXT
  5
13FD
 67
     1
  8
VOLL
 10
1136.2020779486761057
 20
544.3446897115051115
 30
0.0
 40
1.8
  1

  7
GREEKS
  0
TEXT
  5
13FE
 67
     1
  8
VOLL
 10
1257.6048466178569925
 20
751.6650977567676364
 30
0.0
 40
1.8
  1

  7
GREEKS
  0
TEXT
  5
13FF
 67
     1
  8
VOLL
 10
1587.438057582276997
 20
568.0756737226744235
 30
0.0
 40
1.8
  1

  7
GREEKS
  0
TEXT
  5
1400
 67
     1
  8
VOLL
 10
1583.6057810679399154
 20
556.8718499942134486
 30
0.0
 40
1.8
  1

  7
GREEKS
  0
TEXT
  5
147D
 67
     1
  8
VOLL
 10
541.8878355258799502
 20
83.5838184280439549
 30
0.0
 40
3.6000000000000001
  1

  7
GREEKS
  0
ENDSEC
  0
EOF
