  0
SECTION
  2
HEADER
  9
$ACADVER
  1
AC1009
  9
$INSBASE
 10
0.0
 20
0.0
 30
0.0
  9
$EXTMIN
 10
-150.0
 20
-430.9998957656649168
 30
-0.000000000000017
  9
$EXTMAX
 10
650.0
 20
72.9999999999997726
 30
0.000000000000089
  9
$LIMMIN
 10
0.0
 20
0.0
  9
$LIMMAX
 10
1681.9999999999990905
 20
1188.0
  9
$ORTHOMODE
 70
     1
  9
$REGENMODE
 70
     1
  9
$FILLMODE
 70
     1
  9
$QTEXTMODE
 70
     0
  9
$MIRRTEXT
 70
     1
  9
$DRAGMODE
 70
     2
  9
$LTSCALE
 40
20.0
  9
$OSMODE
 70
   511
  9
$ATTMODE
 70
     1
  9
$TEXTSIZE
 40
3.5
  9
$TRACEWID
 40
1.0
  9
$TEXTSTYLE
  7
STANDARD
  9
$CLAYER
  8
STEMPEL
  9
$CELTYPE
  6
BYLAYER
  9
$CECOLOR
 62
   256
  9
$DIMSCALE
 40
1.0
  9
$DIMASZ
 40
3.5
  9
$DIMEXO
 40
1.0
  9
$DIMDLI
 40
0.38
  9
$DIMRND
 40
0.0
  9
$DIMDLE
 40
0.0
  9
$DIMEXE
 40
1.0
  9
$DIMTP
 40
0.0
  9
$DIMTM
 40
0.000000001
  9
$DIMTXT
 40
3.5
  9
$DIMCEN
 40
0.09
  9
$DIMTSZ
 40
0.0
  9
$DIMTOL
 70
     0
  9
$DIMLIM
 70
     0
  9
$DIMTIH
 70
     0
  9
$DIMTOH
 70
     0
  9
$DIMSE1
 70
     0
  9
$DIMSE2
 70
     0
  9
$DIMTAD
 70
     1
  9
$DIMZIN
 70
     8
  9
$DIMBLK
  1

  9
$DIMASO
 70
     1
  9
$DIMSHO
 70
     0
  9
$DIMPOST
  1

  9
$DIMAPOST
  1

  9
$DIMALT
 70
     0
  9
$DIMALTD
 70
     2
  9
$DIMALTF
 40
25.3999999999999986
  9
$DIMLFAC
 40
2.0
  9
$DIMTOFL
 70
     1
  9
$DIMTVP
 40
0.0
  9
$DIMTIX
 70
     0
  9
$DIMSOXD
 70
     0
  9
$DIMSAH
 70
     0
  9
$DIMBLK1
  1

  9
$DIMBLK2
  1

  9
$DIMSTYLE
  2
LORO
  9
$DIMCLRD
 70
     0
  9
$DIMCLRE
 70
     0
  9
$DIMCLRT
 70
     1
  9
$DIMTFAC
 40
0.5
  9
$DIMGAP
 40
1.5
  9
$LUNITS
 70
     2
  9
$LUPREC
 70
     2
  9
$SKETCHINC
 40
1.0
  9
$FILLETRAD
 40
16.0
  9
$AUNITS
 70
     0
  9
$AUPREC
 70
     0
  9
$MENU
  1
ACAD
  9
$ELEVATION
 40
0.0
  9
$PELEVATION
 40
0.0
  9
$THICKNESS
 40
0.0
  9
$LIMCHECK
 70
     0
  9
$BLIPMODE
 70
     0
  9
$CHAMFERA
 40
2.0
  9
$CHAMFERB
 40
2.0
  9
$SKPOLY
 70
     0
  9
$TDCREATE
 40
2455397.867048610933125
  9
$TDUPDATE
 40
2459636.6140740741975605
  9
$TDINDWG
 40
3.9354631481000002
  9
$TDUSRTIMER
 40
3.9354631481000002
  9
$USRTIMER
 70
     1
  9
$ANGBASE
 50
0.0
  9
$ANGDIR
 70
     0
  9
$PDMODE
 70
     0
  9
$PDSIZE
 40
0.0
  9
$PLINEWID
 40
0.0
  9
$COORDS
 70
     1
  9
$SPLFRAME
 70
     0
  9
$SPLINETYPE
 70
     6
  9
$SPLINESEGS
 70
     8
  9
$ATTDIA
 70
     1
  9
$ATTREQ
 70
     1
  9
$HANDLING
 70
     1
  9
$HANDSEED
  5
1B129
  9
$SURFTAB1
 70
     6
  9
$SURFTAB2
 70
     6
  9
$SURFTYPE
 70
     6
  9
$SURFU
 70
     6
  9
$SURFV
 70
     6
  9
$UCSNAME
  2

  9
$UCSORG
 10
0.0
 20
0.0
 30
0.0
  9
$UCSXDIR
 10
1.0
 20
0.0
 30
0.0
  9
$UCSYDIR
 10
0.0
 20
1.0
 30
0.0
  9
$PUCSNAME
  2

  9
$PUCSORG
 10
0.0
 20
0.0
 30
0.0
  9
$PUCSXDIR
 10
1.0
 20
0.0
 30
0.0
  9
$PUCSYDIR
 10
0.0
 20
1.0
 30
0.0
  9
$USERI1
 70
     0
  9
$USERI2
 70
     0
  9
$USERI3
 70
     0
  9
$USERI4
 70
     0
  9
$USERI5
 70
     0
  9
$USERR1
 40
0.0
  9
$USERR2
 40
0.0
  9
$USERR3
 40
0.0
  9
$USERR4
 40
0.0
  9
$USERR5
 40
0.0
  9
$WORLDVIEW
 70
     1
  9
$SHADEDGE
 70
     3
  9
$SHADEDIF
 70
    70
  9
$TILEMODE
 70
     1
  9
$MAXACTVP
 70
    16
  9
$PLIMCHECK
 70
     0
  9
$PEXTMIN
 10
1.0000000000000000E+20
 20
1.0000000000000000E+20
 30
1.0000000000000000E+20
  9
$PEXTMAX
 10
-1.0000000000000000E+20
 20
-1.0000000000000000E+20
 30
-1.0000000000000000E+20
  9
$PLIMMIN
 10
-2.9609758336236021
 20
-2.091798390400728
  9
$PLIMMAX
 10
596.9790241663764618
 20
422.1082016095991776
  9
$UNITMODE
 70
     0
  9
$VISRETAIN
 70
     0
  9
$PLINEGEN
 70
     0
  9
$PSLTSCALE
 70
     0
  0
ENDSEC
  0
SECTION
  2
TABLES
  0
TABLE
  2
VPORT
 70
     1
  0
VPORT
  2
*ACTIVE
 70
     0
 10
0.0
 20
0.0
 11
1.0
 21
1.0
 12
75.6424987776860434
 22
76.9605504457996688
 13
0.0
 23
0.0
 14
1.0
 24
1.0
 15
10.0
 25
10.0
 16
0.0000000000011937
 26
0.0
 36
4010.6122597453218077
 17
174.357501222313914
 27
-255.9604983286322124
 37
0.0000000000000207
 40
506.5779003475861941
 41
1.8720136518771331
 42
50.0
 43
0.0
 44
0.0
 50
0.0
 51
0.0
 71
     0
 72
  1500
 73
     1
 74
     0
 75
     0
 76
     0
 77
     0
 78
     0
  0
ENDTAB
  0
TABLE
  2
LTYPE
 70
     3
  0
LTYPE
  2
CONTINUOUS
 70
     0
  3
Solid line
 72
    65
 73
     0
 40
0.0
  0
LTYPE
  2
STRICHPUNKT
 70
     0
  3
__ . __ . __ . __ . __ . __ . __ . __ . __ . __
 72
    65
 73
     4
 40
1.0
 49
0.5
 49
-0.25
 49
0.0
 49
-0.25
  0
LTYPE
  2
VERDECKT
 70
     0
  3
Verdeckt __ __ __ __ __ __ __ __ __ __ __ __ __
 72
    65
 73
     2
 40
0.375
 49
0.25
 49
-0.125
  0
ENDTAB
  0
TABLE
  2
LAYER
 70
     7
  0
LAYER
  2
0
 70
     0
 62
     7
  6
CONTINUOUS
  0
LAYER
  2
VOLL
 70
     0
 62
     1
  6
CONTINUOUS
  0
LAYER
  2
STEMPEL
 70
     0
 62
     3
  6
CONTINUOUS
  0
LAYER
  2
DEFPOINTS
 70
     0
 62
     7
  6
CONTINUOUS
  0
LAYER
  2
ADSK_ASSOC_ENTITY_BACKUPS
 70
     1
 62
    -7
  6
CONTINUOUS
  0
ENDTAB
  0
TABLE
  2
STYLE
 70
     3
  0
STYLE
  2
STANDARD
 70
     0
 40
0.0
 41
0.8
 50
0.0
 71
     0
 42
3.5
  3
simplex.shx
  4

  0
STYLE
  2
GREEKS
 70
     0
 40
0.0
 41
0.8
 50
0.0
 71
     0
 42
2.5
  3
SIMPLEX.shx
  4

  0
ENDTAB
  0
TABLE
  2
VIEW
 70
     0
  0
ENDTAB
  0
TABLE
  2
UCS
 70
     0
  0
ENDTAB
  0
TABLE
  2
APPID
 70
    30
  0
APPID
  2
ACAD
 70
     0
  0
APPID
  2
ACAD_EXEMPT_FROM_CAD_STANDARDS
 70
     0
  0
APPID
  2
ACAD_NAV_VCDISPLAY
 70
     0
  0
APPID
  2
GRADIENTCOLOR1ACI
 70
     0
  0
APPID
  2
GRADIENTCOLOR2ACI
 70
     0
  0
APPID
  2
ACAUTHENVIRON
 70
     0
  0
APPID
  2
ACDBDYNAMICBLOCKTRUENAME
 70
     0
  0
APPID
  2
ACDBDYNAMICBLOCKGUID
 70
     0
  0
APPID
  2
ACAD_PSEXT
 70
     0
  0
APPID
  2
ACAD_MLEADERVER
 70
     0
  0
APPID
  2
ACAECLAYERSTANDARD
 70
     0
  0
APPID
  2
ACCMTRANSPARENCY
 70
     0
  0
APPID
  2
ACAD_STEPID
 70
     0
  0
APPID
  2
ACSYNERGY
 70
     0
  0
APPID
  2
SYNERGY_BODY_TBR_ID
 70
     0
  0
APPID
  2
ACAD_VIEW_EDGE_ID
 70
     0
  0
APPID
  2
ACAD_DSTYLE_DIMJAG
 70
     0
  0
APPID
  2
ACAD_DSTYLE_DIMBREAK
 70
     0
  0
APPID
  2
ACAD_DSTYLE_DIMTALN
 70
     0
  0
APPID
  2
ACADANNOMONITORALERTICONDI
 70
     0
  0
APPID
  2
ACAD_DIMASSOC_CALC_DIMLFAC
 70
     0
  0
APPID
  2
ACAD_DIMASSOC_DIMLFAC
 70
     0
  0
APPID
  2
ACAD_DIMASSOC_OVERRIDDEN_D
 70
     0
  0
APPID
  2
ACAD_DSTYLE_DIMRADIAL_EXTENSION
 70
     0
  0
APPID
  2
ACADANNOPO
 70
     0
  0
APPID
  2
ACSYNERGYSKETCH
 70
     0
  0
APPID
  2
ACAD_MODELDOC_XFORM
 70
     0
  0
APPID
  2
SYNERGY_EXCLUDED_FROM_SNAPSHOT
 70
     0
  0
APPID
  2
PLOTTRANSPARENCY
 70
     0
  0
APPID
  2
ACAD_TC
 70
     0
  0
ENDTAB
  0
TABLE
  2
DIMSTYLE
 70
     2
  0
DIMSTYLE
  2
STANDARD
 70
     0
  3

  4

  5

  6

  7

 40
1.0
 41
0.18
 42
0.0625
 43
0.38
 44
0.18
 45
0.0
 46
0.0
 47
0.0
 48
0.0
140
0.18
141
0.09
142
0.0
143
25.3999999999999986
144
1.0
145
0.0
146
1.0
147
0.09
 71
     0
 72
     0
 73
     1
 74
     1
 75
     0
 76
     0
 77
     0
 78
     0
170
     0
171
     2
172
     0
173
     0
174
     0
175
     0
176
     0
177
     0
178
     0
  0
DIMSTYLE
  2
LORO
 70
     0
  3

  4

  5

  6

  7

 40
1.0
 41
3.5
 42
1.0
 43
0.38
 44
1.0
 45
0.0
 46
0.0
 47
0.0
 48
0.000000001
140
3.5
141
0.09
142
0.0
143
25.3999999999999986
144
2.0
145
0.0
146
0.5
147
1.5
 71
     0
 72
     0
 73
     0
 74
     0
 75
     0
 76
     0
 77
     1
 78
     8
170
     0
171
     2
172
     1
173
     0
174
     0
175
     0
176
     0
177
     0
178
     1
  0
ENDTAB
  0
ENDSEC
  0
SECTION
  2
BLOCKS
  0
BLOCK
  8
0
  2
$MODEL_SPACE
 70
     0
 10
0.0
 20
0.0
 30
0.0
  3
$MODEL_SPACE
  1

  0
ENDBLK
  5
38
  8
0
  0
BLOCK
 67
     1
  8
0
  2
$PAPER_SPACE
 70
     0
 10
0.0
 20
0.0
 30
0.0
  3
$PAPER_SPACE
  1

  0
ENDBLK
  5
36
 67
     1
  8
0
  0
BLOCK
  8
0
  2
*S0
 70
     1
 10
0.0
 20
0.0
 30
0.0
  3
*S0
  1

  0
ENDBLK
  5
46EF
  8
0
  0
BLOCK
  8
0
  2
A$CAA7EF5AD
 70
     0
 10
0.0
 20
0.0
 30
0.0
  3
A$CAA7EF5AD
  1

  0
LINE
  5
1AFB9
  8
0
  6
CONTINUOUS
 62
     3
 10
-75.4999999999998863
 20
-56.999895765664867
 30
0.0000000000000127
 11
75.5000000000001137
 21
-56.999895765664867
 31
0.0000000000000127
210
0.0
220
1.0
230
-0.0000000000000002
  0
LINE
  5
1AFBA
  8
0
  6
CONTINUOUS
 62
     3
 10
-71.4801488286689164
 20
-59.9998957656648813
 30
0.0000000000000133
 11
71.4801488286691438
 21
-59.9998957656648813
 31
0.0000000000000133
210
0.0
220
1.0
230
-0.0000000000000002
  0
LINE
  5
1AFBB
  8
0
  6
CONTINUOUS
 62
     3
 10
-73.2999999999998835
 20
-64.9998957656648741
 30
0.0000000000000144
 11
73.3000000000001108
 21
-64.9998957656648741
 31
0.0000000000000144
210
0.0
220
1.0
230
-0.0000000000000002
  0
LINE
  5
1AFBC
  8
0
  6
CONTINUOUS
 62
     3
 10
-73.2999999999998835
 20
-68.0998957656648969
 30
0.0000000000000151
 11
73.3000000000001108
 21
-68.0998957656648969
 31
0.0000000000000151
210
0.0
220
1.0
230
-0.0000000000000002
  0
LINE
  5
1AFBD
  8
0
  6
CONTINUOUS
 62
     3
 10
-75.6999999999999318
 20
-70.4998957656648741
 30
0.0000000000000157
 11
75.7000000000001592
 21
-70.4998957656648741
 31
0.0000000000000157
210
0.0
220
1.0
230
-0.0000000000000002
  0
LINE
  5
1AFBE
  8
0
  6
CONTINUOUS
 62
     3
 10
-75.6999999999999318
 20
-71.4998957656648741
 30
0.0000000000000159
 11
75.7000000000001592
 21
-71.4998957656648741
 31
0.0000000000000159
210
0.0
220
1.0
230
-0.0000000000000002
  0
LINE
  5
1AFBF
  8
0
  6
CONTINUOUS
 62
     3
 10
-73.4999999999998863
 20
-73.6998957656649196
 30
0.0000000000000164
 11
73.5000000000001137
 21
-73.6998957656649196
 31
0.0000000000000164
210
0.0
220
1.0
230
-0.0000000000000002
  0
LINE
  5
1AFC0
  8
0
  6
CONTINUOUS
 62
     3
 10
-73.4999999999998863
 20
-76.1893839890133364
 30
0.0000000000000169
 11
73.5000000000001137
 21
-76.1893839890133364
 31
0.0000000000000169
210
0.0
220
1.0
230
-0.0000000000000002
  0
LINE
  5
1AFC1
  8
0
  6
CONTINUOUS
 62
     3
 10
-75.6999999999999318
 20
-79.9998957656648741
 30
0.0000000000000178
 11
75.7000000000001592
 21
-79.9998957656648741
 31
0.0000000000000178
210
0.0
220
1.0
230
-0.0000000000000002
  0
LINE
  5
1AFC2
  8
0
  6
CONTINUOUS
 62
     3
 10
-64.4999999999997726
 20
-80.9998957656648884
 30
0.000000000000018
 11
64.5
 21
-80.9998957656648884
 31
0.000000000000018
210
0.0
220
1.0
230
-0.0000000000000002
  0
LINE
  5
1AFC3
  8
0
  6
CONTINUOUS
 62
     3
 10
-71.4999999999999716
 20
-50.0000000000002913
 30
0.0000000000000111
 11
71.5000000000001847
 21
-50.0000000000002913
 31
0.0000000000000111
210
0.0
220
1.0
230
-0.0000000000000002
  0
ARC
  5
1AFC4
  8
0
  6
CONTINUOUS
 62
     3
 10
70.9999999999998721
 20
-57.9998957656648599
 30
0.0
 40
0.9999999999999857
210
0.0
220
-0.0000000000000002
230
-1.0
 50
89.9999999999992042
 51
180.0000000000007105
  0
ARC
  5
1AFC5
  8
0
  6
CONTINUOUS
 62
     3
 10
-71.0000000000000995
 20
-57.9998957656648599
 30
0.0
 40
0.9999999999999857
210
0.0
220
-0.0000000000000002
230
-1.0
 50
359.9999999999992042
 51
90.00000000000081
  0
LINE
  5
1AFC6
  8
0
  6
CONTINUOUS
 62
     3
 10
70.0000000000001137
 20
-57.999895765664867
 30
0.0000000000000129
 11
70.0000000000001137
 21
-58.999895765664867
 31
0.0000000000000131
210
0.0
220
1.0
230
-0.0000000000000002
  0
LINE
  5
1AFC7
  8
0
  6
CONTINUOUS
 62
     3
 10
-69.9999999999998863
 20
-57.999895765664867
 30
0.0000000000000129
 11
-69.9999999999998863
 21
-58.999895765664867
 31
0.0000000000000131
210
0.0
220
1.0
230
-0.0000000000000002
  0
ARC
  5
1AFC8
  8
0
  6
CONTINUOUS
 62
     3
 10
70.9999999999998721
 20
-58.9998957656648884
 30
0.0
 40
0.9999999999999857
210
0.0
220
-0.0000000000000002
230
-1.0
 50
179.9999999999992042
 51
270.0000000000007958
  0
ARC
  5
1AFC9
  8
0
  6
CONTINUOUS
 62
     3
 10
-71.0000000000000995
 20
-58.9998957656648884
 30
0.0
 40
0.9999999999999857
210
0.0
220
-0.0000000000000002
230
-1.0
 50
270.0
 51
0.0000000000016284
  0
LINE
  5
1AFCA
  8
0
  6
CONTINUOUS
 62
     3
 10
71.4801488286691438
 20
-59.9998957656648813
 30
0.0000000000000133
 11
73.3000000000001251
 21
-64.9998957656648741
 31
0.0000000000000144
210
0.0
220
1.0
230
-0.0000000000000002
  0
LINE
  5
1AFCB
  8
0
  6
CONTINUOUS
 62
     3
 10
-71.4801488286689164
 20
-59.9998957656648813
 30
0.0000000000000133
 11
-73.2999999999998977
 21
-64.9998957656648741
 31
0.0000000000000144
210
0.0
220
1.0
230
-0.0000000000000002
  0
LINE
  5
1AFCC
  8
0
  6
CONTINUOUS
 62
     3
 10
73.3000000000001251
 20
-64.9998957656648741
 30
0.0000000000000144
 11
73.3000000000001251
 21
-68.0998957656648969
 31
0.0000000000000151
210
0.0
220
1.0
230
-0.0000000000000002
  0
LINE
  5
1AFCD
  8
0
  6
CONTINUOUS
 62
     3
 10
-73.2999999999998977
 20
-64.9998957656648741
 30
0.0000000000000144
 11
-73.2999999999998977
 21
-68.0998957656648969
 31
0.0000000000000151
210
0.0
220
1.0
230
-0.0000000000000002
  0
LINE
  5
1AFCE
  8
0
  6
CONTINUOUS
 62
     3
 10
73.3000000000001251
 20
-68.0998957656648969
 30
0.0000000000000151
 11
75.7000000000001592
 21
-70.4998957656648741
 31
0.0000000000000157
210
0.0
220
1.0
230
-0.0000000000000002
  0
LINE
  5
1AFCF
  8
0
  6
CONTINUOUS
 62
     3
 10
-73.2999999999998977
 20
-68.0998957656648969
 30
0.0000000000000151
 11
-75.6999999999999318
 21
-70.4998957656648741
 31
0.0000000000000157
210
0.0
220
1.0
230
-0.0000000000000002
  0
LINE
  5
1AFD0
  8
0
  6
CONTINUOUS
 62
     3
 10
75.7000000000001592
 20
-70.4998957656648741
 30
0.0000000000000157
 11
75.7000000000001592
 21
-71.4998957656648741
 31
0.0000000000000159
210
0.0
220
1.0
230
-0.0000000000000002
  0
LINE
  5
1AFD1
  8
0
  6
CONTINUOUS
 62
     3
 10
-75.6999999999999318
 20
-70.4998957656648741
 30
0.0000000000000157
 11
-75.6999999999999318
 21
-71.4998957656648741
 31
0.0000000000000159
210
0.0
220
1.0
230
-0.0000000000000002
  0
LINE
  5
1AFD2
  8
0
  6
CONTINUOUS
 62
     3
 10
-73.4999999999998863
 20
-73.6998957656649196
 30
0.0000000000000164
 11
-75.6999999999999318
 21
-71.4998957656648741
 31
0.0000000000000159
210
0.0
220
1.0
230
-0.0000000000000002
  0
LINE
  5
1AFD3
  8
0
  6
CONTINUOUS
 62
     3
 10
73.5000000000001137
 20
-73.6998957656649196
 30
0.0000000000000164
 11
75.7000000000001592
 21
-71.4998957656648741
 31
0.0000000000000159
210
0.0
220
1.0
230
-0.0000000000000002
  0
LINE
  5
1AFD4
  8
0
  6
CONTINUOUS
 62
     3
 10
73.5000000000001137
 20
-73.6998957656649196
 30
0.0000000000000164
 11
73.5000000000001137
 21
-76.1893839890133364
 31
0.0000000000000169
210
0.0
220
1.0
230
-0.0000000000000002
  0
LINE
  5
1AFD5
  8
0
  6
CONTINUOUS
 62
     3
 10
-73.4999999999998863
 20
-73.6998957656649196
 30
0.0000000000000164
 11
-73.4999999999998863
 21
-76.1893839890133364
 31
0.0000000000000169
210
0.0
220
1.0
230
-0.0000000000000002
  0
LINE
  5
1AFD6
  8
0
  6
CONTINUOUS
 62
     3
 10
73.5000000000001137
 20
-76.1893839890133364
 30
0.0000000000000169
 11
75.7000000000001592
 21
-79.9998957656648741
 31
0.0000000000000178
210
0.0
220
1.0
230
-0.0000000000000002
  0
LINE
  5
1AFD7
  8
0
  6
CONTINUOUS
 62
     3
 10
-73.4999999999998863
 20
-76.1893839890133364
 30
0.0000000000000169
 11
-75.6999999999999318
 21
-79.9998957656648741
 31
0.0000000000000178
210
0.0
220
1.0
230
-0.0000000000000002
  0
ARC
  5
1AFD8
  8
0
  6
CONTINUOUS
 62
     3
 10
64.4999999999997726
 20
-74.9998957656649736
 30
0.0
 40
5.9999999999998996
210
0.0
220
-0.0000000000000002
230
-1.0
 50
270.0
 51
303.5573097619210898
  0
ARC
  5
1AFD9
  8
0
  6
CONTINUOUS
 62
     3
 10
-64.5
 20
-74.9998957656649736
 30
0.0
 40
5.9999999999999041
210
0.0
220
-0.0000000000000002
230
-1.0
 50
236.4426902380789102
 51
270.0
  0
ARC
  5
1AFDA
  8
0
  6
CONTINUOUS
 62
     3
 10
71.4758400866409431
 20
-52.7998957656648926
 30
0.0
 40
2.8000000000000078
210
0.0
220
-0.0000000000000002
230
-1.0
 50
15.0000000000002895
 51
89.5056149120656244
  0
ARC
  5
1AFDB
  8
0
  6
CONTINUOUS
 62
     3
 10
-71.4758400866411563
 20
-52.7998957656649068
 30
0.0
 40
2.8000000000000211
210
0.0
220
-0.0000000000000002
230
-1.0
 50
90.4943850879346599
 51
164.9999999999996021
  0
LINE
  5
1AFDC
  8
0
  6
CONTINUOUS
 62
     3
 10
74.180432400250524
 20
-52.0752024393778186
 30
0.0000000000000116
 11
75.5000000000001137
 21
-56.999895765664867
 31
0.0000000000000127
210
0.0
220
1.0
230
-0.0000000000000002
  0
LINE
  5
1AFDD
  8
0
  6
CONTINUOUS
 62
     3
 10
-74.1804324002503108
 20
-52.0752024393778186
 30
0.0000000000000116
 11
-75.4999999999998863
 21
-56.999895765664867
 31
0.0000000000000127
210
0.0
220
1.0
230
-0.0000000000000002
  0
LINE
  5
1AFDE
  8
0
  6
CONTINUOUS
 62
     3
 10
-70.648669968078238
 20
50.9999999999997371
 30
-0.0000000000000113
 11
70.6486699680784653
 21
50.9999999999997371
 31
-0.0000000000000113
210
0.0
220
1.0
230
-0.0000000000000002
  0
LINE
  5
1AFDF
  8
0
  6
CONTINUOUS
 62
     3
 10
0.000000000000079
 20
69.9999999999997726
 30
-0.0000000000000155
 11
-149.9999999999998863
 21
69.9999999999997442
 31
-0.0000000000000155
210
0.0
220
1.0
230
-0.0000000000000002
  0
LINE
  5
1AFE0
  8
0
  6
CONTINUOUS
 62
     3
 10
300.0000000000001137
 20
69.9999999999996732
 30
-0.0000000000000155
 11
280.0000000000001137
 21
69.9999999999996732
 31
-0.0000000000000155
210
0.0
220
1.0
230
-0.0000000000000002
  0
LINE
  5
1AFE1
  8
0
  6
CONTINUOUS
 62
     3
 10
0.0000000000001137
 20
69.9999999999997584
 30
-0.0000000000000155
 11
280.0000000000001137
 21
69.9999999999997584
 31
-0.0000000000000155
210
0.0
220
1.0
230
-0.0000000000000002
  0
LINE
  5
1AFE2
  8
0
  6
CONTINUOUS
 62
     3
 10
280.0000000000001137
 20
70.9999999999997158
 30
-0.0000000000000158
 11
0.0000000000001137
 21
70.9999999999997158
 31
-0.0000000000000158
210
0.0
220
1.0
230
-0.0000000000000002
  0
LINE
  5
1AFE3
  8
0
  6
CONTINUOUS
 62
     3
 10
300.0000000000001137
 20
69.9999999999997726
 30
-0.0000000000000155
 11
300.0000000000001137
 21
70.9999999999997442
 31
-0.0000000000000158
210
0.0
220
1.0
230
-0.0000000000000002
  0
LINE
  5
1AFE4
  8
0
  6
CONTINUOUS
 62
     3
 10
280.0000000000001137
 20
70.9999999999997158
 30
-0.0000000000000158
 11
300.0000000000001137
 21
70.9999999999997158
 31
-0.0000000000000158
210
0.0
220
1.0
230
-0.0000000000000002
  0
LINE
  5
1AFE5
  8
0
  6
CONTINUOUS
 62
     3
 10
-149.9999999999998863
 20
70.9999999999997442
 30
-0.0000000000000158
 11
0.0000000000001137
 21
70.9999999999997584
 31
-0.0000000000000158
210
0.0
220
1.0
230
-0.0000000000000002
  0
ARC
  5
1AFE6
  8
0
  6
CONTINUOUS
 62
     3
 10
77.4999999999999005
 20
66.49999999999973
 30
0.0
 40
3.5000000000000129
210
0.0
220
-0.0000000000000002
230
-1.0
 50
90.0000000000002416
 51
193.4862741335832084
  0
ARC
  5
1AFE7
  8
0
  6
CONTINUOUS
 62
     3
 10
-77.5000000000001279
 20
66.49999999999973
 30
0.0
 40
3.500000000000012
210
0.0
220
-0.0000000000000002
230
-1.0
 50
346.5137258664166779
 51
89.9999999999997868
  0
ARC
  5
1AFE8
  8
0
  6
CONTINUOUS
 62
     3
 10
59.8670964589287422
 20
62.271181779613471
 30
0.0
 40
14.6329035410711299
210
0.0
220
-0.0000000000000002
230
-1.0
 50
333.9837874894096785
 51
13.4862741335832208
  0
ARC
  5
1AFE9
  8
0
  6
CONTINUOUS
 62
     3
 10
-59.8670964589293106
 20
62.2711817796134497
 30
0.0
 40
14.6329035410708101
210
0.0
220
-0.0000000000000002
230
-1.0
 50
166.5137258664163937
 51
206.0162125105908899
  0
LINE
  5
1AFEA
  8
0
  6
CONTINUOUS
 62
     3
 10
-70.648669968078238
 20
50.9999999999997371
 30
-0.0000000000000113
 11
-73.0172474170766606
 21
55.8528178276227791
 31
-0.0000000000000124
210
0.0
220
1.0
230
-0.0000000000000002
  0
LINE
  5
1AFEB
  8
0
  6
CONTINUOUS
 62
     3
 10
70.6486699680784653
 20
50.9999999999997371
 30
-0.0000000000000113
 11
73.0172474170768879
 21
55.8528178276227791
 31
-0.0000000000000124
210
0.0
220
1.0
230
-0.0000000000000002
  0
LINE
  5
1AFEC
  8
0
  6
CONTINUOUS
 62
     3
 10
-149.9999999999998863
 20
70.9999999999997584
 30
-0.0000000000000158
 11
-149.9999999999998863
 21
69.9999999999997584
 31
-0.0000000000000155
210
0.0
220
1.0
230
-0.0000000000000002
  0
LINE
  5
1AFED
  8
0
  6
CONTINUOUS
 62
     3
 10
-72.0000000000483595
 20
72.99999999999973
 30
-0.0000000000000162
 11
72.0000000000486438
 21
72.99999999999973
 31
-0.0000000000000162
210
0.0
220
1.0
230
-0.0000000000000002
  0
LINE
  5
1AFEE
  8
0
  6
CONTINUOUS
 62
     3
 10
-65.6999999999998465
 20
-0.0000000000002884
 30
0.0
 11
65.7000000000001307
 21
-0.00000000000028
 31
0.0
210
0.0
220
1.0
230
-0.0000000000000002
  0
LINE
  5
1AFEF
  8
0
  6
CONTINUOUS
 62
     3
 10
-68.4246378256497252
 20
48.2017394338644465
 30
-0.0000000000000107
 11
-69.5194308710115934
 21
50.9999999999997371
 31
-0.0000000000000113
210
0.0
220
1.0
230
-0.0000000000000002
  0
LINE
  5
1AFF0
  8
0
  6
CONTINUOUS
 62
     3
 10
68.4246378256500094
 20
48.2017394338644607
 30
-0.0000000000000107
 11
69.5194308710118918
 21
50.99999999999973
 31
-0.0000000000000113
210
0.0
220
1.0
230
-0.0000000000000002
  0
ARC
  5
1AFF1
  8
0
  6
CONTINUOUS
 62
     3
 10
94.5000000000003553
 20
37.9999999999996021
 30
0.0
 40
28.0000000000005116
210
0.0
220
-0.0000000000000002
230
-1.0
 50
158.6325470100906045
 51
179.9999999999996874
  0
ARC
  5
1AFF2
  8
0
  6
CONTINUOUS
 62
     3
 10
-94.5000000000001847
 20
37.9999999999997229
 30
0.0
 40
28.0000000000000284
210
0.0
220
-0.0000000000000002
230
-1.0
 50
0.0
 51
21.3674529899094985
  0
LINE
  5
1AFF3
  8
0
  6
CONTINUOUS
 62
     3
 10
72.0000000000486438
 20
72.99999999999973
 30
-0.0000000000000162
 11
72.0000000000486438
 21
70.9999999999997584
 31
-0.0000000000000158
210
0.0
220
1.0
230
-0.0000000000000002
  0
LINE
  5
1AFF4
  8
0
  6
CONTINUOUS
 62
     3
 10
-72.0000000000483595
 20
72.99999999999973
 30
-0.0000000000000162
 11
-72.0000000000483595
 21
70.9999999999997584
 31
-0.0000000000000158
210
0.0
220
1.0
230
-0.0000000000000002
  0
ARC
  5
1AFF5
  8
0
  6
CONTINUOUS
 62
     3
 10
65.5000000000047748
 20
8.0498756211203144
 30
0.0
 40
0.999999999995083
210
0.0
220
-0.0000000000000002
230
-1.0
 50
354.2894068624837018
 51
0.0000000000115009
  0
ARC
  5
1AFF6
  8
0
  6
CONTINUOUS
 62
     3
 10
-65.5000000000050733
 20
8.0498756211203197
 30
0.0
 40
0.9999999999950546
210
0.0
220
-0.0000000000000002
230
-1.0
 50
179.9999999999884039
 51
185.7105931375162129
  0
LINE
  5
1AFF7
  8
0
  6
CONTINUOUS
 62
     3
 10
66.5000000000001421
 20
37.9999999999997229
 30
-0.0000000000000084
 11
66.5000000000001421
 21
8.0498756211205222
 31
-0.0000000000000018
210
0.0
220
1.0
230
-0.0000000000000002
  0
LINE
  5
1AFF8
  8
0
  6
CONTINUOUS
 62
     3
 10
-66.4999999999998579
 20
37.9999999999997087
 30
-0.0000000000000084
 11
-66.4999999999998579
 21
8.0498756211205151
 31
-0.0000000000000018
210
0.0
220
1.0
230
-0.0000000000000002
  0
LINE
  5
1AFF9
  8
0
  6
CONTINUOUS
 62
     3
 10
-65.6999999999998607
 20
-0.0000000000002891
 30
0.0
 11
-66.4950371902098425
 21
7.9503719020995147
 31
-0.0000000000000018
210
0.0
220
1.0
230
-0.0000000000000002
  0
LINE
  5
1AFFA
  8
0
  6
CONTINUOUS
 62
     3
 10
65.700000000000145
 20
-0.0000000000002847
 30
0.0
 11
66.4950371902101267
 21
7.9503719020995236
 31
-0.0000000000000018
210
0.0
220
1.0
230
-0.0000000000000002
  0
LINE
  5
1AFFB
  8
0
  6
VERDECKT
 62
     1
 10
-70.6999999999999318
 20
-76.9998957656648741
 30
0.0000000000000171
 11
70.7000000000001592
 21
-76.9998957656648741
 31
0.0000000000000171
210
0.0
220
1.0
230
-0.0000000000000002
  0
LINE
  5
1AFFC
  8
0
  6
VERDECKT
 62
     1
 10
-61.4999999999998792
 20
-78.9998957656648741
 30
0.0000000000000175
 11
61.5000000000001066
 21
-78.9998957656648741
 31
0.0000000000000175
210
0.0
220
1.0
230
-0.0000000000000002
  0
LINE
  5
1AFFD
  8
0
  6
VERDECKT
 62
     1
 10
70.7000000000001592
 20
-76.9998957656648741
 30
0.0000000000000171
 11
73.7000000000001592
 21
-79.9998957656648741
 31
0.0000000000000178
210
0.0
220
1.0
230
-0.0000000000000002
  0
LINE
  5
1AFFE
  8
0
  6
VERDECKT
 62
     1
 10
-70.6999999999999318
 20
-76.9998957656648741
 30
0.0000000000000171
 11
-73.6999999999999318
 21
-79.9998957656648741
 31
0.0000000000000178
210
0.0
220
1.0
230
-0.0000000000000002
  0
ARC
  5
1AFFF
  8
0
  6
VERDECKT
 62
     1
 10
64.4999999999997868
 20
-74.9998957656649736
 30
0.0
 40
5.9999999999998836
210
0.0
220
-0.0000000000000002
230
-1.0
 50
303.5573097619209761
 51
340.5287793655102178
  0
ARC
  5
1B000
  8
0
  6
VERDECKT
 62
     1
 10
-64.4999999999998437
 20
-74.9998957656648599
 30
0.0
 40
6.0000000000000773
210
0.0
220
-0.0000000000000002
230
-1.0
 50
199.4712206344902086
 51
236.4426902380783986
  0
LINE
  5
1B001
  8
0
  6
VERDECKT
 62
     1
 10
61.5000000000001066
 20
-78.9998957656648741
 30
0.0000000000000175
 11
61.5000000000001066
 21
-80.9998957656648741
 31
0.000000000000018
210
0.0
220
1.0
230
-0.0000000000000002
  0
LINE
  5
1B002
  8
0
  6
VERDECKT
 62
     1
 10
-61.4999999999998792
 20
-78.9998957656648741
 30
0.0000000000000175
 11
-61.4999999999998792
 21
-80.9998957656648741
 31
0.000000000000018
210
0.0
220
1.0
230
-0.0000000000000002
  0
ARC
  5
1B003
  8
0
  6
VERDECKT
 62
     1
 10
61.4999999999999076
 20
-72.9998957656648741
 30
0.0
 40
5.9999999999999849
210
0.0
220
-0.0000000000000002
230
-1.0
 50
270.0
 51
0.0000000000003435
  0
ARC
  5
1B004
  8
0
  6
VERDECKT
 62
     1
 10
-61.5000000000001279
 20
-72.9998957656648741
 30
0.0
 40
5.9999999999999778
210
0.0
220
-0.0000000000000002
230
-1.0
 50
179.999999999999801
 51
270.0000000000002274
  0
LINE
  5
1B005
  8
0
  6
VERDECKT
 62
     1
 10
67.5000000000001137
 20
-56.999895765664867
 30
0.0000000000000127
 11
67.5000000000001137
 21
-72.9998957656648741
 31
0.0000000000000162
210
0.0
220
1.0
230
-0.0000000000000002
  0
LINE
  5
1B006
  8
0
  6
VERDECKT
 62
     1
 10
-67.4999999999998863
 20
-56.999895765664867
 30
0.0000000000000127
 11
-67.4999999999998863
 21
-72.9998957656648741
 31
0.0000000000000162
210
0.0
220
1.0
230
-0.0000000000000002
  0
LINE
  5
1B007
  8
0
  6
VERDECKT
 62
     1
 10
-67.4999999999998863
 20
-56.999895765664867
 30
0.0000000000000127
 11
-68.8195675997493908
 21
-52.075202439377847
 31
0.0000000000000116
210
0.0
220
1.0
230
-0.0000000000000002
  0
LINE
  5
1B008
  8
0
  6
VERDECKT
 62
     1
 10
67.5000000000001137
 20
-56.999895765664867
 30
0.0000000000000127
 11
68.8195675997496039
 21
-52.075202439377847
 31
0.0000000000000116
210
0.0
220
1.0
230
-0.0000000000000002
  0
ARC
  5
1B009
  8
0
  6
VERDECKT
 62
     1
 10
71.5241599133588153
 20
-52.7998957656649068
 30
0.0
 40
2.8000000000000269
210
0.0
220
-0.0000000000000002
230
-1.0
 50
90.4943850879311782
 51
165.0
  0
ARC
  5
1B00A
  8
0
  6
VERDECKT
 62
     1
 10
-71.5241599133590427
 20
-52.7998957656649068
 30
0.0
 40
2.800000000000034
210
0.0
220
-0.0000000000000002
230
-1.0
 50
15.0
 51
89.5056149120688076
  0
LINE
  5
1B00B
  8
0
  6
VERDECKT
 62
     1
 10
-69.7499999999998863
 20
51.4386254535179575
 30
-0.0000000000000114
 11
69.7500000000001137
 21
51.4386254535179575
 31
-0.0000000000000114
210
0.0
220
1.0
230
-0.0000000000000002
  0
LINE
  5
1B00C
  8
0
  6
VERDECKT
 62
     1
 10
69.7500000000001137
 20
51.4386254535179575
 30
-0.0000000000000114
 11
70.6486699680784653
 21
50.9999999999997371
 31
-0.0000000000000113
210
0.0
220
1.0
230
-0.0000000000000002
  0
LINE
  5
1B00D
  8
0
  6
VERDECKT
 62
     1
 10
-69.7499999999998863
 20
51.4386254535179575
 30
-0.0000000000000114
 11
-70.648669968078238
 21
50.9999999999997371
 31
-0.0000000000000113
210
0.0
220
1.0
230
-0.0000000000000002
  0
LINE
  5
1B00E
  8
0
  6
VERDECKT
 62
     1
 10
-69.7499999999998863
 20
51.4386254535179575
 30
-0.0000000000000114
 11
-72.1185774489982947
 21
56.2914432811410066
 31
-0.0000000000000125
210
0.0
220
1.0
230
-0.0000000000000002
  0
LINE
  5
1B00F
  8
0
  6
VERDECKT
 62
     1
 10
69.7500000000001137
 20
51.4386254535179575
 30
-0.0000000000000114
 11
72.1185774489985363
 21
56.2914432811410066
 31
-0.0000000000000125
210
0.0
220
1.0
230
-0.0000000000000002
  0
ARC
  5
1B010
  8
0
  6
VERDECKT
 62
     1
 10
59.8670964589289483
 20
62.2711817796134497
 30
0.0
 40
13.6329035410709292
210
0.0
220
-0.0000000000000002
230
-1.0
 50
333.9837874894093943
 51
13.4862741335835796
  0
ARC
  5
1B011
  8
0
  6
VERDECKT
 62
     1
 10
-59.8670964589291827
 20
62.2711817796134497
 30
0.0
 40
13.6329035410709203
210
0.0
220
-0.0000000000000002
230
-1.0
 50
166.5137258664163937
 51
206.0162125105906057
  0
ARC
  5
1B012
  8
0
  6
VERDECKT
 62
     1
 10
77.4999999999998721
 20
66.4999999999997584
 30
0.0
 40
4.4999999999999849
210
0.0
220
-0.0000000000000002
230
-1.0
 50
89.9999999999998153
 51
193.4862741335834926
  0
ARC
  5
1B013
  8
0
  6
VERDECKT
 62
     1
 10
-77.5000000000000995
 20
66.4999999999997584
 30
0.0
 40
4.4999999999999849
210
0.0
220
-0.0000000000000002
230
-1.0
 50
346.5137258664165074
 51
90.0000000000001847
  0
LINE
  5
1B014
  8
0
  6
VERDECKT
 62
     1
 10
276.0000000000001137
 20
69.9999999999996447
 30
-0.0000000000000155
 11
276.0000000000001137
 21
70.9999999999997158
 31
-0.0000000000000158
210
0.0
220
1.0
230
-0.0000000000000002
  0
LINE
  5
1B015
  8
0
  6
VERDECKT
 62
     1
 10
284.0000000000001137
 20
69.9999999999996447
 30
-0.0000000000000155
 11
284.0000000000001137
 21
70.9999999999997158
 31
-0.0000000000000158
210
0.0
220
1.0
230
-0.0000000000000002
  0
LINE
  5
1B016
  8
0
  6
VERDECKT
 62
     1
 10
-63.7099256195316173
 20
0.1990074380465372
 30
0.0
 11
63.7099256195318873
 21
0.1990074380465453
 31
0.0
210
0.0
220
1.0
230
-0.0000000000000002
  0
ARC
  5
1B017
  8
0
  6
VERDECKT
 62
     1
 10
41.9999999999994529
 20
62.9999999999998082
 30
0.0
 40
30.0000000000004086
210
0.0
220
-0.0000000000000002
230
-1.0
 50
338.6325470100906045
 51
359.9999999999997726
  0
ARC
  5
1B018
  8
0
  6
VERDECKT
 62
     1
 10
-42.0000000000001776
 20
62.9999999999997087
 30
0.0
 40
29.9999999999999503
210
0.0
220
-0.0000000000000002
230
-1.0
 50
179.9999999999998863
 51
201.3674529899095091
  0
LINE
  5
1B019
  8
0
  6
VERDECKT
 62
     1
 10
-69.5194308710115934
 20
50.9999999999997371
 30
-0.0000000000000113
 11
-69.9378880439464155
 21
52.0695648922875165
 31
-0.0000000000000116
210
0.0
220
1.0
230
-0.0000000000000002
  0
LINE
  5
1B01A
  8
0
  6
VERDECKT
 62
     1
 10
69.5194308710118918
 20
50.99999999999973
 30
-0.0000000000000113
 11
69.9378880439466855
 21
52.0695648922875307
 31
-0.0000000000000116
210
0.0
220
1.0
230
-0.0000000000000002
  0
ARC
  5
1B01B
  8
0
  6
VERDECKT
 62
     1
 10
94.5000000000001279
 20
37.9999999999997371
 30
0.0
 40
30.0000000000002593
210
0.0
220
-0.0000000000000002
230
-1.0
 50
158.6325470100906045
 51
180.0
  0
ARC
  5
1B01C
  8
0
  6
VERDECKT
 62
     1
 10
-94.4999999999994458
 20
37.9999999999999218
 30
0.0
 40
29.9999999999993108
210
0.0
220
-0.0000000000000002
230
-1.0
 50
0.0
 51
21.3674529899101309
  0
LINE
  5
1B01D
  8
0
  6
VERDECKT
 62
     1
 10
-66.5621119560533003
 20
48.9304351077119719
 30
-0.0000000000000109
 11
-68.0753621743499906
 21
52.7982605661350206
 31
-0.0000000000000117
210
0.0
220
1.0
230
-0.0000000000000002
  0
LINE
  5
1B01E
  8
0
  6
VERDECKT
 62
     1
 10
66.5621119560535845
 20
48.9304351077119932
 30
-0.0000000000000109
 11
68.0753621743502606
 21
52.7982605661350206
 31
-0.0000000000000117
210
0.0
220
1.0
230
-0.0000000000000002
  0
ARC
  5
1B01F
  8
0
  6
VERDECKT
 62
     1
 10
42.0000000000001634
 20
62.9999999999997016
 30
0.0
 40
27.9999999999997016
210
0.0
220
-0.0000000000000002
230
-1.0
 50
338.6325470100903203
 51
0.0000000000000763
  0
ARC
  5
1B020
  8
0
  6
VERDECKT
 62
     1
 10
-42.0000000000000711
 20
62.9999999999997513
 30
0.0
 40
28.0000000000000604
210
0.0
220
-0.0000000000000002
230
-1.0
 50
180.0
 51
201.3674529899093955
  0
LINE
  5
1B021
  8
0
  6
VERDECKT
 62
     1
 10
70.0000000000001421
 20
72.9999999999997442
 30
-0.0000000000000162
 11
70.0000000000001421
 21
62.9999999999997371
 31
-0.000000000000014
210
0.0
220
1.0
230
-0.0000000000000002
  0
LINE
  5
1B022
  8
0
  6
VERDECKT
 62
     1
 10
-69.9999999999998437
 20
72.99999999999973
 30
-0.0000000000000162
 11
-69.9999999999998437
 21
62.9999999999997371
 31
-0.000000000000014
210
0.0
220
1.0
230
-0.0000000000000002
  0
LINE
  5
1B023
  8
0
  6
VERDECKT
 62
     1
 10
72.0000000000486438
 20
70.9999999999997584
 30
-0.0000000000000158
 11
72.0000000000486438
 21
62.99999999999973
 31
-0.000000000000014
210
0.0
220
1.0
230
-0.0000000000000002
  0
LINE
  5
1B024
  8
0
  6
VERDECKT
 62
     1
 10
-72.0000000000483595
 20
70.9999999999997584
 30
-0.0000000000000158
 11
-72.0000000000483595
 21
62.99999999999973
 31
-0.000000000000014
210
0.0
220
1.0
230
-0.0000000000000002
  0
ARC
  5
1B025
  8
0
  6
VERDECKT
 62
     1
 10
63.4999999999805169
 20
8.1496268636070202
 30
0.0
 40
0.9999999999950759
210
0.0
220
-0.0000000000000002
230
-1.0
 50
354.2894068624837018
 51
0.0000000000115136
  0
ARC
  5
1B026
  8
0
  6
VERDECKT
 62
     1
 10
-63.4999999999808367
 20
8.1496268636070308
 30
0.0
 40
0.9999999999950404
210
0.0
220
-0.0000000000000002
230
-1.0
 50
179.9999999999886029
 51
185.7105931375164118
  0
LINE
  5
1B027
  8
0
  6
VERDECKT
 62
     1
 10
-63.7099256195316173
 20
0.1990074380465359
 30
0.0
 11
-64.4950371901855846
 21
8.0501231445862231
 31
-0.0000000000000018
210
0.0
220
1.0
230
-0.0000000000000002
  0
LINE
  5
1B028
  8
0
  6
VERDECKT
 62
     1
 10
63.7099256195319015
 20
0.1990074380465395
 30
0.0
 11
64.4950371901858546
 21
8.0501231445862338
 31
-0.0000000000000018
210
0.0
220
1.0
230
-0.0000000000000002
  0
LINE
  5
1B029
  8
0
  6
VERDECKT
 62
     1
 10
64.4999999999758842
 20
37.9999999999997371
 30
-0.0000000000000084
 11
64.4999999999758842
 21
8.1496268636072298
 31
-0.0000000000000018
210
0.0
220
1.0
230
-0.0000000000000002
  0
LINE
  5
1B02A
  8
0
  6
VERDECKT
 62
     1
 10
-64.4999999999756
 20
37.99999999999973
 30
-0.0000000000000084
 11
-64.4999999999756
 21
8.1496268636072227
 31
-0.0000000000000018
210
0.0
220
1.0
230
-0.0000000000000002
  0
LINE
  5
1B02B
  8
0
  6
VERDECKT
 62
     1
 10
63.7099256195319015
 20
0.199007438046541
 30
0.0
 11
65.700000000000145
 21
-0.0000000000002832
 31
0.0
210
0.0
220
1.0
230
-0.0000000000000002
  0
LINE
  5
1B02C
  8
0
  6
VERDECKT
 62
     1
 10
-63.7099256195316173
 20
0.199007438046533
 30
0.0
 11
-65.6999999999998607
 21
-0.0000000000002915
 31
0.0
210
0.0
220
1.0
230
-0.0000000000000002
  0
ENDBLK
  5
1B02E
  8
0
  0
BLOCK
  8
0
  2
A$CCD3244F4
 70
     0
 10
0.0
 20
0.0
 30
0.0
  3
A$CCD3244F4
  1

  0
CIRCLE
  5
1B032
  8
0
  6
CONTINUOUS
 62
     3
 10
0.0000000000000962
 20
0.0000000000000018
 30
0.0
 40
61.5
  0
LINE
  5
1B033
  8
0
  6
CONTINUOUS
 62
     3
 10
280.0000000000001137
 20
-150.0
 30
0.0000000000000568
 11
0.0000000000001137
 21
-150.0
 31
-0.0000000000000052
  0
ARC
  5
1B034
  8
0
  6
CONTINUOUS
 62
     3
 10
280.0000000000001137
 20
-130.0
 30
0.0000000000000568
 40
20.0
 50
270.0
 51
0.0
  0
LINE
  5
1B035
  8
0
  6
CONTINUOUS
 62
     3
 10
300.0000000000001137
 20
-130.0
 30
0.0000000000000711
 11
300.0000000000001137
 21
130.0
 31
0.0000000000000711
  0
CIRCLE
  5
1B036
  8
0
  6
CONTINUOUS
 62
     3
 10
280.0000000000001137
 20
130.0
 30
0.0000000000000568
 40
4.0
  0
CIRCLE
  5
1B037
  8
0
  6
CONTINUOUS
 62
     3
 10
280.0000000000001137
 20
-130.0
 30
0.0000000000000568
 40
4.0
  0
ARC
  5
1B038
  8
0
  6
CONTINUOUS
 62
     3
 10
280.0000000000001137
 20
130.0
 30
0.0000000000000568
 40
20.0
 50
0.0
 51
90.0
  0
LINE
  5
1B039
  8
0
  6
CONTINUOUS
 62
     3
 10
280.0000000000001137
 20
150.0
 30
0.0000000000000568
 11
0.0000000000001137
 21
150.0
 31
-0.0000000000000052
  0
ARC
  5
1B03A
  8
0
  6
CONTINUOUS
 62
     3
 10
0.0000000000001294
 20
0.0000000000000184
 30
0.0
 40
150.0
 50
90.0
 51
270.0
  0
CIRCLE
  5
1B03B
  8
0
  6
CONTINUOUS
 62
     3
 10
0.0000000000001284
 20
0.0000000000000039
 30
0.0
 40
73.0
  0
CIRCLE
  5
1B03C
  8
0
  6
CONTINUOUS
 62
     3
 10
0.0000000000001483
 20
0.0000000000000021
 30
0.0
 40
64.5
  0
CIRCLE
  5
1B03D
  8
0
  6
CONTINUOUS
 62
     3
 10
0.0000000000001538
 20
0.0000000000000043
 30
0.0
 40
69.9999999999999858
  0
CIRCLE
  5
1B03E
  8
0
  6
CONTINUOUS
 62
     3
 10
0.0000000000001538
 20
0.0000000000000043
 30
0.0
 40
72.0000000000485016
  0
CIRCLE
  5
1B03F
  8
0
  6
CONTINUOUS
 62
     3
 10
0.0000000000001421
 20
0.0
 30
0.0
 40
63.7099256195317594
  0
CIRCLE
  5
1B040
  8
0
  6
VERDECKT
 62
     1
 10
0.0000000000001011
 20
0.0000000000000031
 30
0.0
 40
75.5
  0
CIRCLE
  5
1B041
  8
0
  6
VERDECKT
 62
     1
 10
0.0000000000001004
 20
0.0000000000000029
 30
0.0
 40
71.4801488286690301
  0
CIRCLE
  5
1B042
  8
0
  6
VERDECKT
 62
     1
 10
0.0000000000000993
 20
0.0000000000000026
 30
0.0
 40
73.3000000000000114
  0
CIRCLE
  5
1B043
  8
0
  6
VERDECKT
 62
     1
 10
0.0000000000000981
 20
0.0000000000000023
 30
0.0
 40
75.7000000000000455
  0
CIRCLE
  5
1B044
  8
0
  6
VERDECKT
 62
     1
 10
0.000000000000096
 20
0.0000000000000017
 30
0.0
 40
73.7000000000000455
  0
CIRCLE
  5
1B045
  8
0
  6
VERDECKT
 62
     1
 10
0.0000000000000966
 20
0.0000000000000019
 30
0.0
 40
70.7000000000000455
  0
CIRCLE
  5
1B046
  8
0
  6
VERDECKT
 62
     1
 10
0.0000000000000966
 20
0.0000000000000019
 30
0.0
 40
70.1568542494921985
  0
CIRCLE
  5
1B047
  8
0
  6
VERDECKT
 62
     1
 10
0.0000000000001011
 20
0.0000000000000031
 30
0.0
 40
67.5
  0
CIRCLE
  5
1B048
  8
0
  6
VERDECKT
 62
     1
 10
0.000000000000125
 20
0.0000000000000029
 30
0.0
 40
70.6486699680783516
  0
CIRCLE
  5
1B049
  8
0
  6
VERDECKT
 62
     1
 10
0.0000000000001251
 20
0.000000000000003
 30
0.0
 40
69.75
  0
CIRCLE
  5
1B04A
  8
0
  6
VERDECKT
 62
     1
 10
0.0000000000001284
 20
0.0000000000000039
 30
0.0
 40
74.0
  0
CIRCLE
  5
1B04B
  8
0
  6
VERDECKT
 62
     1
 10
0.0000000000001275
 20
0.0000000000000036
 30
0.0
 40
74.5
  0
CIRCLE
  5
1B04C
  8
0
  6
VERDECKT
 62
     1
 10
0.0000000000001275
 20
0.0000000000000036
 30
0.0
 40
73.5
  0
CIRCLE
  5
1B04D
  8
0
  6
VERDECKT
 62
     1
 10
0.0000000000001483
 20
0.0000000000000021
 30
0.0
 40
66.5
  0
CIRCLE
  5
1B04E
  8
0
  6
VERDECKT
 62
     1
 10
0.0000000000001421
 20
0.0
 30
0.0
 40
65.7000000000000028
  0
ENDBLK
  5
1B050
  8
0
  0
BLOCK
  8
0
  2
A$C6B5B449A
 70
     0
 10
0.0
 20
0.0
 30
0.0
  3
A$C6B5B449A
  1

  0
LINE
  5
1B054
  8
0
  6
CONTINUOUS
 62
     3
 10
-75.5
 20
-56.9998957656649026
 30
0.0000000000000127
 11
-0.0000000000000016
 21
-56.9998957656648884
 31
0.0000000000000127
210
-0.0000000000000002
220
1.0
230
-0.0000000000000002
  0
LINE
  5
1B055
  8
0
  6
CONTINUOUS
 62
     3
 10
0.0000000000000243
 20
-56.9998957656648884
 30
0.0000000000000127
 11
75.5000000000000142
 21
-56.999895765664867
 31
0.0000000000000127
210
-0.0000000000000002
220
1.0
230
-0.0000000000000002
  0
LINE
  5
1B056
  8
0
  6
CONTINUOUS
 62
     3
 10
-71.4801488286690443
 20
-59.9998957656649097
 30
0.0000000000000133
 11
-0.0000000000000009
 21
-59.9998957656648884
 31
0.0000000000000133
210
-0.0000000000000002
220
1.0
230
-0.0000000000000002
  0
LINE
  5
1B057
  8
0
  6
CONTINUOUS
 62
     3
 10
0.0000000000000167
 20
-59.9998957656648884
 30
0.0000000000000133
 11
71.4801488286690585
 21
-59.999895765664867
 31
0.0000000000000133
210
-0.0000000000000002
220
1.0
230
-0.0000000000000002
  0
LINE
  5
1B058
  8
0
  6
CONTINUOUS
 62
     3
 10
-73.3000000000000114
 20
-64.9998957656649026
 30
0.0000000000000144
 11
0.0000000000000002
 21
-64.9998957656648884
 31
0.0000000000000144
210
-0.0000000000000002
220
1.0
230
-0.0000000000000002
  0
LINE
  5
1B059
  8
0
  6
CONTINUOUS
 62
     3
 10
0.0000000000000142
 20
-64.9998957656648884
 30
0.0000000000000144
 11
73.3000000000000256
 21
-64.9998957656648741
 31
0.0000000000000144
210
-0.0000000000000002
220
1.0
230
-0.0000000000000002
  0
LINE
  5
1B05A
  8
0
  6
CONTINUOUS
 62
     3
 10
-73.3000000000000114
 20
-68.0998957656649253
 30
0.0000000000000151
 11
0.0000000000000009
 21
-68.0998957656649111
 31
0.0000000000000151
210
-0.0000000000000002
220
1.0
230
-0.0000000000000002
  0
LINE
  5
1B05B
  8
0
  6
CONTINUOUS
 62
     3
 10
0.0000000000000151
 20
-68.0998957656649111
 30
0.0000000000000151
 11
73.3000000000000256
 21
-68.0998957656648969
 31
0.0000000000000151
210
-0.0000000000000002
220
1.0
230
-0.0000000000000002
  0
LINE
  5
1B05C
  8
0
  6
CONTINUOUS
 62
     3
 10
-75.7000000000000455
 20
-70.4998957656649026
 30
0.0000000000000157
 11
0.0000000000000014
 21
-70.4998957656648741
 31
0.0000000000000157
210
-0.0000000000000002
220
1.0
230
-0.0000000000000002
  0
LINE
  5
1B05D
  8
0
  6
CONTINUOUS
 62
     3
 10
0.0000000000000261
 20
-70.4998957656648741
 30
0.0000000000000157
 11
75.7000000000000739
 21
-70.4998957656648741
 31
0.0000000000000157
210
-0.0000000000000002
220
1.0
230
-0.0000000000000002
  0
LINE
  5
1B05E
  8
0
  6
CONTINUOUS
 62
     3
 10
-75.7000000000000455
 20
-71.4998957656649026
 30
0.0000000000000159
 11
0.0000000000000017
 21
-71.4998957656648884
 31
0.0000000000000159
210
-0.0000000000000002
220
1.0
230
-0.0000000000000002
  0
LINE
  5
1B05F
  8
0
  6
CONTINUOUS
 62
     3
 10
0.0000000000000264
 20
-71.4998957656648884
 30
0.0000000000000159
 11
75.7000000000000739
 21
-71.4998957656648741
 31
0.0000000000000159
210
-0.0000000000000002
220
1.0
230
-0.0000000000000002
  0
LINE
  5
1B060
  8
0
  6
CONTINUOUS
 62
     3
 10
-73.5
 20
-73.699895765664948
 30
0.0000000000000164
 11
0.0000000000000022
 21
-73.6998957656649338
 31
0.0000000000000164
210
-0.0000000000000002
220
1.0
230
-0.0000000000000002
  0
LINE
  5
1B061
  8
0
  6
CONTINUOUS
 62
     3
 10
0.0000000000000244
 20
-73.6998957656649338
 30
0.0000000000000164
 11
73.5000000000000284
 21
-73.6998957656649196
 31
0.0000000000000164
210
-0.0000000000000002
220
1.0
230
-0.0000000000000002
  0
LINE
  5
1B062
  8
0
  6
CONTINUOUS
 62
     3
 10
-73.5
 20
-76.1893839890133648
 30
0.0000000000000169
 11
0.0000000000000027
 21
-76.1893839890133506
 31
0.0000000000000169
210
-0.0000000000000002
220
1.0
230
-0.0000000000000002
  0
LINE
  5
1B063
  8
0
  6
CONTINUOUS
 62
     3
 10
0.0000000000000251
 20
-76.1893839890133506
 30
0.0000000000000169
 11
73.5000000000000284
 21
-76.1893839890133364
 31
0.0000000000000169
210
-0.0000000000000002
220
1.0
230
-0.0000000000000002
  0
LINE
  5
1B064
  8
0
  6
CONTINUOUS
 62
     3
 10
-75.7000000000000455
 20
-79.9998957656649026
 30
0.0000000000000178
 11
0.0000000000000036
 21
-79.9998957656648884
 31
0.0000000000000178
210
-0.0000000000000002
220
1.0
230
-0.0000000000000002
  0
LINE
  5
1B065
  8
0
  6
CONTINUOUS
 62
     3
 10
0.0000000000000288
 20
-79.9998957656648884
 30
0.0000000000000178
 11
75.7000000000000739
 21
-79.9998957656648741
 31
0.0000000000000178
210
-0.0000000000000002
220
1.0
230
-0.0000000000000002
  0
LINE
  5
1B066
  8
0
  6
CONTINUOUS
 62
     3
 10
-64.4999999999998863
 20
-80.999895765664931
 30
0.000000000000018
 11
0.0000000000000038
 21
-80.9998957656649168
 31
0.000000000000018
210
-0.0000000000000002
220
1.0
230
-0.0000000000000002
  0
LINE
  5
1B067
  8
0
  6
CONTINUOUS
 62
     3
 10
0.000000000000031
 20
-80.9998957656649168
 30
0.000000000000018
 11
64.4999999999999147
 21
-80.9998957656649168
 31
0.000000000000018
210
-0.0000000000000002
220
1.0
230
-0.0000000000000002
  0
LINE
  5
1B068
  8
0
  6
CONTINUOUS
 62
     3
 10
-71.5000000000000711
 20
-50.0000000000003126
 30
0.0000000000000111
 11
-0.0000000000000031
 21
-50.0000000000002984
 31
0.0000000000000111
210
-0.0000000000000002
220
1.0
230
-0.0000000000000002
  0
LINE
  5
1B069
  8
0
  6
CONTINUOUS
 62
     3
 10
0.0000000000000117
 20
-50.0000000000002984
 30
0.0000000000000111
 11
71.5000000000000995
 21
-50.0000000000002771
 31
0.0000000000000111
210
-0.0000000000000002
220
1.0
230
-0.0000000000000002
  0
ARC
  5
1B06A
  8
0
  6
CONTINUOUS
 62
     3
 10
70.9999999999999858
 20
-57.9998957656649026
 30
0.0
 40
0.999999999999993
210
0.0
220
-0.0000000000000002
230
-1.0
 50
89.9999999999991758
 51
180.0000000000003979
  0
ARC
  5
1B06B
  8
0
  6
CONTINUOUS
 62
     3
 10
-71.0000000000000142
 20
-57.9998957656648599
 30
0.0
 40
0.9999999999999859
210
0.0
220
-0.0000000000000002
230
-1.0
 50
359.9999999999996021
 51
90.0000000000007958
  0
LINE
  5
1B06C
  8
0
  6
CONTINUOUS
 62
     3
 10
70.0000000000000284
 20
-57.999895765664867
 30
0.0000000000000129
 11
70.0000000000000284
 21
-58.9998957656648599
 31
0.0000000000000131
210
-0.0000000000000002
220
1.0
230
-0.0000000000000002
  0
LINE
  5
1B06D
  8
0
  6
CONTINUOUS
 62
     3
 10
-70.0
 20
-57.9998957656649097
 30
0.0000000000000129
 11
-70.0
 21
-58.9998957656649097
 31
0.0000000000000131
210
-0.0000000000000002
220
1.0
230
-0.0000000000000002
  0
ARC
  5
1B06E
  8
0
  6
CONTINUOUS
 62
     3
 10
70.9999999999999858
 20
-58.9998957656649168
 30
0.0
 40
0.9999999999999859
210
0.0
220
-0.0000000000000002
230
-1.0
 50
179.9999999999996021
 51
270.0000000000007958
  0
ARC
  5
1B06F
  8
0
  6
CONTINUOUS
 62
     3
 10
-71.0000000000000142
 20
-58.999895765664867
 30
0.0
 40
0.999999999999993
210
0.0
220
-0.0000000000000002
230
-1.0
 50
270.0
 51
0.0000000000012086
  0
LINE
  5
1B070
  8
0
  6
CONTINUOUS
 62
     3
 10
71.4801488286690585
 20
-59.999895765664867
 30
0.0000000000000133
 11
73.3000000000000398
 21
-64.9998957656648741
 31
0.0000000000000144
210
-0.0000000000000002
220
1.0
230
-0.0000000000000002
  0
LINE
  5
1B071
  8
0
  6
CONTINUOUS
 62
     3
 10
-71.4801488286690301
 20
-59.9998957656649097
 30
0.0000000000000133
 11
-73.3000000000000114
 21
-64.9998957656649026
 31
0.0000000000000144
210
-0.0000000000000002
220
1.0
230
-0.0000000000000002
  0
LINE
  5
1B072
  8
0
  6
CONTINUOUS
 62
     3
 10
73.3000000000000398
 20
-64.9998957656648741
 30
0.0000000000000144
 11
73.3000000000000398
 21
-68.0998957656648969
 31
0.0000000000000151
210
-0.0000000000000002
220
1.0
230
-0.0000000000000002
  0
LINE
  5
1B073
  8
0
  6
CONTINUOUS
 62
     3
 10
-73.3000000000000114
 20
-64.9998957656649026
 30
0.0000000000000144
 11
-73.3000000000000114
 21
-68.0998957656649253
 31
0.0000000000000151
210
-0.0000000000000002
220
1.0
230
-0.0000000000000002
  0
LINE
  5
1B074
  8
0
  6
CONTINUOUS
 62
     3
 10
73.3000000000000398
 20
-68.0998957656648969
 30
0.0000000000000151
 11
75.7000000000000739
 21
-70.4998957656648741
 31
0.0000000000000157
210
-0.0000000000000002
220
1.0
230
-0.0000000000000002
  0
LINE
  5
1B075
  8
0
  6
CONTINUOUS
 62
     3
 10
-73.3000000000000114
 20
-68.0998957656649253
 30
0.0000000000000151
 11
-75.7000000000000455
 21
-70.4998957656649026
 31
0.0000000000000157
210
-0.0000000000000002
220
1.0
230
-0.0000000000000002
  0
LINE
  5
1B076
  8
0
  6
CONTINUOUS
 62
     3
 10
75.7000000000000739
 20
-70.4998957656648741
 30
0.0000000000000157
 11
75.7000000000000739
 21
-71.4998957656648741
 31
0.0000000000000159
210
-0.0000000000000002
220
1.0
230
-0.0000000000000002
  0
LINE
  5
1B077
  8
0
  6
CONTINUOUS
 62
     3
 10
-75.7000000000000455
 20
-70.4998957656649026
 30
0.0000000000000157
 11
-75.7000000000000455
 21
-71.4998957656649026
 31
0.0000000000000159
210
-0.0000000000000002
220
1.0
230
-0.0000000000000002
  0
LINE
  5
1B078
  8
0
  6
CONTINUOUS
 62
     3
 10
-73.5
 20
-73.699895765664948
 30
0.0000000000000164
 11
-75.7000000000000455
 21
-71.4998957656649026
 31
0.0000000000000159
210
-0.0000000000000002
220
1.0
230
-0.0000000000000002
  0
LINE
  5
1B079
  8
0
  6
CONTINUOUS
 62
     3
 10
73.5000000000000284
 20
-73.6998957656649196
 30
0.0000000000000164
 11
75.7000000000000739
 21
-71.4998957656648741
 31
0.0000000000000159
210
-0.0000000000000002
220
1.0
230
-0.0000000000000002
  0
LINE
  5
1B07A
  8
0
  6
CONTINUOUS
 62
     3
 10
73.5000000000000284
 20
-73.6998957656649196
 30
0.0000000000000164
 11
73.5000000000000284
 21
-76.1893839890133364
 31
0.0000000000000169
210
-0.0000000000000002
220
1.0
230
-0.0000000000000002
  0
LINE
  5
1B07B
  8
0
  6
CONTINUOUS
 62
     3
 10
-73.5
 20
-73.699895765664948
 30
0.0000000000000164
 11
-73.5
 21
-76.1893839890133648
 31
0.0000000000000169
210
-0.0000000000000002
220
1.0
230
-0.0000000000000002
  0
LINE
  5
1B07C
  8
0
  6
CONTINUOUS
 62
     3
 10
73.5000000000000284
 20
-76.1893839890133364
 30
0.0000000000000169
 11
75.7000000000000739
 21
-79.9998957656648741
 31
0.0000000000000178
210
-0.0000000000000002
220
1.0
230
-0.0000000000000002
  0
LINE
  5
1B07D
  8
0
  6
CONTINUOUS
 62
     3
 10
-73.5
 20
-76.1893839890133648
 30
0.0000000000000169
 11
-75.7000000000000455
 21
-79.9998957656649026
 31
0.0000000000000178
210
-0.0000000000000002
220
1.0
230
-0.0000000000000002
  0
ARC
  5
1B07E
  8
0
  6
CONTINUOUS
 62
     3
 10
64.4999999999998863
 20
-74.999895765665002
 30
0.0
 40
5.9999999999999014
210
0.0
220
-0.0000000000000002
230
-1.0
 50
270.0
 51
303.5573097619209761
  0
ARC
  5
1B07F
  8
0
  6
CONTINUOUS
 62
     3
 10
-64.4999999999999147
 20
-74.9998957656649736
 30
0.0
 40
5.9999999999999041
210
0.0
220
-0.0000000000000002
230
-1.0
 50
236.4426902380789102
 51
270.0
  0
ARC
  5
1B080
  8
0
  6
CONTINUOUS
 62
     3
 10
71.4758400866410426
 20
-52.7998957656649281
 30
0.0
 40
2.8000000000000238
210
0.0
220
-0.0000000000000002
230
-1.0
 50
15.0000000000003393
 51
89.5056149120653259
  0
ARC
  5
1B081
  8
0
  6
CONTINUOUS
 62
     3
 10
-71.475840086641071
 20
-52.7998957656648926
 30
0.0
 40
2.8000000000000211
210
0.0
220
-0.0000000000000002
230
-1.0
 50
90.4943850879346172
 51
164.9999999999996021
  0
LINE
  5
1B082
  8
0
  6
CONTINUOUS
 62
     3
 10
74.1804324002504529
 20
-52.0752024393777972
 30
0.0000000000000116
 11
75.5000000000000284
 21
-56.999895765664867
 31
0.0000000000000127
210
-0.0000000000000002
220
1.0
230
-0.0000000000000002
  0
LINE
  5
1B083
  8
0
  6
CONTINUOUS
 62
     3
 10
-74.1804324002504245
 20
-52.075202439377847
 30
0.0000000000000116
 11
-75.5
 21
-56.9998957656649026
 31
0.0000000000000127
210
-0.0000000000000002
220
1.0
230
-0.0000000000000002
  0
LINE
  5
1B084
  8
0
  6
CONTINUOUS
 62
     3
 10
-70.6486699680783659
 20
50.9999999999997229
 30
-0.0000000000000113
 11
70.6486699680783232
 21
50.9999999999997726
 31
-0.0000000000000113
210
-0.0000000000000002
220
1.0
230
-0.0000000000000002
  0
LINE
  5
1B085
  8
0
  6
CONTINUOUS
 62
     3
 10
150.0
 20
69.9999999999998437
 30
-0.0000000000000155
 11
-150.0
 21
69.9999999999997016
 31
-0.0000000000000155
210
-0.0000000000000002
220
1.0
230
-0.0000000000000002
  0
LINE
  5
1B086
  8
0
  6
CONTINUOUS
 62
     3
 10
150.0
 20
70.999999999999801
 30
-0.0000000000000158
 11
150.0
 21
69.9999999999998153
 31
-0.0000000000000155
210
-0.0000000000000002
220
1.0
230
-0.0000000000000002
  0
LINE
  5
1B087
  8
0
  6
CONTINUOUS
 62
     3
 10
-150.0000000000001137
 20
70.9999999999997158
 30
-0.0000000000000158
 11
150.0
 21
70.999999999999801
 31
-0.0000000000000158
210
-0.0000000000000002
220
1.0
230
-0.0000000000000002
  0
LINE
  5
1B088
  8
0
  6
CONTINUOUS
 62
     3
 10
-150.0
 20
70.9999999999997158
 30
-0.0000000000000158
 11
-150.0
 21
69.9999999999997016
 31
-0.0000000000000155
210
-0.0000000000000002
220
1.0
230
-0.0000000000000002
  0
ARC
  5
1B089
  8
0
  6
CONTINUOUS
 62
     3
 10
77.5000000000000426
 20
66.49999999999973
 30
0.0
 40
3.5000000000000142
210
0.0
220
-0.0000000000000002
230
-1.0
 50
90.0000000000002132
 51
193.4862741335832084
  0
ARC
  5
1B08A
  8
0
  6
CONTINUOUS
 62
     3
 10
-77.5000000000000142
 20
66.4999999999997584
 30
0.0
 40
3.5000000000000129
210
0.0
220
-0.0000000000000002
230
-1.0
 50
346.5137258664166779
 51
89.9999999999997584
  0
ARC
  5
1B08B
  8
0
  6
CONTINUOUS
 62
     3
 10
59.8670964589290975
 20
62.2711817796134497
 30
0.0
 40
14.6329035410709292
210
0.0
220
-0.0000000000000002
230
-1.0
 50
333.9837874894092806
 51
13.4862741335834997
  0
ARC
  5
1B08C
  8
0
  6
CONTINUOUS
 62
     3
 10
-59.8670964589290335
 20
62.2711817796135065
 30
0.0
 40
14.6329035410709594
210
0.0
220
-0.0000000000000002
230
-1.0
 50
166.5137258664167064
 51
206.0162125105906057
  0
LINE
  5
1B08D
  8
0
  6
CONTINUOUS
 62
     3
 10
-70.6486699680783801
 20
50.9999999999997229
 30
-0.0000000000000113
 11
-73.0172474170768027
 21
55.8528178276227578
 31
-0.0000000000000124
210
-0.0000000000000002
220
1.0
230
-0.0000000000000002
  0
LINE
  5
1B08E
  8
0
  6
CONTINUOUS
 62
     3
 10
70.6486699680783516
 20
50.9999999999997726
 30
-0.0000000000000113
 11
73.0172474170767742
 21
55.8528178276228005
 31
-0.0000000000000124
210
-0.0000000000000002
220
1.0
230
-0.0000000000000002
  0
LINE
  5
1B08F
  8
0
  6
CONTINUOUS
 62
     3
 10
-72.0000000000485159
 20
72.99999999999973
 30
-0.0000000000000162
 11
72.0000000000484732
 21
72.9999999999997442
 31
-0.0000000000000162
210
-0.0000000000000002
220
1.0
230
-0.0000000000000002
  0
LINE
  5
1B090
  8
0
  6
CONTINUOUS
 62
     3
 10
-65.7000000000000028
 20
-0.0000000000003028
 30
0.0
 11
65.7000000000000028
 21
-0.0000000000002656
 31
0.0
210
-0.0000000000000002
220
1.0
230
-0.0000000000000002
  0
LINE
  5
1B091
  8
0
  6
CONTINUOUS
 62
     3
 10
-68.4246378256498957
 20
48.2017394338644465
 30
-0.0000000000000107
 11
-69.5194308710117639
 21
50.99999999999973
 31
-0.0000000000000113
210
-0.0000000000000002
220
1.0
230
-0.0000000000000002
  0
LINE
  5
1B092
  8
0
  6
CONTINUOUS
 62
     3
 10
68.4246378256498673
 20
48.2017394338644891
 30
-0.0000000000000107
 11
69.5194308710117497
 21
50.9999999999997584
 31
-0.0000000000000113
210
-0.0000000000000002
220
1.0
230
-0.0000000000000002
  0
ARC
  5
1B093
  8
0
  6
CONTINUOUS
 62
     3
 10
94.50000000000054
 20
37.9999999999995879
 30
0.0
 40
28.0000000000005187
210
0.0
220
-0.0000000000000002
230
-1.0
 50
158.6325470100904909
 51
179.9999999999996874
  0
ARC
  5
1B094
  8
0
  6
CONTINUOUS
 62
     3
 10
-94.5000000000001137
 20
37.9999999999997513
 30
0.0
 40
28.0000000000001101
210
0.0
220
-0.0000000000000002
230
-1.0
 50
0.0
 51
21.3674529899094594
  0
LINE
  5
1B095
  8
0
  6
CONTINUOUS
 62
     3
 10
72.0000000000485016
 20
72.9999999999997442
 30
-0.0000000000000162
 11
72.0000000000485016
 21
70.9999999999997726
 31
-0.0000000000000158
210
-0.0000000000000002
220
1.0
230
-0.0000000000000002
  0
LINE
  5
1B096
  8
0
  6
CONTINUOUS
 62
     3
 10
-72.0000000000485301
 20
72.99999999999973
 30
-0.0000000000000162
 11
-72.0000000000485301
 21
70.9999999999997442
 31
-0.0000000000000158
210
-0.0000000000000002
220
1.0
230
-0.0000000000000002
  0
ARC
  5
1B097
  8
0
  6
CONTINUOUS
 62
     3
 10
65.5000000000049312
 20
8.0498756211203002
 30
0.0
 40
0.9999999999950832
210
0.0
220
-0.0000000000000002
230
-1.0
 50
354.2894068624837018
 51
0.0000000000114882
  0
ARC
  5
1B098
  8
0
  6
CONTINUOUS
 62
     3
 10
-65.5000000000049596
 20
8.0498756211203357
 30
0.0
 40
0.9999999999950548
210
0.0
220
-0.0000000000000002
230
-1.0
 50
179.9999999999884039
 51
185.7105931375162129
  0
LINE
  5
1B099
  8
0
  6
CONTINUOUS
 62
     3
 10
66.5
 20
37.9999999999997371
 30
-0.0000000000000084
 11
66.5000000000000142
 21
8.0498756211205382
 31
-0.0000000000000018
210
-0.0000000000000002
220
1.0
230
-0.0000000000000002
  0
LINE
  5
1B09A
  8
0
  6
CONTINUOUS
 62
     3
 10
-66.5000000000000284
 20
37.9999999999997016
 30
-0.0000000000000084
 11
-66.5000000000000142
 21
8.0498756211205027
 31
-0.0000000000000018
210
-0.0000000000000002
220
1.0
230
-0.0000000000000002
  0
LINE
  5
1B09B
  8
0
  6
CONTINUOUS
 62
     3
 10
-65.7000000000000171
 20
-0.0000000000003037
 30
0.0
 11
-66.4950371902099988
 21
7.9503719020995023
 31
-0.0000000000000018
210
-0.0000000000000002
220
1.0
230
-0.0000000000000002
  0
LINE
  5
1B09C
  8
0
  6
CONTINUOUS
 62
     3
 10
65.7000000000000171
 20
-0.0000000000002665
 30
0.0
 11
66.4950371902099988
 21
7.9503719020995414
 31
-0.0000000000000018
210
-0.0000000000000002
220
1.0
230
-0.0000000000000002
  0
LINE
  5
1B09D
  8
0
  6
VERDECKT
 62
     1
 10
-70.7000000000000455
 20
-76.9998957656649026
 30
0.0000000000000171
 11
0.0000000000000029
 21
-76.9998957656648884
 31
0.0000000000000171
210
-0.0000000000000002
220
1.0
230
-0.0000000000000002
  0
LINE
  5
1B09E
  8
0
  6
VERDECKT
 62
     1
 10
0.0000000000000246
 20
-76.9998957656648884
 30
0.0000000000000171
 11
70.7000000000000739
 21
-76.9998957656648741
 31
0.0000000000000171
210
-0.0000000000000002
220
1.0
230
-0.0000000000000002
  0
LINE
  5
1B09F
  8
0
  6
VERDECKT
 62
     1
 10
-61.4999999999999929
 20
-78.9998957656649026
 30
0.0000000000000175
 11
0.0000000000000104
 21
-78.9998957656648884
 31
0.0000000000000175
210
-0.0000000000000002
220
1.0
230
-0.0000000000000002
  0
LINE
  5
1B0A0
  8
0
  6
VERDECKT
 62
     1
 10
0.0000000000000267
 20
-78.9998957656648884
 30
0.0000000000000175
 11
61.5000000000000284
 21
-78.9998957656648741
 31
0.0000000000000175
210
-0.0000000000000002
220
1.0
230
-0.0000000000000002
  0
LINE
  5
1B0A1
  8
0
  6
VERDECKT
 62
     1
 10
70.7000000000000739
 20
-76.9998957656648741
 30
0.0000000000000171
 11
73.7000000000000739
 21
-79.9998957656648741
 31
0.0000000000000178
210
-0.0000000000000002
220
1.0
230
-0.0000000000000002
  0
LINE
  5
1B0A2
  8
0
  6
VERDECKT
 62
     1
 10
-70.7000000000000455
 20
-76.9998957656649026
 30
0.0000000000000171
 11
-73.7000000000000455
 21
-79.9998957656649026
 31
0.0000000000000178
210
-0.0000000000000002
220
1.0
230
-0.0000000000000002
  0
ARC
  5
1B0A3
  8
0
  6
VERDECKT
 62
     1
 10
64.4999999999997442
 20
-74.9998957656648884
 30
0.0
 40
6.000000000000079
210
0.0
220
-0.0000000000000002
230
-1.0
 50
303.5573097619216014
 51
340.5287793655097062
  0
ARC
  5
1B0A4
  8
0
  6
VERDECKT
 62
     1
 10
-64.4999999999997726
 20
-74.9998957656648599
 30
0.0
 40
6.000000000000079
210
0.0
220
-0.0000000000000002
230
-1.0
 50
199.4712206344902086
 51
236.4426902380783986
  0
LINE
  5
1B0A5
  8
0
  6
VERDECKT
 62
     1
 10
61.5000000000000284
 20
-78.9998957656648741
 30
0.0000000000000175
 11
61.5000000000000284
 21
-80.9998957656648884
 31
0.000000000000018
210
-0.0000000000000002
220
1.0
230
-0.0000000000000002
  0
LINE
  5
1B0A6
  8
0
  6
VERDECKT
 62
     1
 10
-61.5
 20
-78.9998957656649026
 30
0.0000000000000175
 11
-61.4999999999999929
 21
-80.9998957656649168
 31
0.000000000000018
210
-0.0000000000000002
220
1.0
230
-0.0000000000000002
  0
ARC
  5
1B0A7
  8
0
  6
VERDECKT
 62
     1
 10
61.5000000000000213
 20
-72.9998957656649168
 30
0.0
 40
5.9999999999999858
210
0.0
220
-0.0000000000000002
230
-1.0
 50
270.0
 51
0.0000000000003308
  0
ARC
  5
1B0A8
  8
0
  6
VERDECKT
 62
     1
 10
-61.5000000000000497
 20
-72.9998957656648741
 30
0.0
 40
5.9999999999999787
210
0.0
220
-0.0000000000000002
230
-1.0
 50
179.999999999999801
 51
270.0000000000002274
  0
LINE
  5
1B0A9
  8
0
  6
VERDECKT
 62
     1
 10
67.5000000000000284
 20
-56.999895765664867
 30
0.0000000000000127
 11
67.5000000000000284
 21
-72.9998957656648741
 31
0.0000000000000162
210
-0.0000000000000002
220
1.0
230
-0.0000000000000002
  0
LINE
  5
1B0AA
  8
0
  6
VERDECKT
 62
     1
 10
-67.5
 20
-56.9998957656649026
 30
0.0000000000000127
 11
-67.5
 21
-72.9998957656649026
 31
0.0000000000000162
210
-0.0000000000000002
220
1.0
230
-0.0000000000000002
  0
LINE
  5
1B0AB
  8
0
  6
VERDECKT
 62
     1
 10
-67.5
 20
-56.9998957656649026
 30
0.0000000000000127
 11
-68.8195675997495044
 21
-52.0752024393778683
 31
0.0000000000000116
210
-0.0000000000000002
220
1.0
230
-0.0000000000000002
  0
LINE
  5
1B0AC
  8
0
  6
VERDECKT
 62
     1
 10
67.5000000000000284
 20
-56.999895765664867
 30
0.0000000000000127
 11
68.8195675997495329
 21
-52.0752024393778328
 31
0.0000000000000116
210
-0.0000000000000002
220
1.0
230
-0.0000000000000002
  0
ARC
  5
1B0AD
  8
0
  6
VERDECKT
 62
     1
 10
71.5241599133589148
 20
-52.7998957656649424
 30
0.0
 40
2.8000000000000269
210
0.0
220
-0.0000000000000002
230
-1.0
 50
90.494385087931164
 51
165.0
  0
ARC
  5
1B0AE
  8
0
  6
VERDECKT
 62
     1
 10
-71.5241599133589574
 20
-52.7998957656648997
 30
0.0
 40
2.800000000000034
210
0.0
220
-0.0000000000000002
230
-1.0
 50
14.9999999999999893
 51
89.5056149120688076
  0
LINE
  5
1B0AF
  8
0
  6
VERDECKT
 62
     1
 10
-69.7500000000000426
 20
51.4386254535179432
 30
-0.0000000000000114
 11
69.7499999999999858
 21
51.4386254535179788
 31
-0.0000000000000114
210
-0.0000000000000002
220
1.0
230
-0.0000000000000002
  0
LINE
  5
1B0B0
  8
0
  6
VERDECKT
 62
     1
 10
69.75
 20
51.4386254535179788
 30
-0.0000000000000114
 11
70.6486699680783516
 21
50.9999999999997726
 31
-0.0000000000000113
210
-0.0000000000000002
220
1.0
230
-0.0000000000000002
  0
LINE
  5
1B0B1
  8
0
  6
VERDECKT
 62
     1
 10
-69.7500000000000284
 20
51.4386254535179432
 30
-0.0000000000000114
 11
-70.6486699680783801
 21
50.9999999999997229
 31
-0.0000000000000113
210
-0.0000000000000002
220
1.0
230
-0.0000000000000002
  0
LINE
  5
1B0B2
  8
0
  6
VERDECKT
 62
     1
 10
-69.7500000000000284
 20
51.4386254535179432
 30
-0.0000000000000114
 11
-72.118577448998451
 21
56.2914432811409995
 31
-0.0000000000000125
210
-0.0000000000000002
220
1.0
230
-0.0000000000000002
  0
LINE
  5
1B0B3
  8
0
  6
VERDECKT
 62
     1
 10
69.75
 20
51.4386254535179788
 30
-0.0000000000000114
 11
72.1185774489984226
 21
56.2914432811410421
 31
-0.0000000000000125
210
-0.0000000000000002
220
1.0
230
-0.0000000000000002
  0
ARC
  5
1B0B4
  8
0
  6
VERDECKT
 62
     1
 10
59.8670964589291685
 20
62.2711817796134568
 30
0.0
 40
13.6329035410708705
210
0.0
220
-0.0000000000000002
230
-1.0
 50
333.9837874894092238
 51
13.4862741335836098
  0
ARC
  5
1B0B5
  8
0
  6
VERDECKT
 62
     1
 10
-59.8670964589290691
 20
62.271181779613471
 30
0.0
 40
13.6329035410709292
210
0.0
220
-0.0000000000000002
230
-1.0
 50
166.5137258664163085
 51
206.016212510590492
  0
ARC
  5
1B0B6
  8
0
  6
VERDECKT
 62
     1
 10
77.5000000000000142
 20
66.4999999999997584
 30
0.0
 40
4.4999999999999858
210
0.0
220
-0.0000000000000002
230
-1.0
 50
89.9999999999998153
 51
193.4862741335834926
  0
ARC
  5
1B0B7
  8
0
  6
VERDECKT
 62
     1
 10
-77.4999999999999858
 20
66.4999999999997868
 30
0.0
 40
4.4999999999999858
210
0.0
220
-0.0000000000000002
230
-1.0
 50
346.5137258664165074
 51
90.0000000000001847
  0
LINE
  5
1B0B8
  8
0
  6
VERDECKT
 62
     1
 10
-134.0000000000001137
 20
69.9999999999996305
 30
-0.0000000000000155
 11
-134.0000000000001137
 21
70.9999999999997158
 31
-0.0000000000000158
210
-0.0000000000000002
220
1.0
230
-0.0000000000000002
  0
LINE
  5
1B0B9
  8
0
  6
VERDECKT
 62
     1
 10
-126.0
 20
69.9999999999996305
 30
-0.0000000000000155
 11
-126.0
 21
70.9999999999997158
 31
-0.0000000000000158
210
-0.0000000000000002
220
1.0
230
-0.0000000000000002
  0
LINE
  5
1B0BA
  8
0
  6
VERDECKT
 62
     1
 10
126.0
 20
69.9999999999996732
 30
-0.0000000000000155
 11
126.0
 21
70.9999999999997726
 31
-0.0000000000000158
210
-0.0000000000000002
220
1.0
230
-0.0000000000000002
  0
LINE
  5
1B0BB
  8
0
  6
VERDECKT
 62
     1
 10
133.9999999999998863
 20
69.9999999999996732
 30
-0.0000000000000155
 11
133.9999999999998863
 21
70.9999999999997726
 31
-0.0000000000000158
210
-0.0000000000000002
220
1.0
230
-0.0000000000000002
  0
LINE
  5
1B0BC
  8
0
  6
VERDECKT
 62
     1
 10
-63.7099256195317807
 20
0.1990074380465232
 30
0.0
 11
63.7099256195317594
 21
0.1990074380465594
 31
0.0
210
-0.0000000000000002
220
1.0
230
-0.0000000000000002
  0
ARC
  5
1B0BD
  8
0
  6
VERDECKT
 62
     1
 10
41.9999999999996092
 20
62.9999999999998224
 30
0.0
 40
30.0000000000004192
210
0.0
220
-0.0000000000000002
230
-1.0
 50
338.6325470100906045
 51
359.9999999999997726
  0
ARC
  5
1B0BE
  8
0
  6
VERDECKT
 62
     1
 10
-42.0000000000000497
 20
62.9999999999997229
 30
0.0
 40
29.9999999999999289
210
0.0
220
-0.0000000000000002
230
-1.0
 50
179.9999999999998863
 51
201.3674529899093955
  0
LINE
  5
1B0BF
  8
0
  6
VERDECKT
 62
     1
 10
-69.5194308710117639
 20
50.99999999999973
 30
-0.0000000000000113
 11
-69.937888043946586
 21
52.0695648922875094
 31
-0.0000000000000116
210
-0.0000000000000002
220
1.0
230
-0.0000000000000002
  0
LINE
  5
1B0C0
  8
0
  6
VERDECKT
 62
     1
 10
69.5194308710117497
 20
50.9999999999997584
 30
-0.0000000000000113
 11
69.9378880439465576
 21
52.0695648922875591
 31
-0.0000000000000116
210
-0.0000000000000002
220
1.0
230
-0.0000000000000002
  0
ARC
  5
1B0C1
  8
0
  6
VERDECKT
 62
     1
 10
94.5000000000002842
 20
37.99999999999973
 30
0.0
 40
30.00000000000027
210
0.0
220
-0.0000000000000002
230
-1.0
 50
158.6325470100904909
 51
180.0
  0
ARC
  5
1B0C2
  8
0
  6
VERDECKT
 62
     1
 10
-94.4999999999993037
 20
37.9999999999999503
 30
0.0
 40
29.9999999999993108
210
0.0
220
-0.0000000000000002
230
-1.0
 50
0.0
 51
21.3674529899101202
  0
LINE
  5
1B0C3
  8
0
  6
VERDECKT
 62
     1
 10
-66.5621119560534709
 20
48.9304351077119577
 30
-0.0000000000000109
 11
-68.0753621743501611
 21
52.7982605661350135
 31
-0.0000000000000117
210
-0.0000000000000002
220
1.0
230
-0.0000000000000002
  0
LINE
  5
1B0C4
  8
0
  6
VERDECKT
 62
     1
 10
66.5621119560534424
 20
48.9304351077120003
 30
-0.0000000000000109
 11
68.0753621743501327
 21
52.798260566135049
 31
-0.0000000000000117
210
-0.0000000000000002
220
1.0
230
-0.0000000000000002
  0
ARC
  5
1B0C5
  8
0
  6
VERDECKT
 62
     1
 10
42.0000000000003197
 20
62.9999999999997087
 30
0.0
 40
27.9999999999997087
210
0.0
220
-0.0000000000000002
230
-1.0
 50
338.6325470100903203
 51
0.0000000000000636
  0
ARC
  5
1B0C6
  8
0
  6
VERDECKT
 62
     1
 10
-41.9999999999999432
 20
62.9999999999997584
 30
0.0
 40
28.0000000000000391
210
0.0
220
-0.0000000000000002
230
-1.0
 50
180.0
 51
201.3674529899095091
  0
LINE
  5
1B0C7
  8
0
  6
VERDECKT
 62
     1
 10
70.0
 20
72.9999999999997442
 30
-0.0000000000000162
 11
70.0
 21
62.9999999999997797
 31
-0.000000000000014
210
-0.0000000000000002
220
1.0
230
-0.0000000000000002
  0
LINE
  5
1B0C8
  8
0
  6
VERDECKT
 62
     1
 10
-70.0000000000000284
 20
72.99999999999973
 30
-0.0000000000000162
 11
-70.0000000000000284
 21
62.9999999999997371
 31
-0.000000000000014
210
-0.0000000000000002
220
1.0
230
-0.0000000000000002
  0
LINE
  5
1B0C9
  8
0
  6
VERDECKT
 62
     1
 10
72.0000000000485016
 20
70.9999999999997726
 30
-0.0000000000000158
 11
72.0000000000485016
 21
62.9999999999997726
 31
-0.000000000000014
210
-0.0000000000000002
220
1.0
230
-0.0000000000000002
  0
LINE
  5
1B0CA
  8
0
  6
VERDECKT
 62
     1
 10
-72.0000000000485301
 20
70.9999999999997442
 30
-0.0000000000000158
 11
-72.0000000000485301
 21
62.99999999999973
 31
-0.000000000000014
210
-0.0000000000000002
220
1.0
230
-0.0000000000000002
  0
ARC
  5
1B0CB
  8
0
  6
VERDECKT
 62
     1
 10
63.4999999999806803
 20
8.1496268636070095
 30
0.0
 40
0.999999999995076
210
0.0
220
-0.0000000000000002
230
-1.0
 50
354.2894068624837018
 51
0.0000000000115009
  0
ARC
  5
1B0CC
  8
0
  6
VERDECKT
 62
     1
 10
-63.499999999980723
 20
8.1496268636070468
 30
0.0
 40
0.9999999999950405
210
0.0
220
-0.0000000000000002
230
-1.0
 50
179.9999999999886029
 51
185.7105931375164118
  0
LINE
  5
1B0CD
  8
0
  6
VERDECKT
 62
     1
 10
-63.7099256195317807
 20
0.1990074380465218
 30
0.0
 11
-64.4950371901857409
 21
8.0501231445862107
 31
-0.0000000000000018
210
-0.0000000000000002
220
1.0
230
-0.0000000000000002
  0
LINE
  5
1B0CE
  8
0
  6
VERDECKT
 62
     1
 10
63.7099256195317807
 20
0.1990074380465581
 30
0.0
 11
64.4950371901857409
 21
8.0501231445862498
 31
-0.0000000000000018
210
-0.0000000000000002
220
1.0
230
-0.0000000000000002
  0
LINE
  5
1B0CF
  8
0
  6
VERDECKT
 62
     1
 10
64.4999999999757421
 20
37.9999999999997726
 30
-0.0000000000000084
 11
64.4999999999757563
 21
8.1496268636072458
 31
-0.0000000000000018
210
-0.0000000000000002
220
1.0
230
-0.0000000000000002
  0
LINE
  5
1B0D0
  8
0
  6
VERDECKT
 62
     1
 10
-64.4999999999757705
 20
37.9999999999997229
 30
-0.0000000000000084
 11
-64.4999999999757563
 21
8.1496268636072102
 31
-0.0000000000000018
210
-0.0000000000000002
220
1.0
230
-0.0000000000000002
  0
LINE
  5
1B0D1
  8
0
  6
VERDECKT
 62
     1
 10
63.7099256195317665
 20
0.1990074380465551
 30
0.0
 11
65.7000000000000171
 21
-0.0000000000002687
 31
0.0
210
-0.0000000000000002
220
1.0
230
-0.0000000000000002
  0
LINE
  5
1B0D2
  8
0
  6
VERDECKT
 62
     1
 10
-63.7099256195317665
 20
0.199007438046519
 30
0.0
 11
-65.7000000000000171
 21
-0.0000000000003059
 31
0.0
210
-0.0000000000000002
220
1.0
230
-0.0000000000000002
  0
ENDBLK
  5
1B0D4
  8
0
  0
ENDSEC
  0
SECTION
  2
ENTITIES
  0
TEXT
  5
416B
  8
VOLL
 10
441.2467849443549994
 20
195.2108867802037935
 30
0.0
 40
1.8
  1

  7
GREEKS
  0
INSERT
  5
46F1
  8
ADSK_ASSOC_ENTITY_BACKUPS
  2
*S0
 10
0.0
 20
0.0
 30
0.0
  0
INSERT
  5
1B02F
  8
STEMPEL
  2
A$CAA7EF5AD
 10
0.0
 20
0.0
 30
0.0
  0
INSERT
  5
1B051
  8
STEMPEL
  2
A$CCD3244F4
 10
-0.0000000000001348
 20
-280.9998957656649168
 30
0.000000000000018
  0
INSERT
  5
1B0D5
  8
STEMPEL
  2
A$C6B5B449A
 10
500.0
 20
0.0000000000000142
 30
0.0
  0
VIEWPORT
  5
46D0
 67
     1
  8
0
 10
297.0090241663763777
 20
210.0082016095992117
 30
0.0
 40
798.1701256077442395
 41
426.3698209718668863
 68
     1
 69
     1
1001
ACAD
1000
MVIEW
1002
{
1070
    16
1010
0.0
1020
0.0
1030
0.0
1010
0.0
1020
0.0
1030
1.0
1040
0.0
1040
426.3698209718668863
1040
297.0090241663763777
1040
210.0082016095992117
1040
50.0
1040
0.0
1040
0.0
1070
     0
1070
  1500
1070
     1
1070
     1
1070
     0
1070
     0
1070
     0
1070
     0
1040
0.0
1040
0.0
1040
0.0
1040
10.0
1040
10.0
1040
10.0
1040
10.0
1070
     0
1002
{
1002
}
1002
}
  0
ENDSEC
  0
EOF
