  0
SECTION
  2
HEADER
  9
$ACADVER
  1
AC1009
  9
$INSBASE
 10
0.0
 20
0.0
 30
0.0
  9
$EXTMIN
 10
-122.5
 20
-422.0000000000002274
 30
-0.0000000000000509
  9
$EXTMAX
 10
645.0
 20
70.0000000000029843
 30
0.0000000000000257
  9
$LIMMIN
 10
-6.3026306863970367
 20
156.4849571243454989
  9
$LIMMAX
 10
833.6973693136029624
 20
750.484957124345442
  9
$ORTHOMODE
 70
     1
  9
$REGENMODE
 70
     1
  9
$FILLMODE
 70
     1
  9
$QTEXTMODE
 70
     0
  9
$MIRRTEXT
 70
     1
  9
$DRAGMODE
 70
     2
  9
$LTSCALE
 40
10.0
  9
$OSMODE
 70
   511
  9
$ATTMODE
 70
     1
  9
$TEXTSIZE
 40
3.5
  9
$TRACEWID
 40
1.0
  9
$TEXTSTYLE
  7
STANDARD
  9
$CLAYER
  8
STEMPEL
  9
$CELTYPE
  6
BYLAYER
  9
$CECOLOR
 62
   256
  9
$DIMSCALE
 40
1.0
  9
$DIMASZ
 40
3.5
  9
$DIMEXO
 40
1.0
  9
$DIMDLI
 40
0.38
  9
$DIMRND
 40
0.0
  9
$DIMDLE
 40
0.0
  9
$DIMEXE
 40
1.0
  9
$DIMTP
 40
0.0
  9
$DIMTM
 40
0.000000001
  9
$DIMTXT
 40
3.5
  9
$DIMCEN
 40
0.09
  9
$DIMTSZ
 40
0.0
  9
$DIMTOL
 70
     0
  9
$DIMLIM
 70
     0
  9
$DIMTIH
 70
     0
  9
$DIMTOH
 70
     0
  9
$DIMSE1
 70
     0
  9
$DIMSE2
 70
     0
  9
$DIMTAD
 70
     1
  9
$DIMZIN
 70
     8
  9
$DIMBLK
  1

  9
$DIMASO
 70
     1
  9
$DIMSHO
 70
     0
  9
$DIMPOST
  1

  9
$DIMAPOST
  1

  9
$DIMALT
 70
     0
  9
$DIMALTD
 70
     2
  9
$DIMALTF
 40
25.3999999999999986
  9
$DIMLFAC
 40
2.0
  9
$DIMTOFL
 70
     1
  9
$DIMTVP
 40
0.0
  9
$DIMTIX
 70
     0
  9
$DIMSOXD
 70
     1
  9
$DIMSAH
 70
     0
  9
$DIMBLK1
  1

  9
$DIMBLK2
  1

  9
$DIMSTYLE
  2
LORO
  9
$DIMCLRD
 70
     0
  9
$DIMCLRE
 70
     0
  9
$DIMCLRT
 70
     1
  9
$DIMTFAC
 40
0.5
  9
$DIMGAP
 40
1.5
  9
$LUNITS
 70
     2
  9
$LUPREC
 70
     2
  9
$SKETCHINC
 40
1.0
  9
$FILLETRAD
 40
0.5
  9
$AUNITS
 70
     0
  9
$AUPREC
 70
     0
  9
$MENU
  1
ACAD
  9
$ELEVATION
 40
0.0
  9
$PELEVATION
 40
0.0
  9
$THICKNESS
 40
0.0
  9
$LIMCHECK
 70
     0
  9
$BLIPMODE
 70
     0
  9
$CHAMFERA
 40
20.0
  9
$CHAMFERB
 40
20.0
  9
$SKPOLY
 70
     0
  9
$TDCREATE
 40
2455397.867048610933125
  9
$TDUPDATE
 40
2459710.6293981480412185
  9
$TDINDWG
 40
0.5092683681
  9
$TDUSRTIMER
 40
0.5092683681
  9
$USRTIMER
 70
     1
  9
$ANGBASE
 50
0.0
  9
$ANGDIR
 70
     0
  9
$PDMODE
 70
     0
  9
$PDSIZE
 40
0.0
  9
$PLINEWID
 40
0.0
  9
$COORDS
 70
     1
  9
$SPLFRAME
 70
     0
  9
$SPLINETYPE
 70
     6
  9
$SPLINESEGS
 70
     8
  9
$ATTDIA
 70
     1
  9
$ATTREQ
 70
     1
  9
$HANDLING
 70
     1
  9
$HANDSEED
  5
5D7D
  9
$SURFTAB1
 70
     6
  9
$SURFTAB2
 70
     6
  9
$SURFTYPE
 70
     6
  9
$SURFU
 70
     6
  9
$SURFV
 70
     6
  9
$UCSNAME
  2

  9
$UCSORG
 10
0.0
 20
0.0
 30
0.0
  9
$UCSXDIR
 10
1.0
 20
0.0
 30
0.0
  9
$UCSYDIR
 10
0.0
 20
1.0
 30
0.0
  9
$PUCSNAME
  2

  9
$PUCSORG
 10
0.0
 20
0.0
 30
0.0
  9
$PUCSXDIR
 10
1.0
 20
0.0
 30
0.0
  9
$PUCSYDIR
 10
0.0
 20
1.0
 30
0.0
  9
$USERI1
 70
     0
  9
$USERI2
 70
     0
  9
$USERI3
 70
     0
  9
$USERI4
 70
     0
  9
$USERI5
 70
     0
  9
$USERR1
 40
0.0
  9
$USERR2
 40
0.0
  9
$USERR3
 40
0.0
  9
$USERR4
 40
0.0
  9
$USERR5
 40
0.0
  9
$WORLDVIEW
 70
     1
  9
$SHADEDGE
 70
     3
  9
$SHADEDIF
 70
    70
  9
$TILEMODE
 70
     1
  9
$MAXACTVP
 70
    16
  9
$PLIMCHECK
 70
     0
  9
$PEXTMIN
 10
1.0000000000000000E+20
 20
1.0000000000000000E+20
 30
1.0000000000000000E+20
  9
$PEXTMAX
 10
-1.0000000000000000E+20
 20
-1.0000000000000000E+20
 30
-1.0000000000000000E+20
  9
$PLIMMIN
 10
-2.9628666851754168
 20
-2.1045854173510001
  9
$PLIMMAX
 10
596.9771333148246413
 20
422.0954145826489139
  9
$UNITMODE
 70
     0
  9
$VISRETAIN
 70
     0
  9
$PLINEGEN
 70
     0
  9
$PSLTSCALE
 70
     0
  0
ENDSEC
  0
SECTION
  2
TABLES
  0
TABLE
  2
VPORT
 70
     1
  0
VPORT
  2
*ACTIVE
 70
     0
 10
0.0
 20
0.0
 11
1.0
 21
1.0
 12
-14.6161134388182408
 22
-7.9624446248942604
 13
0.0
 23
0.0
 14
1.0
 24
1.0
 15
2.0
 25
2.0
 16
0.0000000000001137
 26
0.0
 36
402.5909126468250179
 17
275.8661134388182177
 27
-168.0375553751044038
 37
-0.0000000000000079
 40
494.5166240409238867
 41
1.8720136518771331
 42
50.0
 43
0.0
 44
0.0
 50
0.0
 51
0.0
 71
     0
 72
  1500
 73
     1
 74
     1
 75
     0
 76
     0
 77
     0
 78
     0
  0
ENDTAB
  0
TABLE
  2
LTYPE
 70
     3
  0
LTYPE
  2
CONTINUOUS
 70
     0
  3
Solid line
 72
    65
 73
     0
 40
0.0
  0
LTYPE
  2
STRICHPUNKT
 70
     0
  3
__ . __ . __ . __ . __ . __ . __ . __ . __ . __
 72
    65
 73
     4
 40
1.0
 49
0.5
 49
-0.25
 49
0.0
 49
-0.25
  0
LTYPE
  2
VERDECKT
 70
     0
  3
Verdeckt __ __ __ __ __ __ __ __ __ __ __ __ __
 72
    65
 73
     2
 40
0.375
 49
0.25
 49
-0.125
  0
ENDTAB
  0
TABLE
  2
LAYER
 70
     7
  0
LAYER
  2
0
 70
     0
 62
     7
  6
CONTINUOUS
  0
LAYER
  2
STEMPEL
 70
     0
 62
     3
  6
CONTINUOUS
  0
LAYER
  2
TEXT
 70
     0
 62
     7
  6
CONTINUOUS
  0
LAYER
  2
DEFPOINTS
 70
     0
 62
     7
  6
CONTINUOUS
  0
LAYER
  2
ADSK_ASSOC_ENTITY_BACKUPS
 70
     1
 62
    -7
  6
CONTINUOUS
  0
ENDTAB
  0
TABLE
  2
STYLE
 70
     3
  0
STYLE
  2
STANDARD
 70
     0
 40
0.0
 41
0.8
 50
0.0
 71
     0
 42
3.5
  3
simplex.shx
  4

  0
STYLE
  2
GREEKS
 70
     0
 40
0.0
 41
0.8
 50
0.0
 71
     0
 42
2.5
  3
SIMPLEX.shx
  4

  0
ENDTAB
  0
TABLE
  2
VIEW
 70
     0
  0
ENDTAB
  0
TABLE
  2
UCS
 70
     0
  0
ENDTAB
  0
TABLE
  2
APPID
 70
    31
  0
APPID
  2
ACAD
 70
     0
  0
APPID
  2
ACAD_DSTYLE_DIMARC_LENGTH_
 70
     0
  0
APPID
  2
ACAD_DSTYLE_DIM_LINETYPE
 70
     0
  0
APPID
  2
ACAD_DSTYLE_DIM_EXT1_LINETYPE
 70
     0
  0
APPID
  2
ACAD_DSTYLE_DIM_EXT2_LINETYPE
 70
     0
  0
APPID
  2
ACAD_EXEMPT_FROM_CAD_STANDARDS
 70
     0
  0
APPID
  2
ACAD_MLEADERVER
 70
     0
  0
APPID
  2
ACAD_DSTYLE_DIMRADIAL_EXTENSION
 70
     0
  0
APPID
  2
ACAECLAYERSTANDARD
 70
     0
  0
APPID
  2
ACCMTRANSPARENCY
 70
     0
  0
APPID
  2
ACAD_NAV_VCDISPLAY
 70
     0
  0
APPID
  2
ACAD_PSEXT
 70
     0
  0
APPID
  2
ACSYNERGY
 70
     0
  0
APPID
  2
SYNERGY_BODY_TBR_ID
 70
     0
  0
APPID
  2
ACAD_VIEW_EDGE_ID
 70
     0
  0
APPID
  2
ACSYNERGYSKETCH
 70
     0
  0
APPID
  2
ACAD_MODELDOC_XFORM
 70
     0
  0
APPID
  2
GRADIENTCOLOR1ACI
 70
     0
  0
APPID
  2
GRADIENTCOLOR2ACI
 70
     0
  0
APPID
  2
ACADANNOMONITORALERTICONDI
 70
     0
  0
APPID
  2
ACAD_STEPID
 70
     0
  0
APPID
  2
ACAD_DIMASSOC_CALC_DIMLFAC
 70
     0
  0
APPID
  2
ACAD_DIMASSOC_DIMLFAC
 70
     0
  0
APPID
  2
ACAD_DIMASSOC_OVERRIDDEN_D
 70
     0
  0
APPID
  2
ACAD_DSTYLE_DIMJAG
 70
     0
  0
APPID
  2
ACAD_DSTYLE_DIMTALN
 70
     0
  0
APPID
  2
ACDBDYNAMICBLOCKGUID
 70
     0
  0
APPID
  2
ACADANNOPO
 70
     0
  0
APPID
  2
ACAD_DSTYLE_DIMBREAK
 70
     0
  0
APPID
  2
ACAD_TC
 70
     0
  0
APPID
  2
PLOTTRANSPARENCY
 70
     0
  0
ENDTAB
  0
TABLE
  2
DIMSTYLE
 70
     2
  0
DIMSTYLE
  2
STANDARD
 70
     0
  3

  4

  5

  6

  7

 40
1.0
 41
0.18
 42
0.0625
 43
0.38
 44
0.18
 45
0.0
 46
0.0
 47
0.0
 48
0.0
140
0.18
141
0.09
142
0.0
143
25.3999999999999986
144
1.0
145
0.0
146
1.0
147
0.09
 71
     0
 72
     0
 73
     1
 74
     1
 75
     0
 76
     0
 77
     0
 78
     0
170
     0
171
     2
172
     0
173
     0
174
     0
175
     0
176
     0
177
     0
178
     0
  0
DIMSTYLE
  2
LORO
 70
     0
  3

  4

  5

  6

  7

 40
1.0
 41
3.5
 42
1.0
 43
0.38
 44
1.0
 45
0.0
 46
0.0
 47
0.0
 48
0.000000001
140
3.5
141
0.09
142
0.0
143
25.3999999999999986
144
2.0
145
0.0
146
0.5
147
1.5
 71
     0
 72
     0
 73
     0
 74
     0
 75
     0
 76
     0
 77
     1
 78
     8
170
     0
171
     2
172
     1
173
     0
174
     0
175
     1
176
     0
177
     0
178
     1
  0
ENDTAB
  0
ENDSEC
  0
SECTION
  2
BLOCKS
  0
BLOCK
  8
0
  2
$MODEL_SPACE
 70
     0
 10
0.0
 20
0.0
 30
0.0
  3
$MODEL_SPACE
  1

  0
ENDBLK
  5
38
  8
0
  0
BLOCK
 67
     1
  8
0
  2
$PAPER_SPACE
 70
     0
 10
0.0
 20
0.0
 30
0.0
  3
$PAPER_SPACE
  1

  0
ENDBLK
  5
36
 67
     1
  8
0
  0
BLOCK
  8
0
  2
*S0
 70
     1
 10
0.0
 20
0.0
 30
0.0
  3
*S0
  1

  0
ENDBLK
  5
142E
  8
0
  0
BLOCK
  8
0
  2
_NONE
 70
     0
 10
0.0
 20
0.0
 30
0.0
  3
_NONE
  1

  0
ENDBLK
  5
1F50
  8
0
  0
BLOCK
  8
0
  2
A$C91191346
 70
     0
 10
0.0
 20
0.0
 30
0.0
  3
A$C91191346
  1

  0
LINE
  5
5C25
  8
0
  6
CONTINUOUS
 62
     3
 10
-55.6090464708852892
 20
-50.0000000000000071
 30
0.0000000000000111
 11
55.6090464708851684
 21
-50.0000000000000071
 31
0.0000000000000111
210
0.0
220
1.0
230
-0.0000000000000002
  0
LINE
  5
5C26
  8
0
  6
CONTINUOUS
 62
     3
 10
-57.7500000000000497
 20
-66.0000000000000995
 30
0.0000000000000147
 11
57.7499999999999503
 21
-66.0000000000000995
 31
0.0000000000000147
210
0.0
220
1.0
230
-0.0000000000000002
  0
LINE
  5
5C27
  8
0
  6
CONTINUOUS
 62
     3
 10
-59.5000000000000568
 20
-67.5000000000001563
 30
0.000000000000015
 11
59.4999999999999432
 21
-67.5000000000001563
 31
0.000000000000015
210
0.0
220
1.0
230
-0.0000000000000002
  0
LINE
  5
5C28
  8
0
  6
CONTINUOUS
 62
     3
 10
-59.5000000000000568
 20
-68.5000000000001137
 30
0.0000000000000152
 11
59.4999999999999432
 21
-68.5000000000001137
 31
0.0000000000000152
210
0.0
220
1.0
230
-0.0000000000000002
  0
LINE
  5
5C29
  8
0
  6
CONTINUOUS
 62
     3
 10
-57.1171444324797335
 20
-70.8828555675204655
 30
0.0000000000000157
 11
57.1171444324796127
 21
-70.8828555675204655
 31
0.0000000000000157
210
0.0
220
1.0
230
-0.0000000000000002
  0
LINE
  5
5C2A
  8
0
  6
CONTINUOUS
 62
     3
 10
-60.0000000000000568
 20
-75.0000000000000711
 30
0.0000000000000167
 11
59.9999999999999432
 21
-75.0000000000000711
 31
0.0000000000000167
210
0.0
220
1.0
230
-0.0000000000000002
  0
LINE
  5
5C2B
  8
0
  6
CONTINUOUS
 62
     3
 10
-49.5000000000000568
 20
-77.0000000000000853
 30
0.0000000000000171
 11
49.4999999999999432
 21
-77.0000000000000853
 31
0.0000000000000171
210
0.0
220
1.0
230
-0.0000000000000002
  0
LINE
  5
5C2C
  8
0
  6
CONTINUOUS
 62
     3
 10
-59.5000000000000568
 20
-57.0000000000001279
 30
0.0000000000000127
 11
59.4999999999999432
 21
-57.0000000000001279
 31
0.0000000000000127
210
0.0
220
1.0
230
-0.0000000000000002
  0
ARC
  5
5C2D
  8
0
  6
CONTINUOUS
 62
     3
 10
55.6394515204002573
 20
-57.8000000000001606
 30
0.0
 40
0.8000000000000042
210
0.0
220
-0.0000000000000002
230
-1.0
 50
89.9999999999959357
 51
199.8552143693231073
  0
ARC
  5
5C2E
  8
0
  6
CONTINUOUS
 62
     3
 10
-55.6394515204001365
 20
-57.8000000000001606
 30
0.0
 40
0.8000000000000133
210
0.0
220
-0.0000000000000002
230
-1.0
 50
340.144785630676779
 51
90.0000000000040643
  0
LINE
  5
5C2F
  8
0
  6
CONTINUOUS
 62
     3
 10
54.8870084006467991
 20
-58.0717155710222315
 30
0.0000000000000129
 11
57.7499999999999716
 21
-66.0000000000000853
 31
0.0000000000000147
210
0.0
220
1.0
230
-0.0000000000000002
  0
LINE
  5
5C30
  8
0
  6
CONTINUOUS
 62
     3
 10
-54.8870084006469199
 20
-58.0717155710222315
 30
0.0000000000000129
 11
-57.7500000000000924
 21
-66.0000000000000853
 31
0.0000000000000147
210
0.0
220
1.0
230
-0.0000000000000002
  0
LINE
  5
5C31
  8
0
  6
CONTINUOUS
 62
     3
 10
57.7499999999999503
 20
-66.0000000000000995
 30
0.0000000000000147
 11
59.4999999999999432
 21
-67.5000000000001563
 31
0.000000000000015
210
0.0
220
1.0
230
-0.0000000000000002
  0
LINE
  5
5C32
  8
0
  6
CONTINUOUS
 62
     3
 10
-57.7500000000000497
 20
-66.0000000000000995
 30
0.0000000000000147
 11
-59.5000000000000568
 21
-67.5000000000001563
 31
0.000000000000015
210
0.0
220
1.0
230
-0.0000000000000002
  0
LINE
  5
5C33
  8
0
  6
CONTINUOUS
 62
     3
 10
59.4999999999999432
 20
-67.5000000000001563
 30
0.000000000000015
 11
59.4999999999999432
 21
-68.5000000000001137
 31
0.0000000000000152
210
0.0
220
1.0
230
-0.0000000000000002
  0
LINE
  5
5C34
  8
0
  6
CONTINUOUS
 62
     3
 10
-59.5000000000000568
 20
-67.5000000000001563
 30
0.000000000000015
 11
-59.5000000000000568
 21
-68.5000000000001137
 31
0.0000000000000152
210
0.0
220
1.0
230
-0.0000000000000002
  0
LINE
  5
5C35
  8
0
  6
CONTINUOUS
 62
     3
 10
-57.1171444324797335
 20
-70.8828555675204655
 30
0.0000000000000157
 11
-59.5000000000000497
 21
-68.5000000000001137
 31
0.0000000000000152
210
0.0
220
1.0
230
-0.0000000000000002
  0
LINE
  5
5C36
  8
0
  6
CONTINUOUS
 62
     3
 10
57.1171444324796127
 20
-70.8828555675204655
 30
0.0000000000000157
 11
59.4999999999999289
 21
-68.5000000000001137
 31
0.0000000000000152
210
0.0
220
1.0
230
-0.0000000000000002
  0
LINE
  5
5C37
  8
0
  6
CONTINUOUS
 62
     3
 10
57.1171444324796127
 20
-70.8828555675204655
 30
0.0000000000000157
 11
59.9999999999999289
 21
-75.0000000000000711
 31
0.0000000000000167
210
0.0
220
1.0
230
-0.0000000000000002
  0
LINE
  5
5C38
  8
0
  6
CONTINUOUS
 62
     3
 10
-57.1171444324797335
 20
-70.8828555675204655
 30
0.0000000000000157
 11
-60.0000000000000497
 21
-75.0000000000000711
 31
0.0000000000000167
210
0.0
220
1.0
230
-0.0000000000000002
  0
ARC
  5
5C39
  8
0
  6
CONTINUOUS
 62
     3
 10
49.5000000000000071
 20
-72.0000000000000142
 30
0.0
 40
5.0000000000000853
210
0.0
220
-0.0000000000000002
230
-1.0
 50
270.0
 51
323.1301023541556106
  0
ARC
  5
5C3A
  8
0
  6
CONTINUOUS
 62
     3
 10
-49.4999999999999005
 20
-72.0000000000000142
 30
0.0
 40
5.000000000000087
210
0.0
220
-0.0000000000000002
230
-1.0
 50
216.8698976458439063
 51
269.9999999999994884
  0
ARC
  5
5C3B
  8
0
  6
CONTINUOUS
 62
     3
 10
55.6090464708852892
 20
-51.4999999999999574
 30
0.0
 40
1.4999999999999469
210
0.0
220
-0.0000000000000002
230
-1.0
 50
25.8941133784704611
 51
90.0
  0
ARC
  5
5C3C
  8
0
  6
CONTINUOUS
 62
     3
 10
-55.6090464708851684
 20
-51.4999999999999574
 30
0.0
 40
1.49999999999995
210
0.0
220
-0.0000000000000002
230
-1.0
 50
90.0
 51
154.1058866215294927
  0
LINE
  5
5C3D
  8
0
  6
CONTINUOUS
 62
     3
 10
56.9584504483274685
 20
-50.8449359530071021
 30
0.0000000000000113
 11
59.0984106065127932
 21
-55.2531625413522107
 31
0.0000000000000123
210
0.0
220
1.0
230
-0.0000000000000002
  0
LINE
  5
5C3E
  8
0
  6
CONTINUOUS
 62
     3
 10
-56.9584504483275893
 20
-50.8449359530071021
 30
0.0000000000000113
 11
-59.0984106065129069
 21
-55.2531625413522107
 31
0.0000000000000123
210
0.0
220
1.0
230
-0.0000000000000002
  0
ARC
  5
5C3F
  8
0
  6
CONTINUOUS
 62
     3
 10
55.4999999999990195
 20
-57.0000000000004405
 30
0.0
 40
4.0000000000010374
210
0.0
220
-0.0000000000000002
230
-1.0
 50
0.0000000000044782
 51
25.8941133784711894
  0
ARC
  5
5C40
  8
0
  6
CONTINUOUS
 62
     3
 10
-55.4999999999988987
 20
-57.0000000000004405
 30
0.0
 40
4.0000000000010374
210
0.0
220
-0.0000000000000002
230
-1.0
 50
154.1058866215288106
 51
179.9999999999955094
  0
LINE
  5
5C41
  8
0
  6
CONTINUOUS
 62
     3
 10
-0.0000000000000047
 20
66.9999999999999147
 30
-0.0000000000000149
 11
279.9999999999998863
 21
66.9999999999999147
 31
-0.0000000000000149
210
0.0
220
1.0
230
-0.0000000000000002
  0
LINE
  5
5C42
  8
0
  6
CONTINUOUS
 62
     3
 10
279.9999999999998863
 20
67.9999999999999432
 30
-0.0000000000000151
 11
0.0
 21
67.9999999999993321
 31
-0.0000000000000151
210
0.0
220
1.0
230
-0.0000000000000002
  0
LINE
  5
5C43
  8
0
  6
CONTINUOUS
 62
     3
 10
300.0
 20
66.9999999999998437
 30
-0.0000000000000149
 11
279.9999999999998863
 21
66.9999999999998437
 31
-0.0000000000000149
210
0.0
220
1.0
230
-0.0000000000000002
  0
LINE
  5
5C44
  8
0
  6
CONTINUOUS
 62
     3
 10
299.9999999999997726
 20
66.9999999999999147
 30
-0.0000000000000149
 11
299.9999999999998863
 21
67.9999999999999858
 31
-0.0000000000000151
210
0.0
220
1.0
230
-0.0000000000000002
  0
LINE
  5
5C45
  8
0
  6
CONTINUOUS
 62
     3
 10
300.0
 20
67.9999999999999858
 30
-0.0000000000000151
 11
279.9999999999998863
 21
67.9999999999999858
 31
-0.0000000000000151
210
0.0
220
1.0
230
-0.0000000000000002
  0
LINE
  5
5C46
  8
0
  6
CONTINUOUS
 62
     3
 10
-0.0000000000000138
 20
66.9999999999999005
 30
-0.0000000000000149
 11
-122.5
 21
66.9999999999999005
 31
-0.0000000000000149
210
0.0
220
1.0
230
-0.0000000000000002
  0
LINE
  5
5C47
  8
0
  6
CONTINUOUS
 62
     3
 10
-122.5
 20
68.0000000000000284
 30
-0.0000000000000151
 11
-0.0000000000000284
 21
68.0000000000000426
 31
-0.0000000000000151
210
0.0
220
1.0
230
-0.0000000000000002
  0
LINE
  5
5C48
  8
0
  6
CONTINUOUS
 62
     3
 10
62.4659258262890873
 20
59.7411809548976009
 30
-0.0000000000000133
 11
-62.4659258262891015
 21
59.7411809548976009
 31
-0.0000000000000133
210
0.0
220
1.0
230
-0.0000000000000002
  0
LINE
  5
5C49
  8
0
  6
CONTINUOUS
 62
     3
 10
-122.5
 20
68.0000000000000284
 30
-0.0000000000000151
 11
-122.5
 21
66.9999999999999005
 31
-0.0000000000000149
210
0.0
220
1.0
230
-0.0000000000000002
  0
LINE
  5
5C4A
  8
0
  6
CONTINUOUS
 62
     3
 10
-62.4659258262891015
 20
59.7411809548976009
 30
-0.0000000000000133
 11
-64.2123216891178288
 21
66.2588190451026833
 31
-0.0000000000000147
210
0.0
220
1.0
230
-0.0000000000000002
  0
LINE
  5
5C4B
  8
0
  6
CONTINUOUS
 62
     3
 10
62.4659258262890873
 20
59.7411809548976009
 30
-0.0000000000000133
 11
64.2123216891178146
 21
66.2588190451026833
 31
-0.0000000000000147
210
0.0
220
1.0
230
-0.0000000000000002
  0
ARC
  5
5C4C
  8
0
  6
CONTINUOUS
 62
     3
 10
-65.1782475154070653
 20
65.9999999999999147
 30
0.0
 40
1.000000000000236
210
0.0
220
-0.0000000000000002
230
-1.0
 50
15.00000000001023
 51
89.9999999999894129
  0
ARC
  5
5C4D
  8
0
  6
CONTINUOUS
 62
     3
 10
65.1782475154070653
 20
65.9999999999999147
 30
0.0
 40
1.0000000000002269
210
0.0
220
-0.0000000000000002
230
-1.0
 50
90.0000000000106013
 51
164.9999999999888018
  0
LINE
  5
5C4E
  8
0
  6
CONTINUOUS
 62
     3
 10
-50.6999999999999815
 20
-0.0000000000000076
 30
0.0
 11
50.7000000000000028
 21
-0.0000000000000012
 31
0.0
210
0.0
220
1.0
230
-0.0000000000000002
  0
LINE
  5
5C4F
  8
0
  6
CONTINUOUS
 62
     3
 10
-60.5000000000000284
 20
70.0000000000000142
 30
-0.0000000000000155
 11
60.5
 21
70.0000000000000142
 31
-0.0000000000000155
210
0.0
220
1.0
230
-0.0000000000000002
  0
ARC
  5
5C50
  8
0
  6
CONTINUOUS
 62
     3
 10
50.4999999999963407
 20
8.0498756211210214
 30
0.0
 40
1.000000000003652
210
0.0
220
-0.0000000000000002
230
-1.0
 50
354.2894068625121804
 51
359.9999999999910756
  0
ARC
  5
5C51
  8
0
  6
CONTINUOUS
 62
     3
 10
-50.4999999999963904
 20
8.0498756211210285
 30
0.0
 40
1.0000000000036089
210
0.0
220
-0.0000000000000002
230
-1.0
 50
180.0000000000088107
 51
185.7105931374877912
  0
LINE
  5
5C52
  8
0
  6
CONTINUOUS
 62
     3
 10
51.5
 20
40.0
 30
-0.0000000000000089
 11
51.5
 21
8.0498756211208722
 31
-0.0000000000000018
210
0.0
220
1.0
230
-0.0000000000000002
  0
LINE
  5
5C53
  8
0
  6
CONTINUOUS
 62
     3
 10
-51.5
 20
40.0
 30
-0.0000000000000089
 11
-51.5
 21
8.0498756211208669
 31
-0.0000000000000018
210
0.0
220
1.0
230
-0.0000000000000002
  0
LINE
  5
5C54
  8
0
  6
CONTINUOUS
 62
     3
 10
-50.7000000000000028
 20
-0.0000000000000075
 30
0.0
 11
-51.4950371902099917
 21
7.9503719020998673
 31
-0.0000000000000018
210
0.0
220
1.0
230
-0.0000000000000002
  0
LINE
  5
5C55
  8
0
  6
CONTINUOUS
 62
     3
 10
50.7000000000000028
 20
-0.0000000000000044
 30
0.0
 11
51.4950371902099917
 21
7.9503719020998762
 31
-0.0000000000000018
210
0.0
220
1.0
230
-0.0000000000000002
  0
ARC
  5
5C56
  8
0
  6
CONTINUOUS
 62
     3
 10
49.0000000000000711
 20
59.9999999999999787
 30
0.0
 40
11.4999999999999307
210
0.0
220
-0.0000000000000002
230
-1.0
 50
326.278232708305211
 51
358.7103920771928074
  0
ARC
  5
5C57
  8
0
  6
CONTINUOUS
 62
     3
 10
-48.9999999999999503
 20
60.0000000000000284
 30
0.0
 40
11.5000000000000409
210
0.0
220
-0.0000000000000002
230
-1.0
 50
181.2896079228073063
 51
213.7217672916945901
  0
LINE
  5
5C58
  8
0
  6
CONTINUOUS
 62
     3
 10
-53.1825672935433076
 20
45.5516045584645681
 30
-0.0000000000000101
 11
-58.5650476124251824
 21
53.6156547577657392
 31
-0.0000000000000119
210
0.0
220
1.0
230
-0.0000000000000002
  0
LINE
  5
5C59
  8
0
  6
CONTINUOUS
 62
     3
 10
53.1825672935433076
 20
45.5516045584645681
 30
-0.0000000000000101
 11
58.5650476124251824
 21
53.6156547577657534
 31
-0.0000000000000119
210
0.0
220
1.0
230
-0.0000000000000002
  0
ARC
  5
5C5A
  8
0
  6
CONTINUOUS
 62
     3
 10
61.4999999999999289
 20
40.0
 30
0.0
 40
9.9999999999999254
210
0.0
220
-0.0000000000000002
230
-1.0
 50
146.278232708305211
 51
180.0
  0
ARC
  5
5C5B
  8
0
  6
CONTINUOUS
 62
     3
 10
-61.4999999999999787
 20
40.0
 30
0.0
 40
9.9999999999999787
210
0.0
220
-0.0000000000000002
230
-1.0
 50
0.0
 51
33.7217672916947535
  0
LINE
  5
5C5C
  8
0
  6
CONTINUOUS
 62
     3
 10
60.5
 20
70.0000000000000142
 30
-0.0000000000000155
 11
60.5
 21
68.0000000000000284
 31
-0.0000000000000151
210
0.0
220
1.0
230
-0.0000000000000002
  0
LINE
  5
5C5D
  8
0
  6
CONTINUOUS
 62
     3
 10
-60.5000000000000071
 20
70.0000000000000142
 30
-0.0000000000000155
 11
-60.5000000000000071
 21
68.0000000000000142
 31
-0.0000000000000151
210
0.0
220
1.0
230
-0.0000000000000002
  0
LINE
  5
5C5E
  8
0
  6
VERDECKT
 62
     1
 10
-51.8000000000000114
 20
-59.9132265073573222
 30
0.0000000000000133
 11
51.8000000000000114
 21
-59.9132265073573222
 31
0.0000000000000133
210
0.0
220
1.0
230
-0.0000000000000002
  0
LINE
  5
5C5F
  8
0
  6
VERDECKT
 62
     1
 10
47.5
 20
-75.44398402515192
 30
0.0000000000000168
 11
-47.5
 21
-75.44398402515192
 31
0.0000000000000168
210
0.0
220
1.0
230
-0.0000000000000002
  0
LINE
  5
5C60
  8
0
  6
VERDECKT
 62
     1
 10
-56.5995849235806574
 20
-73.0000000000000426
 30
0.0000000000000162
 11
56.5995849235805508
 21
-73.0000000000000426
 31
0.0000000000000162
210
0.0
220
1.0
230
-0.0000000000000002
  0
ARC
  5
5C61
  8
0
  6
VERDECKT
 62
     1
 10
55.6090464708852323
 20
-51.4932265073572495
 30
0.0
 40
1.499999999999968
210
0.0
220
-0.0000000000000002
230
-1.0
 50
95.4470566892314451
 51
165.0000000000017906
  0
ARC
  5
5C62
  8
0
  6
VERDECKT
 62
     1
 10
-55.6090464708852323
 20
-51.4932265073572495
 30
0.0
 40
1.499999999999968
210
0.0
220
-0.0000000000000002
230
-1.0
 50
14.9999999999981704
 51
84.5529433107685549
  0
LINE
  5
5C63
  8
0
  6
VERDECKT
 62
     1
 10
-51.7999999999999972
 20
-59.9132265073573222
 30
0.0000000000000133
 11
-54.1601577314516476
 21
-51.104997939703523
 31
0.0000000000000113
210
0.0
220
1.0
230
-0.0000000000000002
  0
LINE
  5
5C64
  8
0
  6
VERDECKT
 62
     1
 10
51.7999999999999972
 20
-59.9132265073573222
 30
0.0000000000000133
 11
54.1601577314516476
 21
-51.104997939703523
 31
0.0000000000000113
210
0.0
220
1.0
230
-0.0000000000000002
  0
LINE
  5
5C65
  8
0
  6
VERDECKT
 62
     1
 10
51.8000000000000114
 20
-59.9132265073573222
 30
0.0000000000000133
 11
51.8000000000000114
 21
-70.4932265073573063
 31
0.0000000000000157
210
0.0
220
1.0
230
-0.0000000000000002
  0
LINE
  5
5C66
  8
0
  6
VERDECKT
 62
     1
 10
-51.8000000000000114
 20
-59.9132265073573222
 30
0.0000000000000133
 11
-51.8000000000000114
 21
-70.4932265073573063
 31
0.0000000000000157
210
0.0
220
1.0
230
-0.0000000000000002
  0
ARC
  5
5C67
  8
0
  6
VERDECKT
 62
     1
 10
46.7999999999999687
 20
-70.4932265073572353
 30
0.0
 40
5.0000000000000488
210
0.0
220
-0.0000000000000002
230
-1.0
 50
278.0478462473117816
 51
359.9999999999993179
  0
ARC
  5
5C68
  8
0
  6
VERDECKT
 62
     1
 10
-46.7999999999999687
 20
-70.4932265073572353
 30
0.0
 40
5.0000000000000417
210
0.0
220
-0.0000000000000002
230
-1.0
 50
180.0000000000005969
 51
261.9521537526882184
  0
LINE
  5
5C69
  8
0
  6
VERDECKT
 62
     1
 10
-47.5
 20
-77.0000000000000853
 30
0.0000000000000171
 11
-47.5
 21
-75.44398402515192
 31
0.0000000000000168
210
0.0
220
1.0
230
-0.0000000000000002
  0
LINE
  5
5C6A
  8
0
  6
VERDECKT
 62
     1
 10
47.5
 20
-77.0000000000000853
 30
0.0000000000000171
 11
47.5
 21
-75.44398402515192
 31
0.0000000000000168
210
0.0
220
1.0
230
-0.0000000000000002
  0
LINE
  5
5C6B
  8
0
  6
VERDECKT
 62
     1
 10
56.5995849235805224
 20
-73.0000000000000568
 30
0.0000000000000162
 11
57.9999999999999076
 21
-75.0000000000000853
 31
0.0000000000000167
210
0.0
220
1.0
230
-0.0000000000000002
  0
LINE
  5
5C6C
  8
0
  6
VERDECKT
 62
     1
 10
-56.5995849235806432
 20
-73.0000000000000568
 30
0.0000000000000162
 11
-58.0000000000000284
 21
-75.0000000000000853
 31
0.0000000000000167
210
0.0
220
1.0
230
-0.0000000000000002
  0
ARC
  5
5C6D
  8
0
  6
VERDECKT
 62
     1
 10
49.5000000000001492
 20
-72.0000000000001421
 30
0.0
 40
4.9999999999999121
210
0.0
220
-0.0000000000000002
230
-1.0
 50
323.130102354156179
 51
348.4630409671851226
  0
ARC
  5
5C6E
  8
0
  6
VERDECKT
 62
     1
 10
-49.5000000000000284
 20
-72.0000000000001421
 30
0.0
 40
4.9999999999999103
210
0.0
220
-0.0000000000000002
230
-1.0
 50
191.5369590328147922
 51
216.8698976458437926
  0
LINE
  5
5C6F
  8
0
  6
VERDECKT
 62
     1
 10
61.5000000000000071
 20
60.0000000000000284
 30
-0.0000000000000133
 11
-61.5000000000000071
 21
60.0000000000000284
 31
-0.0000000000000133
210
0.0
220
1.0
230
-0.0000000000000002
  0
LINE
  5
5C70
  8
0
  6
VERDECKT
 62
     1
 10
276.0000000000001137
 20
66.9999999999998437
 30
-0.0000000000000149
 11
276.0000000000001137
 21
67.9999999999999858
 31
-0.0000000000000151
210
0.0
220
1.0
230
-0.0000000000000002
  0
LINE
  5
5C71
  8
0
  6
VERDECKT
 62
     1
 10
284.0000000000001137
 20
66.9999999999998437
 30
-0.0000000000000149
 11
284.0000000000001137
 21
67.9999999999999858
 31
-0.0000000000000151
210
0.0
220
1.0
230
-0.0000000000000002
  0
LINE
  5
5C72
  8
0
  6
VERDECKT
 62
     1
 10
-61.5000000000000213
 20
60.0000000000000284
 30
-0.0000000000000133
 11
-63.2463958628286491
 21
66.5176380902051108
 31
-0.0000000000000148
210
0.0
220
1.0
230
-0.0000000000000002
  0
LINE
  5
5C73
  8
0
  6
VERDECKT
 62
     1
 10
61.5
 20
60.0000000000000284
 30
-0.0000000000000133
 11
63.2463958628286278
 21
66.5176380902051108
 31
-0.0000000000000148
210
0.0
220
1.0
230
-0.0000000000000002
  0
LINE
  5
5C74
  8
0
  6
VERDECKT
 62
     1
 10
61.5000000000000071
 20
60.0000000000000711
 30
-0.0000000000000133
 11
62.4659258262890731
 21
59.7411809548975512
 31
-0.0000000000000133
210
0.0
220
1.0
230
-0.0000000000000002
  0
LINE
  5
5C75
  8
0
  6
VERDECKT
 62
     1
 10
-61.5000000000000213
 20
60.0000000000000711
 30
-0.0000000000000133
 11
-62.4659258262890873
 21
59.7411809548975512
 31
-0.0000000000000133
210
0.0
220
1.0
230
-0.0000000000000002
  0
ARC
  5
5C76
  8
0
  6
VERDECKT
 62
     1
 10
-65.1782475154068806
 20
66.0000000000000142
 30
0.0
 40
2.0000000000001328
210
0.0
220
-0.0000000000000002
230
-1.0
 50
15.0000000000006093
 51
89.9999999999971436
  0
ARC
  5
5C77
  8
0
  6
VERDECKT
 62
     1
 10
65.1782475154068806
 20
66.0000000000000142
 30
0.0
 40
2.000000000000127
210
0.0
220
-0.0000000000000002
230
-1.0
 50
90.0000000000028564
 51
164.9999999999994031
  0
LINE
  5
5C78
  8
0
  6
VERDECKT
 62
     1
 10
-49.207444214685033
 20
0.1492555785314944
 30
0.0
 11
49.2074442146850117
 21
0.1492555785315007
 31
0.0
210
0.0
220
1.0
230
-0.0000000000000002
  0
ARC
  5
5C79
  8
0
  6
VERDECKT
 62
     1
 10
48.9999999999963194
 20
8.1246890528024114
 30
0.0
 40
1.0000000000036731
210
0.0
220
-0.0000000000000002
230
-1.0
 50
354.2894068625122941
 51
359.9999999999909051
  0
ARC
  5
5C7A
  8
0
  6
VERDECKT
 62
     1
 10
-48.9999999999963194
 20
8.1246890528024185
 30
0.0
 40
1.0000000000036731
210
0.0
220
-0.0000000000000002
230
-1.0
 50
180.0000000000090097
 51
185.7105931374877059
  0
LINE
  5
5C7B
  8
0
  6
VERDECKT
 62
     1
 10
-49.2074442146850117
 20
0.1492555785314949
 30
0.0
 11
-49.9950371902099917
 21
8.0251853337812538
 31
-0.0000000000000018
210
0.0
220
1.0
230
-0.0000000000000002
  0
LINE
  5
5C7C
  8
0
  6
VERDECKT
 62
     1
 10
49.2074442146850117
 20
0.1492555785314944
 30
0.0
 11
49.9950371902099917
 21
8.0251853337812609
 31
-0.0000000000000018
210
0.0
220
1.0
230
-0.0000000000000002
  0
LINE
  5
5C7D
  8
0
  6
VERDECKT
 62
     1
 10
50.0
 20
40.0000000000000071
 30
-0.0000000000000089
 11
50.0
 21
8.1246890528022622
 31
-0.0000000000000018
210
0.0
220
1.0
230
-0.0000000000000002
  0
LINE
  5
5C7E
  8
0
  6
VERDECKT
 62
     1
 10
-50.0
 20
40.0000000000000071
 30
-0.0000000000000089
 11
-50.0
 21
8.1246890528022551
 31
-0.0000000000000018
210
0.0
220
1.0
230
-0.0000000000000002
  0
ARC
  5
5C7F
  8
0
  6
VERDECKT
 62
     1
 10
49.0000000000376019
 20
59.9999999999995026
 30
0.0
 40
11.4999999999623999
210
0.0
220
-0.0000000000000002
230
-1.0
 50
358.7103920771911021
 51
0.000000000002519
  0
ARC
  5
5C80
  8
0
  6
VERDECKT
 62
     1
 10
-49.0000000000379003
 20
59.9999999999995026
 30
0.0
 40
11.4999999999620908
210
0.0
220
-0.0000000000000002
230
-1.0
 50
179.9999999999974136
 51
181.2896079228088979
  0
LINE
  5
5C81
  8
0
  6
VERDECKT
 62
     1
 10
49.2074442146850117
 20
0.1492555785314993
 30
0.0
 11
50.7000000000000028
 21
0.0000000000000007
 31
0.0
210
0.0
220
1.0
230
-0.0000000000000002
  0
LINE
  5
5C82
  8
0
  6
VERDECKT
 62
     1
 10
-49.2074442146850117
 20
0.1492555785314932
 30
0.0
 11
-50.7000000000000028
 21
-0.0000000000000057
 31
0.0
210
0.0
220
1.0
230
-0.0000000000000002
  0
ARC
  5
5C83
  8
0
  6
VERDECKT
 62
     1
 10
61.5
 20
40.0
 30
0.0
 40
11.5
210
0.0
220
-0.0000000000000002
230
-1.0
 50
146.278232708305211
 51
179.9999999999998863
  0
ARC
  5
5C84
  8
0
  6
VERDECKT
 62
     1
 10
-61.5000000000000284
 20
40.0000000000000071
 30
0.0
 40
11.5000000000000302
210
0.0
220
-0.0000000000000002
230
-1.0
 50
360.0
 51
33.7217672916946611
  0
LINE
  5
5C85
  8
0
  6
VERDECKT
 62
     1
 10
-51.9349523875748105
 20
46.3843452422342821
 30
-0.0000000000000103
 11
-57.3174327064566924
 21
54.4483954415354532
 31
-0.0000000000000121
210
0.0
220
1.0
230
-0.0000000000000002
  0
LINE
  5
5C86
  8
0
  6
VERDECKT
 62
     1
 10
51.9349523875748105
 20
46.3843452422342679
 30
-0.0000000000000103
 11
57.3174327064566995
 21
54.4483954415354603
 31
-0.0000000000000121
210
0.0
220
1.0
230
-0.0000000000000002
  0
ARC
  5
5C87
  8
0
  6
VERDECKT
 62
     1
 10
49.0000000000000071
 20
60.0
 30
0.0
 40
10.0
210
0.0
220
-0.0000000000000002
230
-1.0
 50
326.2782327083053815
 51
0.0000000000001717
  0
ARC
  5
5C88
  8
0
  6
VERDECKT
 62
     1
 10
-48.9999999999999716
 20
60.0000000000000071
 30
0.0
 40
10.0000000000000195
210
0.0
220
-0.0000000000000002
230
-1.0
 50
179.9999999999998863
 51
213.7217672916943911
  0
LINE
  5
5C89
  8
0
  6
VERDECKT
 62
     1
 10
58.9999999999999929
 20
70.0000000000000284
 30
-0.0000000000000155
 11
58.9999999999999929
 21
60.0000000000000284
 31
-0.0000000000000133
210
0.0
220
1.0
230
-0.0000000000000002
  0
LINE
  5
5C8A
  8
0
  6
VERDECKT
 62
     1
 10
-59.0000000000000071
 20
70.0000000000000284
 30
-0.0000000000000155
 11
-59.0000000000000071
 21
60.0000000000000213
 31
-0.0000000000000133
210
0.0
220
1.0
230
-0.0000000000000002
  0
LINE
  5
5C8B
  8
0
  6
VERDECKT
 62
     1
 10
60.5
 20
68.0000000000000284
 30
-0.0000000000000151
 11
60.5
 21
60.0
 31
-0.0000000000000133
210
0.0
220
1.0
230
-0.0000000000000002
  0
LINE
  5
5C8C
  8
0
  6
VERDECKT
 62
     1
 10
-60.5000000000000071
 20
68.0000000000000142
 30
-0.0000000000000151
 11
-60.5000000000000071
 21
60.0
 31
-0.0000000000000133
210
0.0
220
1.0
230
-0.0000000000000002
  0
ENDBLK
  5
5C8E
  8
0
  0
BLOCK
  8
0
  2
A$CEE060300
 70
     0
 10
0.0
 20
0.0
 30
0.0
  3
A$CEE060300
  1

  0
CIRCLE
  5
5C92
  8
0
  6
CONTINUOUS
 62
     3
 10
-0.0000000000000168
 20
-0.0000000000000006
 30
0.0
 40
47.5
  0
LINE
  5
5C93
  8
0
  6
CONTINUOUS
 62
     3
 10
279.9999999999998863
 20
-122.5
 30
0.0000000000000568
 11
0.0
 21
-122.5000000000000995
 31
-0.0000000000000056
  0
ARC
  5
5C94
  8
0
  6
CONTINUOUS
 62
     3
 10
280.0
 20
-102.5
 30
0.0000000000000568
 40
20.0000000000000391
 50
270.0
 51
0.0000000000000382
  0
LINE
  5
5C95
  8
0
  6
CONTINUOUS
 62
     3
 10
299.9999999999997726
 20
102.5
 30
0.0000000000000711
 11
299.9999999999998863
 21
-102.5
 31
0.0000000000000711
  0
ARC
  5
5C96
  8
0
  6
CONTINUOUS
 62
     3
 10
280.0
 20
102.4999999999999005
 30
0.0000000000000568
 40
20.0000000000000391
 50
0.0000000000001018
 51
90.000000000000469
  0
CIRCLE
  5
5C97
  8
0
  6
CONTINUOUS
 62
     3
 10
280.0000000000001137
 20
102.5
 30
0.0000000000000568
 40
3.9999999999999849
  0
CIRCLE
  5
5C98
  8
0
  6
CONTINUOUS
 62
     3
 10
280.0000000000001137
 20
-102.5
 30
0.0000000000000568
 40
3.9999999999999849
  0
ARC
  5
5C99
  8
0
  6
CONTINUOUS
 62
     3
 10
0.0000000000000105
 20
-0.0000000000000568
 30
0.0
 40
122.5
 50
90.0
 51
270.0
  0
LINE
  5
5C9A
  8
0
  6
CONTINUOUS
 62
     3
 10
0.0000000000002379
 20
122.5
 30
0.0
 11
279.9999999999997726
 21
122.5
 31
0.0000000000000624
  0
CIRCLE
  5
5C9B
  8
0
  6
CONTINUOUS
 62
     3
 10
0.0000000000000087
 20
-0.0000000000000426
 30
0.0
 40
61.5
  0
CIRCLE
  5
5C9C
  8
0
  6
CONTINUOUS
 62
     3
 10
0.0
 20
0.0
 30
0.0
 40
49.2074442146850117
  0
CIRCLE
  5
5C9D
  8
0
  6
CONTINUOUS
 62
     3
 10
0.0000000000000064
 20
0.0000000000000024
 30
0.0
 40
50.0
  0
CIRCLE
  5
5C9E
  8
0
  6
CONTINUOUS
 62
     3
 10
0.0000000000000112
 20
0.0000000000000043
 30
0.0
 40
59.0
  0
CIRCLE
  5
5C9F
  8
0
  6
CONTINUOUS
 62
     3
 10
0.0000000000000112
 20
0.0000000000000043
 30
0.0
 40
60.5
  0
CIRCLE
  5
5CA0
  8
0
  6
VERDECKT
 62
     1
 10
-0.0000000000000134
 20
0.0000000000000003
 30
0.0
 40
51.8000000000000114
  0
CIRCLE
  5
5CA1
  8
0
  6
VERDECKT
 62
     1
 10
-0.0000000000000716
 20
-0.0016575748095114
 30
0.0
 40
57.75
  0
CIRCLE
  5
5CA2
  8
0
  6
VERDECKT
 62
     1
 10
-0.0000000000000727
 20
-0.0016575748095117
 30
0.0
 40
57.1171444324796695
  0
CIRCLE
  5
5CA3
  8
0
  6
VERDECKT
 62
     1
 10
-0.0000000000000736
 20
-0.0016575748095119
 30
0.0
 40
60.0
  0
CIRCLE
  5
5CA4
  8
0
  6
VERDECKT
 62
     1
 10
-0.0000000000000736
 20
-0.0016575748095119
 30
0.0
 40
58.0
  0
CIRCLE
  5
5CA5
  8
0
  6
VERDECKT
 62
     1
 10
-0.0000000000000731
 20
-0.0016575748095118
 30
0.0
 40
56.5995849235806077
  0
CIRCLE
  5
5CA6
  8
0
  6
VERDECKT
 62
     1
 10
-0.0000000000000731
 20
-0.0016575748095118
 30
0.0
 40
54.3989794855663717
  0
CIRCLE
  5
5CA7
  8
0
  6
VERDECKT
 62
     1
 10
-0.0000000000000696
 20
-0.0016575748095108
 30
0.0
 40
59.5
  0
CIRCLE
  5
5CA8
  8
0
  6
VERDECKT
 62
     1
 10
-0.0000000000000697
 20
-0.0016575748095109
 30
0.0
 40
54.8394515204001891
  0
CIRCLE
  5
5CA9
  8
0
  6
VERDECKT
 62
     1
 10
0.0000000000000086
 20
-0.0000000000000426
 30
0.0
 40
62.4659258262891015
  0
CIRCLE
  5
5CAA
  8
0
  6
VERDECKT
 62
     1
 10
0.0000000000000064
 20
0.0000000000000024
 30
0.0
 40
51.4999999999999929
  0
CIRCLE
  5
5CAB
  8
0
  6
VERDECKT
 62
     1
 10
0.0
 20
0.0
 30
0.0
 40
50.7000000000000028
  0
ENDBLK
  5
5CAD
  8
0
  0
BLOCK
  8
0
  2
A$C8D9D5AAC
 70
     0
 10
0.0
 20
0.0
 30
0.0
  3
A$C8D9D5AAC
  1

  0
LINE
  5
5CB1
  8
0
  6
CONTINUOUS
 62
     3
 10
-55.6073888960757472
 20
-50.0000000000000284
 30
0.0000000000000111
 11
0.0016575748095176
 21
-50.0000000000000213
 31
0.0000000000000111
210
-0.0000000000000002
220
1.0
230
-0.0000000000000002
  0
LINE
  5
5CB2
  8
0
  6
CONTINUOUS
 62
     3
 10
0.0016575748095332
 20
-50.0000000000000213
 30
0.0000000000000111
 11
55.6107040456947672
 21
-50.0
 31
0.0000000000000111
210
-0.0000000000000002
220
1.0
230
-0.0000000000000002
  0
LINE
  5
5CB3
  8
0
  6
CONTINUOUS
 62
     3
 10
-57.748342425190458
 20
-66.0000000000001137
 30
0.0000000000000147
 11
0.0016575748095211
 21
-66.0000000000001137
 31
0.0000000000000147
210
-0.0000000000000002
220
1.0
230
-0.0000000000000002
  0
LINE
  5
5CB4
  8
0
  6
CONTINUOUS
 62
     3
 10
0.0016575748095382
 20
-66.0000000000001137
 30
0.0000000000000147
 11
57.7516575748095278
 21
-66.0000000000000995
 31
0.0000000000000147
210
-0.0000000000000002
220
1.0
230
-0.0000000000000002
  0
LINE
  5
5CB5
  8
0
  6
CONTINUOUS
 62
     3
 10
-59.4983424251904367
 20
-67.5000000000001847
 30
0.000000000000015
 11
0.0016575748095214
 21
-67.5000000000001705
 31
0.000000000000015
210
-0.0000000000000002
220
1.0
230
-0.0000000000000002
  0
LINE
  5
5CB6
  8
0
  6
CONTINUOUS
 62
     3
 10
0.0016575748095316
 20
-67.5000000000001705
 30
0.000000000000015
 11
59.5016575748095207
 21
-67.5000000000001563
 31
0.000000000000015
210
-0.0000000000000002
220
1.0
230
-0.0000000000000002
  0
LINE
  5
5CB7
  8
0
  6
CONTINUOUS
 62
     3
 10
-59.4983424251904367
 20
-68.5000000000001563
 30
0.0000000000000152
 11
0.0016575748095217
 21
-68.5000000000001421
 31
0.0000000000000152
210
-0.0000000000000002
220
1.0
230
-0.0000000000000002
  0
LINE
  5
5CB8
  8
0
  6
CONTINUOUS
 62
     3
 10
0.0016575748095318
 20
-68.5000000000001421
 30
0.0000000000000152
 11
59.5016575748095207
 21
-68.5000000000001137
 31
0.0000000000000152
210
-0.0000000000000002
220
1.0
230
-0.0000000000000002
  0
LINE
  5
5CB9
  8
0
  6
CONTINUOUS
 62
     3
 10
-57.1154868576701489
 20
-70.8828555675205081
 30
0.0000000000000157
 11
0.0016575748095222
 21
-70.8828555675204939
 31
0.0000000000000157
210
-0.0000000000000002
220
1.0
230
-0.0000000000000002
  0
LINE
  5
5CBA
  8
0
  6
CONTINUOUS
 62
     3
 10
0.0016575748095309
 20
-70.8828555675204939
 30
0.0000000000000157
 11
57.1188020072892115
 21
-70.8828555675204655
 31
0.0000000000000157
210
-0.0000000000000002
220
1.0
230
-0.0000000000000002
  0
LINE
  5
5CBB
  8
0
  6
CONTINUOUS
 62
     3
 10
-59.9983424251904935
 20
-75.0000000000000995
 30
0.0000000000000167
 11
0.0016575748095231
 21
-75.0000000000000853
 31
0.0000000000000167
210
-0.0000000000000002
220
1.0
230
-0.0000000000000002
  0
LINE
  5
5CBC
  8
0
  6
CONTINUOUS
 62
     3
 10
0.0016575748095358
 20
-75.0000000000000853
 30
0.0000000000000167
 11
60.001657574809542
 21
-75.0000000000000711
 31
0.0000000000000167
210
-0.0000000000000002
220
1.0
230
-0.0000000000000002
  0
LINE
  5
5CBD
  8
0
  6
CONTINUOUS
 62
     3
 10
-49.4983424251905006
 20
-77.0000000000001279
 30
0.0000000000000171
 11
0.0016575748095236
 21
-77.0000000000001137
 31
0.0000000000000171
210
-0.0000000000000002
220
1.0
230
-0.0000000000000002
  0
LINE
  5
5CBE
  8
0
  6
CONTINUOUS
 62
     3
 10
0.0016575748095393
 20
-77.0000000000001137
 30
0.0000000000000171
 11
49.5016575748095278
 21
-77.0000000000000853
 31
0.0000000000000171
210
-0.0000000000000002
220
1.0
230
-0.0000000000000002
  0
LINE
  5
5CBF
  8
0
  6
CONTINUOUS
 62
     3
 10
-59.4983424251904367
 20
-57.0000000000001705
 30
0.0000000000000127
 11
0.0016575748095191
 21
-57.0000000000001421
 31
0.0000000000000127
210
-0.0000000000000002
220
1.0
230
-0.0000000000000002
  0
LINE
  5
5CC0
  8
0
  6
CONTINUOUS
 62
     3
 10
0.0016575748095286
 20
-57.0000000000001421
 30
0.0000000000000127
 11
59.5016575748095207
 21
-57.0000000000001208
 31
0.0000000000000127
210
-0.0000000000000002
220
1.0
230
-0.0000000000000002
  0
ARC
  5
5CC1
  8
0
  6
CONTINUOUS
 62
     3
 10
55.6377939455906869
 20
-57.8000000000001819
 30
0.0
 40
0.8000000000000044
210
0.0
220
-0.0000000000000002
230
-1.0
 50
89.9999999999959357
 51
199.8552143693231073
  0
ARC
  5
5CC2
  8
0
  6
CONTINUOUS
 62
     3
 10
-55.6411090952097425
 20
-57.8000000000001606
 30
0.0
 40
0.8000000000000135
210
0.0
220
-0.0000000000000002
230
-1.0
 50
340.144785630676779
 51
90.0000000000040643
  0
LINE
  5
5CC3
  8
0
  6
CONTINUOUS
 62
     3
 10
54.8886659754564121
 20
-58.0717155710222315
 30
0.0000000000000129
 11
57.7516575748095704
 21
-66.0000000000000853
 31
0.0000000000000147
210
-0.0000000000000002
220
1.0
230
-0.0000000000000002
  0
LINE
  5
5CC4
  8
0
  6
CONTINUOUS
 62
     3
 10
-54.8853508258373495
 20
-58.0717155710222528
 30
0.0000000000000129
 11
-57.7483424251905078
 21
-66.0000000000001137
 31
0.0000000000000147
210
-0.0000000000000002
220
1.0
230
-0.0000000000000002
  0
LINE
  5
5CC5
  8
0
  6
CONTINUOUS
 62
     3
 10
57.751657574809542
 20
-66.0000000000000995
 30
0.0000000000000147
 11
59.501657574809542
 21
-67.5000000000001563
 31
0.000000000000015
210
-0.0000000000000002
220
1.0
230
-0.0000000000000002
  0
LINE
  5
5CC6
  8
0
  6
CONTINUOUS
 62
     3
 10
-57.7483424251904793
 20
-66.0000000000001137
 30
0.0000000000000147
 11
-59.4983424251904935
 21
-67.5000000000001847
 31
0.000000000000015
210
-0.0000000000000002
220
1.0
230
-0.0000000000000002
  0
LINE
  5
5CC7
  8
0
  6
CONTINUOUS
 62
     3
 10
59.501657574809542
 20
-67.5000000000001563
 30
0.000000000000015
 11
59.501657574809542
 21
-68.5000000000001137
 31
0.0000000000000152
210
-0.0000000000000002
220
1.0
230
-0.0000000000000002
  0
LINE
  5
5CC8
  8
0
  6
CONTINUOUS
 62
     3
 10
-59.4983424251904935
 20
-67.5000000000001847
 30
0.000000000000015
 11
-59.4983424251904935
 21
-68.5000000000001563
 31
0.0000000000000152
210
-0.0000000000000002
220
1.0
230
-0.0000000000000002
  0
LINE
  5
5CC9
  8
0
  6
CONTINUOUS
 62
     3
 10
-57.1154868576701631
 20
-70.8828555675205081
 30
0.0000000000000157
 11
-59.4983424251904793
 21
-68.5000000000001563
 31
0.0000000000000152
210
-0.0000000000000002
220
1.0
230
-0.0000000000000002
  0
LINE
  5
5CCA
  8
0
  6
CONTINUOUS
 62
     3
 10
57.1188020072892115
 20
-70.8828555675204655
 30
0.0000000000000157
 11
59.5016575748095278
 21
-68.5000000000001137
 31
0.0000000000000152
210
-0.0000000000000002
220
1.0
230
-0.0000000000000002
  0
LINE
  5
5CCB
  8
0
  6
CONTINUOUS
 62
     3
 10
57.1188020072892115
 20
-70.8828555675204655
 30
0.0000000000000157
 11
60.0016575748095278
 21
-75.0000000000000711
 31
0.0000000000000167
210
-0.0000000000000002
220
1.0
230
-0.0000000000000002
  0
LINE
  5
5CCC
  8
0
  6
CONTINUOUS
 62
     3
 10
-57.1154868576701631
 20
-70.8828555675205081
 30
0.0000000000000157
 11
-59.9983424251904793
 21
-75.0000000000000995
 31
0.0000000000000167
210
-0.0000000000000002
220
1.0
230
-0.0000000000000002
  0
ARC
  5
5CCD
  8
0
  6
CONTINUOUS
 62
     3
 10
49.4983424251904367
 20
-72.0000000000000568
 30
0.0
 40
5.0000000000000862
210
0.0
220
-0.0000000000000002
230
-1.0
 50
270.0
 51
323.1301023541556106
  0
ARC
  5
5CCE
  8
0
  6
CONTINUOUS
 62
     3
 10
-49.5016575748094994
 20
-72.0000000000000142
 30
0.0
 40
5.0000000000000879
210
0.0
220
-0.0000000000000002
230
-1.0
 50
216.8698976458437926
 51
269.9999999999994884
  0
ARC
  5
5CCF
  8
0
  6
CONTINUOUS
 62
     3
 10
55.6073888960757188
 20
-51.4999999999999787
 30
0.0
 40
1.4999999999999469
210
0.0
220
-0.0000000000000002
230
-1.0
 50
25.8941133784704505
 51
89.9999999999999858
  0
ARC
  5
5CD0
  8
0
  6
CONTINUOUS
 62
     3
 10
-55.6107040456947672
 20
-51.4999999999999503
 30
0.0
 40
1.49999999999995
210
0.0
220
-0.0000000000000002
230
-1.0
 50
89.9999999999999858
 51
154.1058866215294927
  0
LINE
  5
5CD1
  8
0
  6
CONTINUOUS
 62
     3
 10
56.9601080231370815
 20
-50.8449359530070879
 30
0.0000000000000113
 11
59.100068181322392
 21
-55.2531625413521894
 31
0.0000000000000123
210
-0.0000000000000002
220
1.0
230
-0.0000000000000002
  0
LINE
  5
5CD2
  8
0
  6
CONTINUOUS
 62
     3
 10
-56.9567928735180189
 20
-50.8449359530071234
 30
0.0000000000000113
 11
-59.0967530317033365
 21
-55.2531625413522391
 31
0.0000000000000123
210
-0.0000000000000002
220
1.0
230
-0.0000000000000002
  0
ARC
  5
5CD3
  8
0
  6
CONTINUOUS
 62
     3
 10
55.4983424251897688
 20
-57.0000000000004121
 30
0.0
 40
4.0000000000007176
210
0.0
220
-0.0000000000000002
230
-1.0
 50
0.0000000000034477
 51
25.8941133784722588
  0
ARC
  5
5CD4
  8
0
  6
CONTINUOUS
 62
     3
 10
-55.5016575748085117
 20
-57.0000000000004334
 30
0.0
 40
4.0000000000010383
210
0.0
220
-0.0000000000000002
230
-1.0
 50
154.1058866215288106
 51
179.9999999999955094
  0
LINE
  5
5CD5
  8
0
  6
CONTINUOUS
 62
     3
 10
122.5
 20
66.9999999999999432
 30
-0.0000000000000149
 11
122.5
 21
68.0000000000000711
 31
-0.0000000000000151
210
-0.0000000000000002
220
1.0
230
-0.0000000000000002
  0
LINE
  5
5CD6
  8
0
  6
CONTINUOUS
 62
     3
 10
122.5
 20
66.9999999999999432
 30
-0.0000000000000149
 11
-122.5
 21
66.9999999999998863
 31
-0.0000000000000149
210
-0.0000000000000002
220
1.0
230
-0.0000000000000002
  0
LINE
  5
5CD7
  8
0
  6
CONTINUOUS
 62
     3
 10
-122.5
 20
68.0
 30
-0.0000000000000151
 11
122.5
 21
68.0000000000000853
 31
-0.0000000000000151
210
-0.0000000000000002
220
1.0
230
-0.0000000000000002
  0
LINE
  5
5CD8
  8
0
  6
CONTINUOUS
 62
     3
 10
-122.5
 20
67.9999999999999005
 30
-0.0000000000000151
 11
-122.5
 21
66.9999999999999005
 31
-0.0000000000000149
210
-0.0000000000000002
220
1.0
230
-0.0000000000000002
  0
LINE
  5
5CD9
  8
0
  6
CONTINUOUS
 62
     3
 10
62.4659258262891299
 20
59.7411809548976294
 30
-0.0000000000000133
 11
-62.4659258262890802
 21
59.7411809548976009
 31
-0.0000000000000133
210
-0.0000000000000002
220
1.0
230
-0.0000000000000002
  0
LINE
  5
5CDA
  8
0
  6
CONTINUOUS
 62
     3
 10
-62.4659258262890802
 20
59.7411809548975867
 30
-0.0000000000000133
 11
-64.2123216891178146
 21
66.2588190451026833
 31
-0.0000000000000147
210
-0.0000000000000002
220
1.0
230
-0.0000000000000002
  0
LINE
  5
5CDB
  8
0
  6
CONTINUOUS
 62
     3
 10
62.4659258262891299
 20
59.7411809548976365
 30
-0.0000000000000133
 11
64.2123216891178714
 21
66.2588190451027117
 31
-0.0000000000000147
210
-0.0000000000000002
220
1.0
230
-0.0000000000000002
  0
ARC
  5
5CDC
  8
0
  6
CONTINUOUS
 62
     3
 10
-65.1782475154071363
 20
65.9999999999999289
 30
0.0
 40
1.000000000000244
210
0.0
220
-0.0000000000000002
230
-1.0
 50
15.0000000000117897
 51
89.9999999999886171
  0
ARC
  5
5CDD
  8
0
  6
CONTINUOUS
 62
     3
 10
65.1782475154070653
 20
65.9999999999999005
 30
0.0
 40
1.0000000000002409
210
0.0
220
-0.0000000000000002
230
-1.0
 50
90.0000000000113829
 51
164.999999999988205
  0
LINE
  5
5CDE
  8
0
  6
CONTINUOUS
 62
     3
 10
-50.7000000000000171
 20
-0.0000000000000188
 30
0.0
 11
50.7000000000000171
 21
0.0000000000000099
 31
0.0
210
-0.0000000000000002
220
1.0
230
-0.0000000000000002
  0
LINE
  5
5CDF
  8
0
  6
CONTINUOUS
 62
     3
 10
-60.5000000000000426
 20
70.0000000000000142
 30
-0.0000000000000155
 11
60.4999999999999929
 21
70.0000000000000426
 31
-0.0000000000000155
210
-0.0000000000000002
220
1.0
230
-0.0000000000000002
  0
ARC
  5
5CE0
  8
0
  6
CONTINUOUS
 62
     3
 10
50.4999999999963975
 20
8.0498756211210125
 30
0.0
 40
1.0000000000036089
210
0.0
220
-0.0000000000000002
230
-1.0
 50
354.2894068625121236
 51
359.9999999999910756
  0
ARC
  5
5CE1
  8
0
  6
CONTINUOUS
 62
     3
 10
-50.4999999999963265
 20
8.0498756211210392
 30
0.0
 40
1.0000000000036799
210
0.0
220
-0.0000000000000002
230
-1.0
 50
180.0000000000088107
 51
185.710593137487507
  0
LINE
  5
5CE2
  8
0
  6
CONTINUOUS
 62
     3
 10
51.5000000000000071
 20
40.0000000000000071
 30
-0.0000000000000089
 11
51.5000000000000213
 21
8.0498756211208864
 31
-0.0000000000000018
210
-0.0000000000000002
220
1.0
230
-0.0000000000000002
  0
LINE
  5
5CE3
  8
0
  6
CONTINUOUS
 62
     3
 10
-51.5000000000000213
 20
39.9999999999999929
 30
-0.0000000000000089
 11
-51.5000000000000213
 21
8.0498756211208562
 31
-0.0000000000000018
210
-0.0000000000000002
220
1.0
230
-0.0000000000000002
  0
LINE
  5
5CE4
  8
0
  6
CONTINUOUS
 62
     3
 10
-50.7000000000000171
 20
-0.0000000000000188
 30
0.0
 11
-51.495037190210013
 21
7.9503719020998593
 31
-0.0000000000000018
210
-0.0000000000000002
220
1.0
230
-0.0000000000000002
  0
LINE
  5
5CE5
  8
0
  6
CONTINUOUS
 62
     3
 10
50.7000000000000171
 20
0.0000000000000095
 30
0.0
 11
51.495037190210013
 21
7.950371902099886
 31
-0.0000000000000018
210
-0.0000000000000002
220
1.0
230
-0.0000000000000002
  0
ARC
  5
5CE6
  8
0
  6
CONTINUOUS
 62
     3
 10
48.9999999999999503
 20
60.0000000000000213
 30
0.0
 40
11.5000000000000799
210
0.0
220
-0.0000000000000002
230
-1.0
 50
326.2782327083053815
 51
358.71039207719258
  0
ARC
  5
5CE7
  8
0
  6
CONTINUOUS
 62
     3
 10
-49.0000000000000426
 20
60.0000000000000071
 30
0.0
 40
11.4999999999999503
210
0.0
220
-0.0000000000000002
230
-1.0
 50
181.2896079228071073
 51
213.7217672916945901
  0
LINE
  5
5CE8
  8
0
  6
CONTINUOUS
 62
     3
 10
-53.1825672935433289
 20
45.5516045584645681
 30
-0.0000000000000101
 11
-58.5650476124252108
 21
53.6156547577657321
 31
-0.0000000000000119
210
-0.0000000000000002
220
1.0
230
-0.0000000000000002
  0
LINE
  5
5CE9
  8
0
  6
CONTINUOUS
 62
     3
 10
53.1825672935433076
 20
45.5516045584645966
 30
-0.0000000000000101
 11
58.5650476124251824
 21
53.6156547577657676
 31
-0.0000000000000119
210
-0.0000000000000002
220
1.0
230
-0.0000000000000002
  0
ARC
  5
5CEA
  8
0
  6
CONTINUOUS
 62
     3
 10
61.4999999999999503
 20
40.0
 30
0.0
 40
9.9999999999999272
210
0.0
220
-0.0000000000000002
230
-1.0
 50
146.2782327083050973
 51
180.0
  0
ARC
  5
5CEB
  8
0
  6
CONTINUOUS
 62
     3
 10
-61.5000000000000213
 20
40.0000000000000213
 30
0.0
 40
10.0
210
0.0
220
-0.0000000000000002
230
-1.0
 50
359.9999999999998863
 51
33.7217672916945403
  0
LINE
  5
5CEC
  8
0
  6
CONTINUOUS
 62
     3
 10
60.5
 20
70.0000000000000426
 30
-0.0000000000000155
 11
60.5
 21
68.0000000000000568
 31
-0.0000000000000151
210
-0.0000000000000002
220
1.0
230
-0.0000000000000002
  0
LINE
  5
5CED
  8
0
  6
CONTINUOUS
 62
     3
 10
-60.5000000000000426
 20
70.0000000000000142
 30
-0.0000000000000155
 11
-60.5000000000000426
 21
68.0000000000000142
 31
-0.0000000000000151
210
-0.0000000000000002
220
1.0
230
-0.0000000000000002
  0
LINE
  5
5CEE
  8
0
  6
VERDECKT
 62
     1
 10
-51.8000000000000469
 20
-59.9132265073573507
 30
0.0000000000000133
 11
0.0000000000000062
 21
-59.9132265073573365
 31
0.0000000000000133
210
-0.0000000000000002
220
1.0
230
-0.0000000000000002
  0
LINE
  5
5CEF
  8
0
  6
VERDECKT
 62
     1
 10
0.0000000000000185
 20
-59.9132265073573365
 30
0.0000000000000133
 11
51.8000000000000327
 21
-59.9132265073573222
 31
0.0000000000000133
210
-0.0000000000000002
220
1.0
230
-0.0000000000000002
  0
LINE
  5
5CF0
  8
0
  6
VERDECKT
 62
     1
 10
47.4999999999999929
 20
-75.44398402515192
 30
0.0000000000000168
 11
0.0000000000000239
 21
-75.4439840251519342
 31
0.0000000000000168
210
-0.0000000000000002
220
1.0
230
-0.0000000000000002
  0
LINE
  5
5CF1
  8
0
  6
VERDECKT
 62
     1
 10
0.0000000000000125
 20
-75.4439840251519342
 30
0.0000000000000168
 11
-47.4999999999999929
 21
-75.4439840251519485
 31
0.0000000000000168
210
-0.0000000000000002
220
1.0
230
-0.0000000000000002
  0
LINE
  5
5CF2
  8
0
  6
VERDECKT
 62
     1
 10
-56.5979273487710799
 20
-73.0000000000000711
 30
0.0000000000000162
 11
0.0016575748095227
 21
-73.0000000000000568
 31
0.0000000000000162
210
-0.0000000000000002
220
1.0
230
-0.0000000000000002
  0
LINE
  5
5CF3
  8
0
  6
VERDECKT
 62
     1
 10
0.0016575748095309
 20
-73.0000000000000568
 30
0.0000000000000162
 11
56.6012424983901425
 21
-73.0000000000000426
 31
0.0000000000000162
210
-0.0000000000000002
220
1.0
230
-0.0000000000000002
  0
ARC
  5
5CF4
  8
0
  6
VERDECKT
 62
     1
 10
55.6090464708852323
 20
-51.4932265073572708
 30
0.0
 40
1.4999999999999689
210
0.0
220
-0.0000000000000002
230
-1.0
 50
95.4470566892314451
 51
165.0000000000017906
  0
ARC
  5
5CF5
  8
0
  6
VERDECKT
 62
     1
 10
-55.6090464708852394
 20
-51.4932265073572211
 30
0.0
 40
1.4999999999999509
210
0.0
220
-0.0000000000000002
230
-1.0
 50
14.9999999999977707
 51
84.5529433107638653
  0
LINE
  5
5CF6
  8
0
  6
VERDECKT
 62
     1
 10
-51.7999999999999972
 20
-59.9132265073573507
 30
0.0000000000000133
 11
-54.1601577314516476
 21
-51.1049979397035514
 31
0.0000000000000113
210
-0.0000000000000002
220
1.0
230
-0.0000000000000002
  0
LINE
  5
5CF7
  8
0
  6
VERDECKT
 62
     1
 10
51.8000000000000398
 20
-59.9132265073573222
 30
0.0000000000000133
 11
54.1601577314516831
 21
-51.1049979397035088
 31
0.0000000000000113
210
-0.0000000000000002
220
1.0
230
-0.0000000000000002
  0
LINE
  5
5CF8
  8
0
  6
VERDECKT
 62
     1
 10
51.8000000000000398
 20
-59.9132265073573222
 30
0.0000000000000133
 11
51.8000000000000398
 21
-70.4932265073573063
 31
0.0000000000000157
210
-0.0000000000000002
220
1.0
230
-0.0000000000000002
  0
LINE
  5
5CF9
  8
0
  6
VERDECKT
 62
     1
 10
-51.8000000000000114
 20
-59.9132265073573507
 30
0.0000000000000133
 11
-51.8000000000000114
 21
-70.4932265073573348
 31
0.0000000000000157
210
-0.0000000000000002
220
1.0
230
-0.0000000000000002
  0
ARC
  5
5CFA
  8
0
  6
VERDECKT
 62
     1
 10
46.7999999999999616
 20
-70.4932265073572779
 30
0.0
 40
5.0000000000000497
210
0.0
220
-0.0000000000000002
230
-1.0
 50
278.0478462473117816
 51
359.9999999999993179
  0
ARC
  5
5CFB
  8
0
  6
VERDECKT
 62
     1
 10
-46.7999999999999829
 20
-70.4932265073572353
 30
0.0
 40
5.0000000000000426
210
0.0
220
-0.0000000000000002
230
-1.0
 50
180.0000000000005969
 51
261.9521537526882184
  0
LINE
  5
5CFC
  8
0
  6
VERDECKT
 62
     1
 10
-47.4999999999999929
 20
-77.0000000000001279
 30
0.0000000000000171
 11
-47.4999999999999929
 21
-75.4439840251519485
 31
0.0000000000000168
210
-0.0000000000000002
220
1.0
230
-0.0000000000000002
  0
LINE
  5
5CFD
  8
0
  6
VERDECKT
 62
     1
 10
47.5000000000000213
 20
-77.0000000000000853
 30
0.0000000000000171
 11
47.5000000000000213
 21
-75.44398402515192
 31
0.0000000000000168
210
-0.0000000000000002
220
1.0
230
-0.0000000000000002
  0
LINE
  5
5CFE
  8
0
  6
VERDECKT
 62
     1
 10
56.6012424983901212
 20
-73.0000000000000568
 30
0.0000000000000162
 11
58.0016575748095065
 21
-75.0000000000000853
 31
0.0000000000000167
210
-0.0000000000000002
220
1.0
230
-0.0000000000000002
  0
LINE
  5
5CFF
  8
0
  6
VERDECKT
 62
     1
 10
-56.5979273487710728
 20
-73.0000000000000853
 30
0.0000000000000162
 11
-57.998342425190458
 21
-75.0000000000001137
 31
0.0000000000000167
210
-0.0000000000000002
220
1.0
230
-0.0000000000000002
  0
ARC
  5
5D00
  8
0
  6
VERDECKT
 62
     1
 10
49.4983424251905788
 20
-72.0000000000001705
 30
0.0
 40
4.9999999999999121
210
0.0
220
-0.0000000000000002
230
-1.0
 50
323.130102354156179
 51
348.4630409671851226
  0
ARC
  5
5D01
  8
0
  6
VERDECKT
 62
     1
 10
-49.5016575748096272
 20
-72.0000000000001421
 30
0.0
 40
4.9999999999999112
210
0.0
220
-0.0000000000000002
230
-1.0
 50
191.5369590328147922
 51
216.8698976458437073
  0
LINE
  5
5D02
  8
0
  6
VERDECKT
 62
     1
 10
61.5000000000000426
 20
60.0000000000000568
 30
-0.0000000000000133
 11
-61.4999999999999787
 21
60.0000000000000284
 31
-0.0000000000000133
210
-0.0000000000000002
220
1.0
230
-0.0000000000000002
  0
LINE
  5
5D03
  8
0
  6
VERDECKT
 62
     1
 10
-98.5000000000000568
 20
67.9999999999999716
 30
-0.0000000000000151
 11
-98.5000000000000568
 21
66.9999999999998295
 31
-0.0000000000000149
210
-0.0000000000000002
220
1.0
230
-0.0000000000000002
  0
LINE
  5
5D04
  8
0
  6
VERDECKT
 62
     1
 10
-106.5
 20
67.9999999999999716
 30
-0.0000000000000151
 11
-106.5
 21
66.9999999999998295
 31
-0.0000000000000149
210
-0.0000000000000002
220
1.0
230
-0.0000000000000002
  0
LINE
  5
5D05
  8
0
  6
VERDECKT
 62
     1
 10
98.5000000000000568
 20
66.9999999999998863
 30
-0.0000000000000149
 11
98.5000000000000568
 21
68.0000000000000284
 31
-0.0000000000000151
210
-0.0000000000000002
220
1.0
230
-0.0000000000000002
  0
LINE
  5
5D06
  8
0
  6
VERDECKT
 62
     1
 10
106.5
 20
66.9999999999998863
 30
-0.0000000000000149
 11
106.5
 21
68.0000000000000284
 31
-0.0000000000000151
210
-0.0000000000000002
220
1.0
230
-0.0000000000000002
  0
LINE
  5
5D07
  8
0
  6
VERDECKT
 62
     1
 10
-61.4999999999999929
 20
60.0000000000000213
 30
-0.0000000000000133
 11
-63.2463958628286278
 21
66.5176380902051108
 31
-0.0000000000000148
210
-0.0000000000000002
220
1.0
230
-0.0000000000000002
  0
LINE
  5
5D08
  8
0
  6
VERDECKT
 62
     1
 10
61.5000000000000497
 20
60.0000000000000711
 30
-0.0000000000000133
 11
63.2463958628286775
 21
66.5176380902051392
 31
-0.0000000000000148
210
-0.0000000000000002
220
1.0
230
-0.0000000000000002
  0
LINE
  5
5D09
  8
0
  6
VERDECKT
 62
     1
 10
61.5000000000000497
 20
60.0000000000001066
 30
-0.0000000000000133
 11
62.4659258262891228
 21
59.7411809548975867
 31
-0.0000000000000133
210
-0.0000000000000002
220
1.0
230
-0.0000000000000002
  0
LINE
  5
5D0A
  8
0
  6
VERDECKT
 62
     1
 10
-61.5
 20
60.0000000000000711
 30
-0.0000000000000133
 11
-62.4659258262890589
 21
59.741180954897537
 31
-0.0000000000000133
210
-0.0000000000000002
220
1.0
230
-0.0000000000000002
  0
ARC
  5
5D0B
  8
0
  6
VERDECKT
 62
     1
 10
-65.1782475154069232
 20
66.0000000000000426
 30
0.0
 40
2.0000000000001328
210
0.0
220
-0.0000000000000002
230
-1.0
 50
15.0000000000005898
 51
89.9999999999971436
  0
ARC
  5
5D0C
  8
0
  6
VERDECKT
 62
     1
 10
65.1782475154068663
 20
66.0000000000000142
 30
0.0
 40
2.0000000000001279
210
0.0
220
-0.0000000000000002
230
-1.0
 50
90.0000000000028422
 51
164.9999999999992895
  0
LINE
  5
5D0D
  8
0
  6
VERDECKT
 62
     1
 10
-49.207444214685033
 20
0.1492555785314836
 30
0.0
 11
49.207444214685033
 21
0.1492555785315115
 31
0.0
210
-0.0000000000000002
220
1.0
230
-0.0000000000000002
  0
ARC
  5
5D0E
  8
0
  6
VERDECKT
 62
     1
 10
48.9999999999963904
 20
8.1246890528024007
 30
0.0
 40
1.000000000003616
210
0.0
220
-0.0000000000000002
230
-1.0
 50
354.2894068625121236
 51
359.9999999999910187
  0
ARC
  5
5D0F
  8
0
  6
VERDECKT
 62
     1
 10
-48.9999999999963407
 20
8.1246890528024291
 30
0.0
 40
1.0000000000036731
210
0.0
220
-0.0000000000000002
230
-1.0
 50
180.0000000000090097
 51
185.7105931374875922
  0
LINE
  5
5D10
  8
0
  6
VERDECKT
 62
     1
 10
-49.207444214685033
 20
0.149255578531484
 30
0.0
 11
-49.9950371902099988
 21
8.0251853337812449
 31
-0.0000000000000018
210
-0.0000000000000002
220
1.0
230
-0.0000000000000002
  0
LINE
  5
5D11
  8
0
  6
VERDECKT
 62
     1
 10
49.207444214685033
 20
0.149255578531512
 30
0.0
 11
49.9950371902099988
 21
8.0251853337812733
 31
-0.0000000000000018
210
-0.0000000000000002
220
1.0
230
-0.0000000000000002
  0
LINE
  5
5D12
  8
0
  6
VERDECKT
 62
     1
 10
50.0
 20
40.0000000000000426
 30
-0.0000000000000089
 11
50.0000000000000071
 21
8.1246890528022746
 31
-0.0000000000000018
210
-0.0000000000000002
220
1.0
230
-0.0000000000000002
  0
LINE
  5
5D13
  8
0
  6
VERDECKT
 62
     1
 10
-50.0000000000000213
 20
40.0000000000000071
 30
-0.0000000000000089
 11
-50.0000000000000071
 21
8.1246890528022462
 31
-0.0000000000000018
210
-0.0000000000000002
220
1.0
230
-0.0000000000000002
  0
ARC
  5
5D14
  8
0
  6
VERDECKT
 62
     1
 10
49.0000000000373106
 20
59.9999999999995026
 30
0.0
 40
11.4999999999627196
210
0.0
220
-0.0000000000000002
230
-1.0
 50
358.7103920771909884
 51
0.0000000000025063
  0
ARC
  5
5D15
  8
0
  6
VERDECKT
 62
     1
 10
-49.0000000000356906
 20
59.9999999999995381
 30
0.0
 40
11.4999999999643006
210
0.0
220
-0.0000000000000002
230
-1.0
 50
179.9999999999974989
 51
181.2896079228088126
  0
LINE
  5
5D16
  8
0
  6
VERDECKT
 62
     1
 10
49.207444214685033
 20
0.1492555785315103
 30
0.0
 11
50.7000000000000171
 21
0.0000000000000119
 31
0.0
210
-0.0000000000000002
220
1.0
230
-0.0000000000000002
  0
LINE
  5
5D17
  8
0
  6
VERDECKT
 62
     1
 10
-49.207444214685033
 20
0.1492555785314824
 30
0.0
 11
-50.7000000000000171
 21
-0.0000000000000168
 31
0.0
210
-0.0000000000000002
220
1.0
230
-0.0000000000000002
  0
ARC
  5
5D18
  8
0
  6
VERDECKT
 62
     1
 10
61.5000000000000213
 20
40.0
 30
0.0
 40
11.5
210
0.0
220
-0.0000000000000002
230
-1.0
 50
146.278232708305211
 51
179.9999999999998863
  0
ARC
  5
5D19
  8
0
  6
VERDECKT
 62
     1
 10
-61.5000000000000284
 20
40.0000000000000426
 30
0.0
 40
11.5000000000000302
210
0.0
220
-0.0000000000000002
230
-1.0
 50
360.0
 51
33.7217672916946398
  0
LINE
  5
5D1A
  8
0
  6
VERDECKT
 62
     1
 10
-51.9349523875748389
 20
46.3843452422342821
 30
-0.0000000000000103
 11
-57.3174327064567208
 21
54.4483954415354532
 31
-0.0000000000000121
210
-0.0000000000000002
220
1.0
230
-0.0000000000000002
  0
LINE
  5
5D1B
  8
0
  6
VERDECKT
 62
     1
 10
51.9349523875748176
 20
46.3843452422343105
 30
-0.0000000000000103
 11
57.3174327064566924
 21
54.4483954415354674
 31
-0.0000000000000121
210
-0.0000000000000002
220
1.0
230
-0.0000000000000002
  0
ARC
  5
5D1C
  8
0
  6
VERDECKT
 62
     1
 10
49.0000000000000711
 20
60.0
 30
0.0
 40
9.999999999999968
210
0.0
220
-0.0000000000000002
230
-1.0
 50
326.2782327083053246
 51
0.0000000000001654
  0
ARC
  5
5D1D
  8
0
  6
VERDECKT
 62
     1
 10
-49.0000000000000924
 20
60.0000000000000071
 30
0.0
 40
9.9999999999999094
210
0.0
220
-0.0000000000000002
230
-1.0
 50
179.9999999999996021
 51
213.7217672916947038
  0
LINE
  5
5D1E
  8
0
  6
VERDECKT
 62
     1
 10
58.9999999999999929
 20
70.0000000000000568
 30
-0.0000000000000155
 11
58.9999999999999929
 21
60.0000000000000711
 31
-0.0000000000000133
210
-0.0000000000000002
220
1.0
230
-0.0000000000000002
  0
LINE
  5
5D1F
  8
0
  6
VERDECKT
 62
     1
 10
-59.0000000000000284
 20
70.0000000000000284
 30
-0.0000000000000155
 11
-59.0000000000000284
 21
60.0000000000000213
 31
-0.0000000000000133
210
-0.0000000000000002
220
1.0
230
-0.0000000000000002
  0
LINE
  5
5D20
  8
0
  6
VERDECKT
 62
     1
 10
60.5
 20
68.0000000000000568
 30
-0.0000000000000151
 11
60.5
 21
60.0000000000000497
 31
-0.0000000000000133
210
-0.0000000000000002
220
1.0
230
-0.0000000000000002
  0
LINE
  5
5D21
  8
0
  6
VERDECKT
 62
     1
 10
-60.5000000000000426
 20
68.0000000000000142
 30
-0.0000000000000151
 11
-60.5000000000000426
 21
60.0
 31
-0.0000000000000133
210
-0.0000000000000002
220
1.0
230
-0.0000000000000002
  0
ENDBLK
  5
5D23
  8
0
  0
ENDSEC
  0
SECTION
  2
ENTITIES
  0
TEXT
  5
96
  8
TEXT
 10
531.6544091479096323
 20
654.3410940884990623
 30
0.0
 40
5.0
  1

 50
90.0
 41
0.8
  7
GREEKS
  0
INSERT
  5
1430
  8
ADSK_ASSOC_ENTITY_BACKUPS
  2
*S0
 10
0.0
 20
0.0
 30
0.0
  0
INSERT
  5
5C8F
  8
STEMPEL
  2
A$C91191346
 10
0.0
 20
0.0
 30
0.0
  0
INSERT
  5
5CAE
  8
STEMPEL
  2
A$CEE060300
 10
0.0
 20
-299.5000000000001137
 30
-0.0000000000000453
  0
INSERT
  5
5D24
  8
STEMPEL
  2
A$C8D9D5AAC
 10
522.4999999999997726
 20
0.0000000000029274
 30
0.0
  0
VIEWPORT
  5
140F
 67
     1
  8
0
 10
297.007133314824614
 20
209.9954145826490048
 30
0.0
 40
798.1701256077442395
 41
426.3698209718668863
 68
     1
 69
     1
1001
ACAD
1000
MVIEW
1002
{
1070
    16
1010
0.0
1020
0.0
1030
0.0
1010
0.0
1020
0.0
1030
1.0
1040
0.0
1040
426.3698209718668863
1040
297.007133314824614
1040
209.9954145826490048
1040
50.0
1040
0.0
1040
0.0
1070
     0
1070
  1500
1070
     1
1070
     1
1070
     0
1070
     0
1070
     0
1070
     0
1040
0.0
1040
0.0
1040
0.0
1040
10.0
1040
10.0
1040
10.0
1040
10.0
1070
     0
1002
{
1002
}
1002
}
  0
INSERT
  5
4950
 67
     1
  8
TEXT
 62
     2
  2
_NONE
 10
176.2079983799781076
 20
287.1375729543460125
 30
0.0000000000000846
 41
3.0
 42
3.0
 43
3.0
 50
116.7261833141290026
  0
ENDSEC
  0
EOF
