  0
SECTION
  2
HEADER
  9
$ACADVER
  1
AC1009
  9
$INSBASE
 10
0.0
 20
0.0
 30
0.0
  9
$EXTMIN
 10
-150.0000000000001137
 20
-430.9998957656648031
 30
-0.0000000000000813
  9
$EXTMAX
 10
445.0000000000001137
 20
366.0000000000002274
 30
0.0000000000000184
  9
$LIMMIN
 10
0.0
 20
0.0
  9
$LIMMAX
 10
1681.9999999999990905
 20
1188.0
  9
$ORTHOMODE
 70
     1
  9
$REGENMODE
 70
     1
  9
$FILLMODE
 70
     1
  9
$QTEXTMODE
 70
     0
  9
$MIRRTEXT
 70
     1
  9
$DRAGMODE
 70
     2
  9
$LTSCALE
 40
20.0
  9
$OSMODE
 70
   511
  9
$ATTMODE
 70
     1
  9
$TEXTSIZE
 40
3.5
  9
$TRACEWID
 40
1.0
  9
$TEXTSTYLE
  7
STANDARD
  9
$CLAYER
  8
STEMPEL
  9
$CELTYPE
  6
BYLAYER
  9
$CECOLOR
 62
   256
  9
$DIMSCALE
 40
1.0
  9
$DIMASZ
 40
3.5
  9
$DIMEXO
 40
1.0
  9
$DIMDLI
 40
0.38
  9
$DIMRND
 40
0.0
  9
$DIMDLE
 40
0.0
  9
$DIMEXE
 40
1.0
  9
$DIMTP
 40
0.0
  9
$DIMTM
 40
0.000000001
  9
$DIMTXT
 40
3.5
  9
$DIMCEN
 40
0.09
  9
$DIMTSZ
 40
0.0
  9
$DIMTOL
 70
     0
  9
$DIMLIM
 70
     0
  9
$DIMTIH
 70
     0
  9
$DIMTOH
 70
     0
  9
$DIMSE1
 70
     0
  9
$DIMSE2
 70
     0
  9
$DIMTAD
 70
     1
  9
$DIMZIN
 70
     8
  9
$DIMBLK
  1

  9
$DIMASO
 70
     1
  9
$DIMSHO
 70
     0
  9
$DIMPOST
  1

  9
$DIMAPOST
  1

  9
$DIMALT
 70
     0
  9
$DIMALTD
 70
     2
  9
$DIMALTF
 40
25.3999999999999986
  9
$DIMLFAC
 40
2.0
  9
$DIMTOFL
 70
     1
  9
$DIMTVP
 40
0.0
  9
$DIMTIX
 70
     0
  9
$DIMSOXD
 70
     0
  9
$DIMSAH
 70
     0
  9
$DIMBLK1
  1

  9
$DIMBLK2
  1

  9
$DIMSTYLE
  2
LORO
  9
$DIMCLRD
 70
     0
  9
$DIMCLRE
 70
     0
  9
$DIMCLRT
 70
     1
  9
$DIMTFAC
 40
0.5
  9
$DIMGAP
 40
1.5
  9
$LUNITS
 70
     2
  9
$LUPREC
 70
     2
  9
$SKETCHINC
 40
1.0
  9
$FILLETRAD
 40
16.0
  9
$AUNITS
 70
     0
  9
$AUPREC
 70
     0
  9
$MENU
  1
ACAD
  9
$ELEVATION
 40
0.0
  9
$PELEVATION
 40
0.0
  9
$THICKNESS
 40
0.0
  9
$LIMCHECK
 70
     0
  9
$BLIPMODE
 70
     0
  9
$CHAMFERA
 40
2.0
  9
$CHAMFERB
 40
2.0
  9
$SKPOLY
 70
     0
  9
$TDCREATE
 40
2455397.867048610933125
  9
$TDUPDATE
 40
2459636.6107407407835126
  9
$TDINDWG
 40
3.6696992593000002
  9
$TDUSRTIMER
 40
3.6696992593000002
  9
$USRTIMER
 70
     1
  9
$ANGBASE
 50
0.0
  9
$ANGDIR
 70
     0
  9
$PDMODE
 70
     0
  9
$PDSIZE
 40
0.0
  9
$PLINEWID
 40
0.0
  9
$COORDS
 70
     1
  9
$SPLFRAME
 70
     0
  9
$SPLINETYPE
 70
     6
  9
$SPLINESEGS
 70
     8
  9
$ATTDIA
 70
     1
  9
$ATTREQ
 70
     1
  9
$HANDLING
 70
     1
  9
$HANDSEED
  5
1BE17
  9
$SURFTAB1
 70
     6
  9
$SURFTAB2
 70
     6
  9
$SURFTYPE
 70
     6
  9
$SURFU
 70
     6
  9
$SURFV
 70
     6
  9
$UCSNAME
  2

  9
$UCSORG
 10
0.0
 20
0.0
 30
0.0
  9
$UCSXDIR
 10
1.0
 20
0.0
 30
0.0
  9
$UCSYDIR
 10
0.0
 20
1.0
 30
0.0
  9
$PUCSNAME
  2

  9
$PUCSORG
 10
0.0
 20
0.0
 30
0.0
  9
$PUCSXDIR
 10
1.0
 20
0.0
 30
0.0
  9
$PUCSYDIR
 10
0.0
 20
1.0
 30
0.0
  9
$USERI1
 70
     0
  9
$USERI2
 70
     0
  9
$USERI3
 70
     0
  9
$USERI4
 70
     0
  9
$USERI5
 70
     0
  9
$USERR1
 40
0.0
  9
$USERR2
 40
0.0
  9
$USERR3
 40
0.0
  9
$USERR4
 40
0.0
  9
$USERR5
 40
0.0
  9
$WORLDVIEW
 70
     1
  9
$SHADEDGE
 70
     3
  9
$SHADEDIF
 70
    70
  9
$TILEMODE
 70
     1
  9
$MAXACTVP
 70
    16
  9
$PLIMCHECK
 70
     0
  9
$PEXTMIN
 10
1.0000000000000000E+20
 20
1.0000000000000000E+20
 30
1.0000000000000000E+20
  9
$PEXTMAX
 10
-1.0000000000000000E+20
 20
-1.0000000000000000E+20
 30
-1.0000000000000000E+20
  9
$PLIMMIN
 10
-2.9593969726560352
 20
-2.0944364929199142
  9
$PLIMMAX
 10
596.9806030273440456
 20
422.1055635070800918
  9
$UNITMODE
 70
     0
  9
$VISRETAIN
 70
     0
  9
$PLINEGEN
 70
     0
  9
$PSLTSCALE
 70
     0
  0
ENDSEC
  0
SECTION
  2
TABLES
  0
TABLE
  2
VPORT
 70
     1
  0
VPORT
  2
*ACTIVE
 70
     0
 10
0.0
 20
0.0
 11
1.0
 21
1.0
 12
-87.4064476493087454
 22
172.823217851562589
 13
0.0
 23
0.0
 14
1.0
 24
1.0
 15
10.0
 25
10.0
 16
0.0000000000000284
 26
0.0
 36
164.9602776785357889
 17
209.9064476493086886
 27
-180.3231657343949905
 37
-0.0000000000000836
 40
750.8208670995046532
 41
1.872013651877132
 42
50.0
 43
0.0
 44
0.0
 50
0.0
 51
0.0
 71
     0
 72
  1500
 73
     1
 74
     0
 75
     0
 76
     0
 77
     0
 78
     0
  0
ENDTAB
  0
TABLE
  2
LTYPE
 70
     3
  0
LTYPE
  2
CONTINUOUS
 70
     0
  3
Solid line
 72
    65
 73
     0
 40
0.0
  0
LTYPE
  2
STRICHPUNKT
 70
     0
  3
__ . __ . __ . __ . __ . __ . __ . __ . __ . __
 72
    65
 73
     4
 40
1.0
 49
0.5
 49
-0.25
 49
0.0
 49
-0.25
  0
LTYPE
  2
VERDECKT
 70
     0
  3
Verdeckt __ __ __ __ __ __ __ __ __ __ __ __ __
 72
    65
 73
     2
 40
0.375
 49
0.25
 49
-0.125
  0
ENDTAB
  0
TABLE
  2
LAYER
 70
     7
  0
LAYER
  2
0
 70
     0
 62
     7
  6
CONTINUOUS
  0
LAYER
  2
VOLL
 70
     0
 62
     1
  6
CONTINUOUS
  0
LAYER
  2
STEMPEL
 70
     0
 62
     3
  6
CONTINUOUS
  0
LAYER
  2
DEFPOINTS
 70
     0
 62
     7
  6
CONTINUOUS
  0
LAYER
  2
ADSK_ASSOC_ENTITY_BACKUPS
 70
     1
 62
    -7
  6
CONTINUOUS
  0
ENDTAB
  0
TABLE
  2
STYLE
 70
     3
  0
STYLE
  2
STANDARD
 70
     0
 40
0.0
 41
0.8
 50
0.0
 71
     0
 42
3.5
  3
simplex.shx
  4

  0
STYLE
  2
GREEKS
 70
     0
 40
0.0
 41
0.8
 50
0.0
 71
     0
 42
2.5
  3
SIMPLEX.shx
  4

  0
ENDTAB
  0
TABLE
  2
VIEW
 70
     0
  0
ENDTAB
  0
TABLE
  2
UCS
 70
     0
  0
ENDTAB
  0
TABLE
  2
APPID
 70
    31
  0
APPID
  2
ACAD
 70
     0
  0
APPID
  2
ACAD_EXEMPT_FROM_CAD_STANDARDS
 70
     0
  0
APPID
  2
ACAD_NAV_VCDISPLAY
 70
     0
  0
APPID
  2
GRADIENTCOLOR1ACI
 70
     0
  0
APPID
  2
GRADIENTCOLOR2ACI
 70
     0
  0
APPID
  2
ACAUTHENVIRON
 70
     0
  0
APPID
  2
ACDBDYNAMICBLOCKTRUENAME
 70
     0
  0
APPID
  2
ACDBDYNAMICBLOCKGUID
 70
     0
  0
APPID
  2
ACAD_PSEXT
 70
     0
  0
APPID
  2
ACAD_MLEADERVER
 70
     0
  0
APPID
  2
ACAECLAYERSTANDARD
 70
     0
  0
APPID
  2
ACCMTRANSPARENCY
 70
     0
  0
APPID
  2
ACAD_STEPID
 70
     0
  0
APPID
  2
ACSYNERGY
 70
     0
  0
APPID
  2
SYNERGY_BODY_TBR_ID
 70
     0
  0
APPID
  2
ACAD_VIEW_EDGE_ID
 70
     0
  0
APPID
  2
ACAD_DSTYLE_DIMJAG
 70
     0
  0
APPID
  2
ACAD_DSTYLE_DIMBREAK
 70
     0
  0
APPID
  2
ACAD_DSTYLE_DIMTALN
 70
     0
  0
APPID
  2
ACADANNOMONITORALERTICONDI
 70
     0
  0
APPID
  2
ACAD_DIMASSOC_CALC_DIMLFAC
 70
     0
  0
APPID
  2
ACAD_DIMASSOC_DIMLFAC
 70
     0
  0
APPID
  2
ACAD_DIMASSOC_OVERRIDDEN_D
 70
     0
  0
APPID
  2
ACAD_DSTYLE_DIMRADIAL_EXTENSION
 70
     0
  0
APPID
  2
ACADANNOPO
 70
     0
  0
APPID
  2
ACSYNERGYSKETCH
 70
     0
  0
APPID
  2
ACAD_MODELDOC_XFORM
 70
     0
  0
APPID
  2
SYNERGY_EXCLUDED_FROM_SNAPSHOT
 70
     0
  0
APPID
  2
PLOTTRANSPARENCY
 70
     0
  0
APPID
  2
ACAD_TC
 70
     0
  0
APPID
  2
ACADANNOAV
 70
     0
  0
ENDTAB
  0
TABLE
  2
DIMSTYLE
 70
     2
  0
DIMSTYLE
  2
STANDARD
 70
     0
  3

  4

  5

  6

  7

 40
1.0
 41
0.18
 42
0.0625
 43
0.38
 44
0.18
 45
0.0
 46
0.0
 47
0.0
 48
0.0
140
0.18
141
0.09
142
0.0
143
25.3999999999999986
144
1.0
145
0.0
146
1.0
147
0.09
 71
     0
 72
     0
 73
     1
 74
     1
 75
     0
 76
     0
 77
     0
 78
     0
170
     0
171
     2
172
     0
173
     0
174
     0
175
     0
176
     0
177
     0
178
     0
  0
DIMSTYLE
  2
LORO
 70
     0
  3

  4

  5

  6

  7

 40
1.0
 41
3.5
 42
1.0
 43
0.38
 44
1.0
 45
0.0
 46
0.0
 47
0.0
 48
0.000000001
140
3.5
141
0.09
142
0.0
143
25.3999999999999986
144
2.0
145
0.0
146
0.5
147
1.5
 71
     0
 72
     0
 73
     0
 74
     0
 75
     0
 76
     0
 77
     1
 78
     8
170
     0
171
     2
172
     1
173
     0
174
     0
175
     0
176
     0
177
     0
178
     1
  0
ENDTAB
  0
ENDSEC
  0
SECTION
  2
BLOCKS
  0
BLOCK
  8
0
  2
$MODEL_SPACE
 70
     0
 10
0.0
 20
0.0
 30
0.0
  3
$MODEL_SPACE
  1

  0
ENDBLK
  5
38
  8
0
  0
BLOCK
 67
     1
  8
0
  2
$PAPER_SPACE
 70
     0
 10
0.0
 20
0.0
 30
0.0
  3
$PAPER_SPACE
  1

  0
ENDBLK
  5
36
 67
     1
  8
0
  0
BLOCK
  8
0
  2
*S0
 70
     1
 10
0.0
 20
0.0
 30
0.0
  3
*S0
  1

  0
ENDBLK
  5
46EF
  8
0
  0
BLOCK
  8
0
  2
A$C9F0801F4
 70
     0
 10
0.0
 20
0.0
 30
0.0
  3
A$C9F0801F4
  1

  0
LINE
  5
1BC95
  8
0
  6
CONTINUOUS
 62
     3
 10
-72.0000000000484448
 20
269.9999999999997726
 30
-0.00000000000006
 11
72.0000000000485443
 21
269.9999999999997726
 31
-0.00000000000006
210
0.0
220
1.0
230
-0.0000000000000002
  0
LINE
  5
1BC96
  8
0
  6
CONTINUOUS
 62
     3
 10
-65.6999999999999318
 20
-0.0000000000002917
 30
0.0
 11
65.7000000000000455
 21
-0.0000000000002834
 31
0.0
210
0.0
220
1.0
230
-0.0000000000000002
  0
LINE
  5
1BC97
  8
0
  6
CONTINUOUS
 62
     3
 10
-68.4246378256498105
 20
245.2017394338645033
 30
-0.0000000000000544
 11
-69.5194308710118349
 21
248.000000000000199
 31
-0.0000000000000551
210
0.0
220
1.0
230
-0.0000000000000002
  0
LINE
  5
1BC98
  8
0
  6
CONTINUOUS
 62
     3
 10
68.4246378256499241
 20
245.2017394338645033
 30
-0.0000000000000544
 11
69.5194308710119486
 21
248.000000000000199
 31
-0.0000000000000551
210
0.0
220
1.0
230
-0.0000000000000002
  0
ARC
  5
1BC99
  8
0
  6
CONTINUOUS
 62
     3
 10
94.4999999999998295
 20
234.9999999999998863
 30
0.0
 40
27.9999999999998614
210
0.0
220
-0.0000000000000002
230
-1.0
 50
158.6325470100904056
 51
180.0000000000001137
  0
ARC
  5
1BC9A
  8
0
  6
CONTINUOUS
 62
     3
 10
-94.5000000000000142
 20
234.999999999999801
 30
0.0
 40
27.9999999999999396
210
0.0
220
-0.0000000000000002
230
-1.0
 50
0.0
 51
21.3674529899095411
  0
LINE
  5
1BC9B
  8
0
  6
CONTINUOUS
 62
     3
 10
72.0000000000485443
 20
269.9999999999997726
 30
-0.00000000000006
 11
72.0000000000485443
 21
268.0000000000002274
 31
-0.0000000000000595
210
0.0
220
1.0
230
-0.0000000000000002
  0
LINE
  5
1BC9C
  8
0
  6
CONTINUOUS
 62
     3
 10
-72.0000000000484448
 20
269.9999999999997726
 30
-0.00000000000006
 11
-72.0000000000484448
 21
268.0000000000002274
 31
-0.0000000000000595
210
0.0
220
1.0
230
-0.0000000000000002
  0
ARC
  5
1BC9D
  8
0
  6
CONTINUOUS
 62
     3
 10
65.5000000000048601
 20
8.0498756211203109
 30
0.0
 40
0.999999999995083
210
0.0
220
-0.0000000000000002
230
-1.0
 50
354.2894068624837018
 51
0.0000000000115009
  0
ARC
  5
1BC9E
  8
0
  6
CONTINUOUS
 62
     3
 10
-65.5000000000050022
 20
8.0498756211203162
 30
0.0
 40
0.9999999999950546
210
0.0
220
-0.0000000000000002
230
-1.0
 50
179.9999999999884039
 51
185.7105931375162129
  0
LINE
  5
1BC9F
  8
0
  6
CONTINUOUS
 62
     3
 10
66.5000000000000426
 20
234.999999999999801
 30
-0.0000000000000522
 11
66.5000000000000568
 21
8.0498756211205222
 31
-0.0000000000000018
210
0.0
220
1.0
230
-0.0000000000000002
  0
LINE
  5
1BCA0
  8
0
  6
CONTINUOUS
 62
     3
 10
-66.4999999999999432
 20
234.999999999999801
 30
-0.0000000000000522
 11
-66.4999999999999432
 21
8.0498756211205222
 31
-0.0000000000000018
210
0.0
220
1.0
230
-0.0000000000000002
  0
LINE
  5
1BCA1
  8
0
  6
CONTINUOUS
 62
     3
 10
-65.699999999999946
 20
-0.0000000000002927
 30
0.0
 11
-66.4950371902099278
 21
7.9503719020995121
 31
-0.0000000000000018
210
0.0
220
1.0
230
-0.0000000000000002
  0
LINE
  5
1BCA2
  8
0
  6
CONTINUOUS
 62
     3
 10
65.7000000000000597
 20
-0.0000000000002882
 30
0.0
 11
66.4950371902100414
 21
7.95037190209952
 31
-0.0000000000000018
210
0.0
220
1.0
230
-0.0000000000000002
  0
LINE
  5
1BCA3
  8
0
  6
CONTINUOUS
 62
     3
 10
-75.4999999999998863
 20
-56.999895765664867
 30
0.0000000000000127
 11
75.5000000000001137
 21
-56.999895765664867
 31
0.0000000000000127
210
0.0
220
1.0
230
-0.0000000000000002
  0
LINE
  5
1BCA4
  8
0
  6
CONTINUOUS
 62
     3
 10
-71.4801488286689164
 20
-59.9998957656648813
 30
0.0000000000000133
 11
71.4801488286691438
 21
-59.9998957656648813
 31
0.0000000000000133
210
0.0
220
1.0
230
-0.0000000000000002
  0
LINE
  5
1BCA5
  8
0
  6
CONTINUOUS
 62
     3
 10
-73.2999999999998835
 20
-64.9998957656648741
 30
0.0000000000000144
 11
73.3000000000001108
 21
-64.9998957656648741
 31
0.0000000000000144
210
0.0
220
1.0
230
-0.0000000000000002
  0
LINE
  5
1BCA6
  8
0
  6
CONTINUOUS
 62
     3
 10
-73.2999999999998835
 20
-68.0998957656648969
 30
0.0000000000000151
 11
73.3000000000001108
 21
-68.0998957656648969
 31
0.0000000000000151
210
0.0
220
1.0
230
-0.0000000000000002
  0
LINE
  5
1BCA7
  8
0
  6
CONTINUOUS
 62
     3
 10
-75.6999999999999318
 20
-70.4998957656648741
 30
0.0000000000000157
 11
75.7000000000001592
 21
-70.4998957656648741
 31
0.0000000000000157
210
0.0
220
1.0
230
-0.0000000000000002
  0
LINE
  5
1BCA8
  8
0
  6
CONTINUOUS
 62
     3
 10
-75.6999999999999318
 20
-71.4998957656648741
 30
0.0000000000000159
 11
75.7000000000001592
 21
-71.4998957656648741
 31
0.0000000000000159
210
0.0
220
1.0
230
-0.0000000000000002
  0
LINE
  5
1BCA9
  8
0
  6
CONTINUOUS
 62
     3
 10
-73.4999999999998863
 20
-73.6998957656649196
 30
0.0000000000000164
 11
73.5000000000001137
 21
-73.6998957656649196
 31
0.0000000000000164
210
0.0
220
1.0
230
-0.0000000000000002
  0
LINE
  5
1BCAA
  8
0
  6
CONTINUOUS
 62
     3
 10
-73.4999999999998863
 20
-76.1893839890133364
 30
0.0000000000000169
 11
73.5000000000001137
 21
-76.1893839890133364
 31
0.0000000000000169
210
0.0
220
1.0
230
-0.0000000000000002
  0
LINE
  5
1BCAB
  8
0
  6
CONTINUOUS
 62
     3
 10
-75.6999999999999318
 20
-79.9998957656648741
 30
0.0000000000000178
 11
75.7000000000001592
 21
-79.9998957656648741
 31
0.0000000000000178
210
0.0
220
1.0
230
-0.0000000000000002
  0
LINE
  5
1BCAC
  8
0
  6
CONTINUOUS
 62
     3
 10
-64.4999999999997726
 20
-80.9998957656648884
 30
0.000000000000018
 11
64.5
 21
-80.9998957656648884
 31
0.000000000000018
210
0.0
220
1.0
230
-0.0000000000000002
  0
LINE
  5
1BCAD
  8
0
  6
CONTINUOUS
 62
     3
 10
-71.4999999999999716
 20
-50.0000000000002913
 30
0.0000000000000111
 11
71.5000000000001847
 21
-50.0000000000002913
 31
0.0000000000000111
210
0.0
220
1.0
230
-0.0000000000000002
  0
ARC
  5
1BCAE
  8
0
  6
CONTINUOUS
 62
     3
 10
70.9999999999998721
 20
-57.9998957656648599
 30
0.0
 40
0.9999999999999857
210
0.0
220
-0.0000000000000002
230
-1.0
 50
89.9999999999992042
 51
180.0000000000007105
  0
ARC
  5
1BCAF
  8
0
  6
CONTINUOUS
 62
     3
 10
-71.0000000000000995
 20
-57.9998957656648599
 30
0.0
 40
0.9999999999999857
210
0.0
220
-0.0000000000000002
230
-1.0
 50
359.9999999999992042
 51
90.00000000000081
  0
LINE
  5
1BCB0
  8
0
  6
CONTINUOUS
 62
     3
 10
70.0000000000001137
 20
-57.999895765664867
 30
0.0000000000000129
 11
70.0000000000001137
 21
-58.999895765664867
 31
0.0000000000000131
210
0.0
220
1.0
230
-0.0000000000000002
  0
LINE
  5
1BCB1
  8
0
  6
CONTINUOUS
 62
     3
 10
-69.9999999999998863
 20
-57.999895765664867
 30
0.0000000000000129
 11
-69.9999999999998863
 21
-58.999895765664867
 31
0.0000000000000131
210
0.0
220
1.0
230
-0.0000000000000002
  0
ARC
  5
1BCB2
  8
0
  6
CONTINUOUS
 62
     3
 10
70.9999999999998721
 20
-58.9998957656648884
 30
0.0
 40
0.9999999999999857
210
0.0
220
-0.0000000000000002
230
-1.0
 50
179.9999999999992042
 51
270.0000000000007958
  0
ARC
  5
1BCB3
  8
0
  6
CONTINUOUS
 62
     3
 10
-71.0000000000000995
 20
-58.9998957656648884
 30
0.0
 40
0.9999999999999857
210
0.0
220
-0.0000000000000002
230
-1.0
 50
270.0
 51
0.0000000000016284
  0
LINE
  5
1BCB4
  8
0
  6
CONTINUOUS
 62
     3
 10
71.4801488286691438
 20
-59.9998957656648813
 30
0.0000000000000133
 11
73.3000000000001251
 21
-64.9998957656648741
 31
0.0000000000000144
210
0.0
220
1.0
230
-0.0000000000000002
  0
LINE
  5
1BCB5
  8
0
  6
CONTINUOUS
 62
     3
 10
-71.4801488286689164
 20
-59.9998957656648813
 30
0.0000000000000133
 11
-73.2999999999998977
 21
-64.9998957656648741
 31
0.0000000000000144
210
0.0
220
1.0
230
-0.0000000000000002
  0
LINE
  5
1BCB6
  8
0
  6
CONTINUOUS
 62
     3
 10
73.3000000000001251
 20
-64.9998957656648741
 30
0.0000000000000144
 11
73.3000000000001251
 21
-68.0998957656648969
 31
0.0000000000000151
210
0.0
220
1.0
230
-0.0000000000000002
  0
LINE
  5
1BCB7
  8
0
  6
CONTINUOUS
 62
     3
 10
-73.2999999999998977
 20
-64.9998957656648741
 30
0.0000000000000144
 11
-73.2999999999998977
 21
-68.0998957656648969
 31
0.0000000000000151
210
0.0
220
1.0
230
-0.0000000000000002
  0
LINE
  5
1BCB8
  8
0
  6
CONTINUOUS
 62
     3
 10
73.3000000000001251
 20
-68.0998957656648969
 30
0.0000000000000151
 11
75.7000000000001592
 21
-70.4998957656648741
 31
0.0000000000000157
210
0.0
220
1.0
230
-0.0000000000000002
  0
LINE
  5
1BCB9
  8
0
  6
CONTINUOUS
 62
     3
 10
-73.2999999999998977
 20
-68.0998957656648969
 30
0.0000000000000151
 11
-75.6999999999999318
 21
-70.4998957656648741
 31
0.0000000000000157
210
0.0
220
1.0
230
-0.0000000000000002
  0
LINE
  5
1BCBA
  8
0
  6
CONTINUOUS
 62
     3
 10
75.7000000000001592
 20
-70.4998957656648741
 30
0.0000000000000157
 11
75.7000000000001592
 21
-71.4998957656648741
 31
0.0000000000000159
210
0.0
220
1.0
230
-0.0000000000000002
  0
LINE
  5
1BCBB
  8
0
  6
CONTINUOUS
 62
     3
 10
-75.6999999999999318
 20
-70.4998957656648741
 30
0.0000000000000157
 11
-75.6999999999999318
 21
-71.4998957656648741
 31
0.0000000000000159
210
0.0
220
1.0
230
-0.0000000000000002
  0
LINE
  5
1BCBC
  8
0
  6
CONTINUOUS
 62
     3
 10
-73.4999999999998863
 20
-73.6998957656649196
 30
0.0000000000000164
 11
-75.6999999999999318
 21
-71.4998957656648741
 31
0.0000000000000159
210
0.0
220
1.0
230
-0.0000000000000002
  0
LINE
  5
1BCBD
  8
0
  6
CONTINUOUS
 62
     3
 10
73.5000000000001137
 20
-73.6998957656649196
 30
0.0000000000000164
 11
75.7000000000001592
 21
-71.4998957656648741
 31
0.0000000000000159
210
0.0
220
1.0
230
-0.0000000000000002
  0
LINE
  5
1BCBE
  8
0
  6
CONTINUOUS
 62
     3
 10
73.5000000000001137
 20
-73.6998957656649196
 30
0.0000000000000164
 11
73.5000000000001137
 21
-76.1893839890133364
 31
0.0000000000000169
210
0.0
220
1.0
230
-0.0000000000000002
  0
LINE
  5
1BCBF
  8
0
  6
CONTINUOUS
 62
     3
 10
-73.4999999999998863
 20
-73.6998957656649196
 30
0.0000000000000164
 11
-73.4999999999998863
 21
-76.1893839890133364
 31
0.0000000000000169
210
0.0
220
1.0
230
-0.0000000000000002
  0
LINE
  5
1BCC0
  8
0
  6
CONTINUOUS
 62
     3
 10
73.5000000000001137
 20
-76.1893839890133364
 30
0.0000000000000169
 11
75.7000000000001592
 21
-79.9998957656648741
 31
0.0000000000000178
210
0.0
220
1.0
230
-0.0000000000000002
  0
LINE
  5
1BCC1
  8
0
  6
CONTINUOUS
 62
     3
 10
-73.4999999999998863
 20
-76.1893839890133364
 30
0.0000000000000169
 11
-75.6999999999999318
 21
-79.9998957656648741
 31
0.0000000000000178
210
0.0
220
1.0
230
-0.0000000000000002
  0
ARC
  5
1BCC2
  8
0
  6
CONTINUOUS
 62
     3
 10
64.4999999999997726
 20
-74.9998957656649736
 30
0.0
 40
5.9999999999998996
210
0.0
220
-0.0000000000000002
230
-1.0
 50
270.0
 51
303.5573097619210898
  0
ARC
  5
1BCC3
  8
0
  6
CONTINUOUS
 62
     3
 10
-64.5
 20
-74.9998957656649736
 30
0.0
 40
5.9999999999999041
210
0.0
220
-0.0000000000000002
230
-1.0
 50
236.4426902380789102
 51
270.0
  0
ARC
  5
1BCC4
  8
0
  6
CONTINUOUS
 62
     3
 10
71.4758400866409431
 20
-52.7998957656648926
 30
0.0
 40
2.8000000000000078
210
0.0
220
-0.0000000000000002
230
-1.0
 50
15.0000000000002895
 51
89.5056149120656244
  0
ARC
  5
1BCC5
  8
0
  6
CONTINUOUS
 62
     3
 10
-71.4758400866411563
 20
-52.7998957656649068
 30
0.0
 40
2.8000000000000211
210
0.0
220
-0.0000000000000002
230
-1.0
 50
90.4943850879346599
 51
164.9999999999996021
  0
LINE
  5
1BCC6
  8
0
  6
CONTINUOUS
 62
     3
 10
74.180432400250524
 20
-52.0752024393778186
 30
0.0000000000000116
 11
75.5000000000001137
 21
-56.999895765664867
 31
0.0000000000000127
210
0.0
220
1.0
230
-0.0000000000000002
  0
LINE
  5
1BCC7
  8
0
  6
CONTINUOUS
 62
     3
 10
-74.1804324002503108
 20
-52.0752024393778186
 30
0.0000000000000116
 11
-75.4999999999998863
 21
-56.999895765664867
 31
0.0000000000000127
210
0.0
220
1.0
230
-0.0000000000000002
  0
LINE
  5
1BCC8
  8
0
  6
CONTINUOUS
 62
     3
 10
72.1603532929804459
 20
248.000000000000199
 30
-0.0000000000000551
 11
-72.1603532929806732
 21
248.000000000000199
 31
-0.0000000000000551
210
0.0
220
1.0
230
-0.0000000000000002
  0
LINE
  5
1BCC9
  8
0
  6
CONTINUOUS
 62
     3
 10
-150.0000000000001137
 20
268.0000000000002274
 30
-0.0000000000000595
 11
-0.0000000000001421
 21
268.0000000000002274
 31
-0.0000000000000595
210
0.0
220
1.0
230
-0.0000000000000002
  0
LINE
  5
1BCCA
  8
0
  6
CONTINUOUS
 62
     3
 10
90.9999999999998295
 20
268.0000000000002274
 30
-0.0000000000000595
 11
-0.0000000000001421
 21
268.0000000000002274
 31
-0.0000000000000595
210
0.0
220
1.0
230
-0.0000000000000002
  0
LINE
  5
1BCCB
  8
0
  6
CONTINUOUS
 62
     3
 10
-0.0000000000001494
 20
266.0000000000002274
 30
-0.0000000000000591
 11
-150.0000000000001137
 21
266.0000000000002274
 31
-0.0000000000000591
210
0.0
220
1.0
230
-0.0000000000000002
  0
ARC
  5
1BCCC
  8
0
  6
CONTINUOUS
 62
     3
 10
90.9999999999998295
 20
270.0000000000002274
 30
-0.00000000000006
 40
2.0000000000000031
 50
270.0
 51
359.9999999999997726
  0
LINE
  5
1BCCD
  8
0
  6
CONTINUOUS
 62
     3
 10
95.0
 20
366.0000000000002274
 30
-0.0000000000000813
 11
94.9999999999999574
 21
346.0000000000002274
 31
-0.0000000000000768
210
0.0
220
1.0
230
-0.0000000000000002
  0
LINE
  5
1BCCE
  8
0
  6
CONTINUOUS
 62
     3
 10
94.999999999999801
 20
270.0000000000002274
 30
-0.00000000000006
 11
94.9999999999999432
 21
346.0000000000002274
 31
-0.0000000000000768
210
0.0
220
1.0
230
-0.0000000000000002
  0
LINE
  5
1BCCF
  8
0
  6
CONTINUOUS
 62
     3
 10
94.9999999999999858
 20
366.0000000000002274
 30
-0.0000000000000813
 11
93.0
 21
366.0000000000002274
 31
-0.0000000000000813
210
0.0
220
1.0
230
-0.0000000000000002
  0
LINE
  5
1BCD0
  8
0
  6
CONTINUOUS
 62
     3
 10
92.9999999999998153
 20
270.0000000000002274
 30
-0.00000000000006
 11
92.9999999999999432
 21
346.0000000000002274
 31
-0.0000000000000768
210
0.0
220
1.0
230
-0.0000000000000002
  0
LINE
  5
1BCD1
  8
0
  6
CONTINUOUS
 62
     3
 10
92.9999999999999432
 20
346.0000000000002274
 30
-0.0000000000000768
 11
93.0000000000000142
 21
366.0000000000002274
 31
-0.0000000000000813
210
0.0
220
1.0
230
-0.0000000000000002
  0
LINE
  5
1BCD2
  8
0
  6
CONTINUOUS
 62
     3
 10
-0.0000000000001412
 20
266.0000000000002274
 30
-0.0000000000000591
 11
90.9999999999998295
 21
266.0000000000002274
 31
-0.0000000000000591
210
0.0
220
1.0
230
-0.0000000000000002
  0
ARC
  5
1BCD3
  8
0
  6
CONTINUOUS
 62
     3
 10
90.9999999999998295
 20
270.0000000000002274
 30
-0.00000000000006
 40
3.9999999999999778
 50
270.0
 51
0.0000000000001895
  0
ARC
  5
1BCD4
  8
0
  6
CONTINUOUS
 62
     3
 10
77.5000000000001137
 20
262.5000000000002274
 30
0.0
 40
3.5
210
0.0
220
-0.0000000000000002
230
-1.0
 50
90.0
 51
192.8280495223822868
  0
ARC
  5
1BCD5
  8
0
  6
CONTINUOUS
 62
     3
 10
-77.4999999999998863
 20
262.5000000000002274
 30
0.0
 40
3.4999999999999929
210
0.0
220
-0.0000000000000002
230
-1.0
 50
347.1719504776175995
 51
90.0000000000000284
  0
ARC
  5
1BCD6
  8
0
  6
CONTINUOUS
 62
     3
 10
57.9673251498190325
 20
258.052228102726076
 30
0.0
 40
16.5326748501810883
210
0.0
220
-0.0000000000000002
230
-1.0
 50
342.7803027270542202
 51
12.8280495223831501
  0
ARC
  5
1BCD7
  8
0
  6
CONTINUOUS
 62
     3
 10
-57.9673251498186133
 20
258.052228102726076
 30
0.0
 40
16.5326748501812801
210
0.0
220
-0.0000000000000002
230
-1.0
 50
167.171950477616889
 51
197.2196972729454103
  0
LINE
  5
1BCD8
  8
0
  6
CONTINUOUS
 62
     3
 10
-72.1603532929806732
 20
248.000000000000199
 30
-0.0000000000000551
 11
-73.7589500707291705
 21
253.157953891047697
 31
-0.0000000000000562
210
0.0
220
1.0
230
-0.0000000000000002
  0
LINE
  5
1BCD9
  8
0
  6
CONTINUOUS
 62
     3
 10
72.1603532929804459
 20
248.000000000000199
 30
-0.0000000000000551
 11
73.7589500707289432
 21
253.157953891047697
 31
-0.0000000000000562
210
0.0
220
1.0
230
-0.0000000000000002
  0
LINE
  5
1BCDA
  8
0
  6
CONTINUOUS
 62
     3
 10
-150.0000000000001137
 20
266.0000000000002274
 30
-0.0000000000000591
 11
-150.0000000000001137
 21
268.0000000000002274
 31
-0.0000000000000595
210
0.0
220
1.0
230
-0.0000000000000002
  0
LINE
  5
1BCDB
  8
0
  6
VERDECKT
 62
     1
 10
-63.7099256195317096
 20
0.1990074380465338
 30
0.0
 11
63.7099256195318091
 21
0.1990074380465419
 31
0.0
210
0.0
220
1.0
230
-0.0000000000000002
  0
ARC
  5
1BCDC
  8
0
  6
VERDECKT
 62
     1
 10
42.0000000000002416
 20
259.9999999999997158
 30
0.0
 40
29.9999999999997016
210
0.0
220
-0.0000000000000002
230
-1.0
 50
338.6325470100903772
 51
0.0000000000001145
  0
ARC
  5
1BCDD
  8
0
  6
VERDECKT
 62
     1
 10
-41.9999999999999787
 20
259.9999999999997158
 30
0.0
 40
30.0000000000000711
210
0.0
220
-0.0000000000000002
230
-1.0
 50
179.9999999999998863
 51
201.3674529899093102
  0
LINE
  5
1BCDE
  8
0
  6
VERDECKT
 62
     1
 10
-69.5194308710118349
 20
248.000000000000199
 30
-0.0000000000000551
 11
-69.9378880439464865
 21
249.0695648922875876
 31
-0.0000000000000553
210
0.0
220
1.0
230
-0.0000000000000002
  0
LINE
  5
1BCDF
  8
0
  6
VERDECKT
 62
     1
 10
69.5194308710119486
 20
248.000000000000199
 30
-0.0000000000000551
 11
69.9378880439466002
 21
249.0695648922875876
 31
-0.0000000000000553
210
0.0
220
1.0
230
-0.0000000000000002
  0
ARC
  5
1BCE0
  8
0
  6
VERDECKT
 62
     1
 10
94.4999999999997868
 20
234.9999999999998863
 30
0.0
 40
29.9999999999998401
210
0.0
220
-0.0000000000000002
230
-1.0
 50
158.6325470100902919
 51
180.0000000000001137
  0
ARC
  5
1BCE1
  8
0
  6
VERDECKT
 62
     1
 10
-94.4999999999998437
 20
234.9999999999998863
 30
0.0
 40
29.9999999999997691
210
0.0
220
-0.0000000000000002
230
-1.0
 50
359.9999999999997726
 51
21.3674529899095589
  0
LINE
  5
1BCE2
  8
0
  6
VERDECKT
 62
     1
 10
-66.5621119560533856
 20
245.9304351077119861
 30
-0.0000000000000546
 11
-68.0753621743500901
 21
249.7982605661350988
 31
-0.0000000000000555
210
0.0
220
1.0
230
-0.0000000000000002
  0
LINE
  5
1BCE3
  8
0
  6
VERDECKT
 62
     1
 10
66.5621119560534993
 20
245.9304351077120998
 30
-0.0000000000000546
 11
68.0753621743501895
 21
249.7982605661350988
 31
-0.0000000000000555
210
0.0
220
1.0
230
-0.0000000000000002
  0
ARC
  5
1BCE4
  8
0
  6
VERDECKT
 62
     1
 10
42.0000000000000924
 20
259.9999999999997726
 30
0.0
 40
27.9999999999998685
210
0.0
220
-0.0000000000000002
230
-1.0
 50
338.6325470100903203
 51
0.0
  0
ARC
  5
1BCE5
  8
0
  6
VERDECKT
 62
     1
 10
-41.99999999999973
 20
259.9999999999998863
 30
0.0
 40
28.0000000000003091
210
0.0
220
-0.0000000000000002
230
-1.0
 50
180.0
 51
201.3674529899093955
  0
LINE
  5
1BCE6
  8
0
  6
VERDECKT
 62
     1
 10
70.0000000000000568
 20
269.9999999999997726
 30
-0.00000000000006
 11
70.0000000000000568
 21
259.9999999999997726
 31
-0.0000000000000577
210
0.0
220
1.0
230
-0.0000000000000002
  0
LINE
  5
1BCE7
  8
0
  6
VERDECKT
 62
     1
 10
-69.9999999999999432
 20
269.9999999999997726
 30
-0.00000000000006
 11
-69.9999999999999432
 21
259.9999999999997726
 31
-0.0000000000000577
210
0.0
220
1.0
230
-0.0000000000000002
  0
LINE
  5
1BCE8
  8
0
  6
VERDECKT
 62
     1
 10
72.0000000000485443
 20
268.0000000000002274
 30
-0.0000000000000595
 11
72.0000000000485443
 21
259.9999999999997726
 31
-0.0000000000000577
210
0.0
220
1.0
230
-0.0000000000000002
  0
LINE
  5
1BCE9
  8
0
  6
VERDECKT
 62
     1
 10
-72.0000000000484448
 20
268.0000000000002274
 30
-0.0000000000000595
 11
-72.0000000000484448
 21
259.9999999999997726
 31
-0.0000000000000577
210
0.0
220
1.0
230
-0.0000000000000002
  0
ARC
  5
1BCEA
  8
0
  6
VERDECKT
 62
     1
 10
63.4999999999806093
 20
8.1496268636070184
 30
0.0
 40
0.9999999999950759
210
0.0
220
-0.0000000000000002
230
-1.0
 50
354.2894068624837018
 51
0.0000000000115136
  0
ARC
  5
1BCEB
  8
0
  6
VERDECKT
 62
     1
 10
-63.4999999999807514
 20
8.1496268636070273
 30
0.0
 40
0.9999999999950404
210
0.0
220
-0.0000000000000002
230
-1.0
 50
179.9999999999886029
 51
185.7105931375164118
  0
LINE
  5
1BCEC
  8
0
  6
VERDECKT
 62
     1
 10
-63.7099256195317096
 20
0.1990074380465324
 30
0.0
 11
-64.4950371901856698
 21
8.0501231445862196
 31
-0.0000000000000018
210
0.0
220
1.0
230
-0.0000000000000002
  0
LINE
  5
1BCED
  8
0
  6
VERDECKT
 62
     1
 10
63.7099256195318233
 20
0.1990074380465359
 30
0.0
 11
64.4950371901857835
 21
8.0501231445862302
 31
-0.0000000000000018
210
0.0
220
1.0
230
-0.0000000000000002
  0
LINE
  5
1BCEE
  8
0
  6
VERDECKT
 62
     1
 10
64.4999999999757847
 20
234.999999999999801
 30
-0.0000000000000522
 11
64.4999999999757847
 21
8.1496268636072404
 31
-0.0000000000000018
210
0.0
220
1.0
230
-0.0000000000000002
  0
LINE
  5
1BCEF
  8
0
  6
VERDECKT
 62
     1
 10
-64.4999999999756994
 20
234.999999999999801
 30
-0.0000000000000522
 11
-64.4999999999756852
 21
8.149626863607212
 31
-0.0000000000000018
210
0.0
220
1.0
230
-0.0000000000000002
  0
LINE
  5
1BCF0
  8
0
  6
VERDECKT
 62
     1
 10
63.7099256195318091
 20
0.1990074380465376
 30
0.0
 11
65.7000000000000597
 21
-0.0000000000002866
 31
0.0
210
0.0
220
1.0
230
-0.0000000000000002
  0
LINE
  5
1BCF1
  8
0
  6
VERDECKT
 62
     1
 10
-63.7099256195317025
 20
0.1990074380465296
 30
0.0
 11
-65.699999999999946
 21
-0.0000000000002949
 31
0.0
210
0.0
220
1.0
230
-0.0000000000000002
  0
LINE
  5
1BCF2
  8
0
  6
VERDECKT
 62
     1
 10
-70.6999999999999318
 20
-76.9998957656648741
 30
0.0000000000000171
 11
70.7000000000001592
 21
-76.9998957656648741
 31
0.0000000000000171
210
0.0
220
1.0
230
-0.0000000000000002
  0
LINE
  5
1BCF3
  8
0
  6
VERDECKT
 62
     1
 10
-61.4999999999998792
 20
-78.9998957656648741
 30
0.0000000000000175
 11
61.5000000000001066
 21
-78.9998957656648741
 31
0.0000000000000175
210
0.0
220
1.0
230
-0.0000000000000002
  0
LINE
  5
1BCF4
  8
0
  6
VERDECKT
 62
     1
 10
70.7000000000001592
 20
-76.9998957656648741
 30
0.0000000000000171
 11
73.7000000000001592
 21
-79.9998957656648741
 31
0.0000000000000178
210
0.0
220
1.0
230
-0.0000000000000002
  0
LINE
  5
1BCF5
  8
0
  6
VERDECKT
 62
     1
 10
-70.6999999999999318
 20
-76.9998957656648741
 30
0.0000000000000171
 11
-73.6999999999999318
 21
-79.9998957656648741
 31
0.0000000000000178
210
0.0
220
1.0
230
-0.0000000000000002
  0
ARC
  5
1BCF6
  8
0
  6
VERDECKT
 62
     1
 10
64.4999999999997868
 20
-74.9998957656649736
 30
0.0
 40
5.9999999999998836
210
0.0
220
-0.0000000000000002
230
-1.0
 50
303.5573097619209761
 51
340.5287793655102178
  0
ARC
  5
1BCF7
  8
0
  6
VERDECKT
 62
     1
 10
-64.4999999999998437
 20
-74.9998957656648599
 30
0.0
 40
6.0000000000000773
210
0.0
220
-0.0000000000000002
230
-1.0
 50
199.4712206344902086
 51
236.4426902380783986
  0
LINE
  5
1BCF8
  8
0
  6
VERDECKT
 62
     1
 10
61.5000000000001066
 20
-78.9998957656648741
 30
0.0000000000000175
 11
61.5000000000001066
 21
-80.9998957656648741
 31
0.000000000000018
210
0.0
220
1.0
230
-0.0000000000000002
  0
LINE
  5
1BCF9
  8
0
  6
VERDECKT
 62
     1
 10
-61.4999999999998792
 20
-78.9998957656648741
 30
0.0000000000000175
 11
-61.4999999999998792
 21
-80.9998957656648741
 31
0.000000000000018
210
0.0
220
1.0
230
-0.0000000000000002
  0
ARC
  5
1BCFA
  8
0
  6
VERDECKT
 62
     1
 10
61.4999999999999076
 20
-72.9998957656648741
 30
0.0
 40
5.9999999999999849
210
0.0
220
-0.0000000000000002
230
-1.0
 50
270.0
 51
0.0000000000003435
  0
ARC
  5
1BCFB
  8
0
  6
VERDECKT
 62
     1
 10
-61.5000000000001279
 20
-72.9998957656648741
 30
0.0
 40
5.9999999999999778
210
0.0
220
-0.0000000000000002
230
-1.0
 50
179.999999999999801
 51
270.0000000000002274
  0
LINE
  5
1BCFC
  8
0
  6
VERDECKT
 62
     1
 10
67.5000000000001137
 20
-56.999895765664867
 30
0.0000000000000127
 11
67.5000000000001137
 21
-72.9998957656648741
 31
0.0000000000000162
210
0.0
220
1.0
230
-0.0000000000000002
  0
LINE
  5
1BCFD
  8
0
  6
VERDECKT
 62
     1
 10
-67.4999999999998863
 20
-56.999895765664867
 30
0.0000000000000127
 11
-67.4999999999998863
 21
-72.9998957656648741
 31
0.0000000000000162
210
0.0
220
1.0
230
-0.0000000000000002
  0
LINE
  5
1BCFE
  8
0
  6
VERDECKT
 62
     1
 10
-67.4999999999998863
 20
-56.999895765664867
 30
0.0000000000000127
 11
-68.8195675997493908
 21
-52.075202439377847
 31
0.0000000000000116
210
0.0
220
1.0
230
-0.0000000000000002
  0
LINE
  5
1BCFF
  8
0
  6
VERDECKT
 62
     1
 10
67.5000000000001137
 20
-56.999895765664867
 30
0.0000000000000127
 11
68.8195675997496039
 21
-52.075202439377847
 31
0.0000000000000116
210
0.0
220
1.0
230
-0.0000000000000002
  0
ARC
  5
1BD00
  8
0
  6
VERDECKT
 62
     1
 10
71.5241599133588153
 20
-52.7998957656649068
 30
0.0
 40
2.8000000000000269
210
0.0
220
-0.0000000000000002
230
-1.0
 50
90.4943850879311782
 51
165.0
  0
ARC
  5
1BD01
  8
0
  6
VERDECKT
 62
     1
 10
-71.5241599133590427
 20
-52.7998957656649068
 30
0.0
 40
2.800000000000034
210
0.0
220
-0.0000000000000002
230
-1.0
 50
15.0
 51
89.5056149120688076
  0
LINE
  5
1BD02
  8
0
  6
VERDECKT
 62
     1
 10
-70.2500000000001137
 20
248.5920728806478053
 30
-0.0000000000000552
 11
70.2499999999998863
 21
248.5920728806478053
 31
-0.0000000000000552
210
0.0
220
1.0
230
-0.0000000000000002
  0
LINE
  5
1BD03
  8
0
  6
VERDECKT
 62
     1
 10
70.2499999999998863
 20
248.5920728806478053
 30
-0.0000000000000552
 11
72.1603532929804459
 21
248.000000000000199
 31
-0.0000000000000551
210
0.0
220
1.0
230
-0.0000000000000002
  0
LINE
  5
1BD04
  8
0
  6
VERDECKT
 62
     1
 10
-70.2500000000001137
 20
248.5920728806478053
 30
-0.0000000000000552
 11
-72.1603532929806732
 21
248.000000000000199
 31
-0.0000000000000551
210
0.0
220
1.0
230
-0.0000000000000002
  0
LINE
  5
1BD05
  8
0
  6
VERDECKT
 62
     1
 10
-70.2500000000001137
 20
248.5920728806478053
 30
-0.0000000000000552
 11
-71.848596777748611
 21
253.7500267716953033
 31
-0.0000000000000563
210
0.0
220
1.0
230
-0.0000000000000002
  0
LINE
  5
1BD06
  8
0
  6
VERDECKT
 62
     1
 10
70.2499999999998863
 20
248.5920728806478053
 30
-0.0000000000000552
 11
71.8485967777483836
 21
253.7500267716953033
 31
-0.0000000000000563
210
0.0
220
1.0
230
-0.0000000000000002
  0
ARC
  5
1BD07
  8
0
  6
VERDECKT
 62
     1
 10
57.9673251498190396
 20
258.052228102726076
 30
0.0
 40
14.5326748501810705
210
0.0
220
-0.0000000000000002
230
-1.0
 50
342.7803027270542771
 51
12.8280495223831199
  0
ARC
  5
1BD08
  8
0
  6
VERDECKT
 62
     1
 10
-57.9673251498188193
 20
258.052228102726076
 30
0.0
 40
14.5326748501810705
210
0.0
220
-0.0000000000000002
230
-1.0
 50
167.1719504776168037
 51
197.2196972729456945
  0
ARC
  5
1BD09
  8
0
  6
VERDECKT
 62
     1
 10
77.5000000000001137
 20
262.5000000000001137
 30
0.0
 40
5.500000000000056
210
0.0
220
-0.0000000000000002
230
-1.0
 50
90.0
 51
192.828049522381491
  0
ARC
  5
1BD0A
  8
0
  6
VERDECKT
 62
     1
 10
-77.4999999999998437
 20
262.5000000000002274
 30
0.0
 40
5.499999999999984
210
0.0
220
-0.0000000000000002
230
-1.0
 50
347.1719504776172016
 51
90.0000000000002984
  0
LINE
  5
1BD0B
  8
0
  6
VERDECKT
 62
     1
 10
92.9999999999999289
 20
350.0000000000002274
 30
-0.0000000000000777
 11
94.9999999999999147
 21
350.0000000000002274
 31
-0.0000000000000777
210
0.0
220
1.0
230
-0.0000000000000002
  0
LINE
  5
1BD0C
  8
0
  6
VERDECKT
 62
     1
 10
92.9999999999999005
 20
342.0000000000002274
 30
-0.0000000000000759
 11
94.9999999999999147
 21
342.0000000000002274
 31
-0.0000000000000759
210
0.0
220
1.0
230
-0.0000000000000002
  0
ENDBLK
  5
1BD0E
  8
0
  0
BLOCK
  8
0
  2
A$CB8CBD75C
 70
     0
 10
0.0
 20
0.0
 30
0.0
  3
A$CB8CBD75C
  1

  0
CIRCLE
  5
1BD12
  8
0
  6
CONTINUOUS
 62
     3
 10
0.0000000000000948
 20
0.0000000000000527
 30
0.0
 40
64.5
  0
CIRCLE
  5
1BD13
  8
0
  6
CONTINUOUS
 62
     3
 10
0.0000000000001124
 20
0.0000000000000611
 30
0.0
 40
69.9999999999999858
  0
CIRCLE
  5
1BD14
  8
0
  6
CONTINUOUS
 62
     3
 10
0.0000000000001124
 20
0.0000000000000611
 30
0.0
 40
72.0000000000485016
  0
CIRCLE
  5
1BD15
  8
0
  6
CONTINUOUS
 62
     3
 10
0.0000000000000569
 20
0.0000000000000569
 30
0.0
 40
63.7099256195317594
  0
CIRCLE
  5
1BD16
  8
0
  6
CONTINUOUS
 62
     3
 10
0.0000000000000961
 20
0.0000000000000018
 30
0.0
 40
61.5
  0
LINE
  5
1BD17
  8
0
  6
CONTINUOUS
 62
     3
 10
93.0000000000000142
 20
150.0
 30
0.0
 11
95.0000000000000142
 21
150.0
 31
0.0000000000000004
  0
LINE
  5
1BD18
  8
0
  6
CONTINUOUS
 62
     3
 10
90.9999999999998863
 20
150.0
 30
0.0
 11
-0.0000000000000853
 21
150.0
 31
-0.0000000000000202
  0
LINE
  5
1BD19
  8
0
  6
CONTINUOUS
 62
     3
 10
90.9999999999998863
 20
150.0
 30
0.0
 11
92.9999999999998863
 21
150.0
 31
0.0
  0
LINE
  5
1BD1A
  8
0
  6
CONTINUOUS
 62
     3
 10
95.0000000000000853
 20
130.0
 30
0.0
 11
95.0000000000000142
 21
150.0
 31
0.0
  0
LINE
  5
1BD1B
  8
0
  6
CONTINUOUS
 62
     3
 10
93.0000000000000142
 20
150.0
 30
0.0
 11
93.0000000000000853
 21
130.0
 31
0.0
  0
ARC
  5
1BD1C
  8
0
  6
CONTINUOUS
 62
     3
 10
-0.0000000000000967
 20
-0.0000000000000426
 30
0.0
 40
150.0
 50
90.0
 51
270.0
  0
LINE
  5
1BD1D
  8
0
  6
CONTINUOUS
 62
     3
 10
90.9999999999998863
 20
-150.0
 30
0.0
 11
-0.0000000000000853
 21
-150.0
 31
-0.0000000000000202
  0
LINE
  5
1BD1E
  8
0
  6
CONTINUOUS
 62
     3
 10
90.9999999999998863
 20
-150.0
 30
0.0
 11
92.9999999999998863
 21
-150.0
 31
0.0
  0
LINE
  5
1BD1F
  8
0
  6
CONTINUOUS
 62
     3
 10
95.0000000000000853
 20
130.0
 30
0.0
 11
95.0000000000001137
 21
-130.0
 31
0.0
  0
LINE
  5
1BD20
  8
0
  6
CONTINUOUS
 62
     3
 10
95.0000000000000853
 20
-130.0
 30
0.0
 11
95.0000000000000284
 21
-150.0
 31
0.0
  0
LINE
  5
1BD21
  8
0
  6
CONTINUOUS
 62
     3
 10
93.0000000000000853
 20
130.0
 30
0.0
 11
93.0000000000001279
 21
-130.0
 31
0.0
  0
LINE
  5
1BD22
  8
0
  6
CONTINUOUS
 62
     3
 10
93.0000000000000142
 20
-150.0
 30
0.0
 11
93.0000000000000853
 21
-130.0
 31
0.0
  0
LINE
  5
1BD23
  8
0
  6
CONTINUOUS
 62
     3
 10
93.0000000000000142
 20
-150.0
 30
0.0
 11
95.0000000000000142
 21
-150.0
 31
0.0000000000000004
  0
CIRCLE
  5
1BD24
  8
0
  6
VERDECKT
 62
     1
 10
0.0000000000001233
 20
0.0000000000000589
 30
0.0
 40
66.5
  0
CIRCLE
  5
1BD25
  8
0
  6
VERDECKT
 62
     1
 10
0.0000000000000568
 20
0.0000000000000568
 30
0.0
 40
65.7000000000000028
  0
CIRCLE
  5
1BD26
  8
0
  6
VERDECKT
 62
     1
 10
0.000000000000101
 20
0.0000000000000031
 30
0.0
 40
75.5
  0
CIRCLE
  5
1BD27
  8
0
  6
VERDECKT
 62
     1
 10
0.0000000000001004
 20
0.0000000000000029
 30
0.0
 40
71.4801488286690301
  0
CIRCLE
  5
1BD28
  8
0
  6
VERDECKT
 62
     1
 10
0.0000000000000992
 20
0.0000000000000026
 30
0.0
 40
73.3000000000000114
  0
CIRCLE
  5
1BD29
  8
0
  6
VERDECKT
 62
     1
 10
0.000000000000098
 20
0.0000000000000023
 30
0.0
 40
75.7000000000000455
  0
CIRCLE
  5
1BD2A
  8
0
  6
VERDECKT
 62
     1
 10
0.0000000000000973
 20
0.0000000000000021
 30
0.0
 40
73.5
  0
CIRCLE
  5
1BD2B
  8
0
  6
VERDECKT
 62
     1
 10
0.0000000000000959
 20
0.0000000000000017
 30
0.0
 40
73.7000000000000455
  0
CIRCLE
  5
1BD2C
  8
0
  6
VERDECKT
 62
     1
 10
0.0000000000000966
 20
0.0000000000000019
 30
0.0
 40
70.7000000000000455
  0
CIRCLE
  5
1BD2D
  8
0
  6
VERDECKT
 62
     1
 10
0.0000000000000966
 20
0.0000000000000019
 30
0.0
 40
70.1568542494921985
  0
CIRCLE
  5
1BD2E
  8
0
  6
VERDECKT
 62
     1
 10
0.000000000000101
 20
0.0000000000000031
 30
0.0
 40
67.5
  0
CIRCLE
  5
1BD2F
  8
0
  6
VERDECKT
 62
     1
 10
-0.0000000000000588
 20
0.0000000000000029
 30
0.0
 40
72.1603532929805596
  0
CIRCLE
  5
1BD30
  8
0
  6
VERDECKT
 62
     1
 10
-0.0000000000000586
 20
0.000000000000003
 30
0.0
 40
70.25
  0
CIRCLE
  5
1BD31
  8
0
  6
VERDECKT
 62
     1
 10
-0.0000000000000555
 20
0.0000000000000038
 30
0.0
 40
74.0
  0
CIRCLE
  5
1BD32
  8
0
  6
VERDECKT
 62
     1
 10
-0.0000000000000565
 20
0.0000000000000036
 30
0.0
 40
74.5
  0
CIRCLE
  5
1BD33
  8
0
  6
VERDECKT
 62
     1
 10
-0.0000000000000565
 20
0.0000000000000036
 30
0.0
 40
72.5
  0
LINE
  5
1BD34
  8
0
  6
VERDECKT
 62
     1
 10
94.9999999999999858
 20
126.0
 30
0.0
 11
92.9999999999999858
 21
126.0
 31
-0.0000000000000004
  0
LINE
  5
1BD35
  8
0
  6
VERDECKT
 62
     1
 10
95.0000000000000284
 20
134.0
 30
0.0
 11
93.0000000000000426
 21
134.0
 31
-0.0000000000000004
  0
LINE
  5
1BD36
  8
0
  6
VERDECKT
 62
     1
 10
92.9999999999999858
 20
-126.0
 30
0.0
 11
94.9999999999999858
 21
-126.0
 31
0.0000000000000004
  0
LINE
  5
1BD37
  8
0
  6
VERDECKT
 62
     1
 10
93.0000000000000426
 20
-134.0
 30
0.0
 11
95.0000000000000284
 21
-134.0
 31
0.0000000000000004
  0
ENDBLK
  5
1BD39
  8
0
  0
BLOCK
  8
0
  2
A$CD3F3EF3A
 70
     0
 10
0.0
 20
0.0
 30
0.0
  3
A$CD3F3EF3A
  1

  0
LINE
  5
1BD3D
  8
0
  6
CONTINUOUS
 62
     3
 10
-72.0000000000486153
 20
269.9999999999997726
 30
-0.00000000000006
 11
72.0000000000483737
 21
269.9999999999997726
 31
-0.00000000000006
210
-0.0000000000000002
220
1.0
230
-0.0000000000000002
  0
LINE
  5
1BD3E
  8
0
  6
CONTINUOUS
 62
     3
 10
-65.7000000000000597
 20
-0.0000000000003062
 30
0.0
 11
65.699999999999946
 21
-0.000000000000269
 31
0.0
210
-0.0000000000000002
220
1.0
230
-0.0000000000000002
  0
LINE
  5
1BD3F
  8
0
  6
CONTINUOUS
 62
     3
 10
-68.4246378256499952
 20
245.2017394338645886
 30
-0.0000000000000544
 11
-69.5194308710120197
 21
248.000000000000199
 31
-0.0000000000000551
210
-0.0000000000000002
220
1.0
230
-0.0000000000000002
  0
LINE
  5
1BD40
  8
0
  6
CONTINUOUS
 62
     3
 10
68.4246378256497536
 20
245.2017394338645886
 30
-0.0000000000000544
 11
69.5194308710117923
 21
248.0000000000003126
 31
-0.0000000000000551
210
-0.0000000000000002
220
1.0
230
-0.0000000000000002
  0
ARC
  5
1BD41
  8
0
  6
CONTINUOUS
 62
     3
 10
94.5000000000000142
 20
234.9999999999998863
 30
0.0
 40
27.9999999999998685
210
0.0
220
-0.0000000000000002
230
-1.0
 50
158.6325470100904056
 51
180.0000000000001137
  0
ARC
  5
1BD42
  8
0
  6
CONTINUOUS
 62
     3
 10
-94.4999999999998579
 20
234.9999999999998863
 30
0.0
 40
27.9999999999999503
210
0.0
220
-0.0000000000000002
230
-1.0
 50
0.0
 51
21.3674529899095305
  0
LINE
  5
1BD43
  8
0
  6
CONTINUOUS
 62
     3
 10
72.0000000000484022
 20
269.9999999999997726
 30
-0.00000000000006
 11
72.0000000000484022
 21
268.0000000000002274
 31
-0.0000000000000595
210
-0.0000000000000002
220
1.0
230
-0.0000000000000002
  0
LINE
  5
1BD44
  8
0
  6
CONTINUOUS
 62
     3
 10
-72.0000000000486153
 20
269.9999999999997726
 30
-0.00000000000006
 11
-72.0000000000486153
 21
268.0000000000002274
 31
-0.0000000000000595
210
-0.0000000000000002
220
1.0
230
-0.0000000000000002
  0
ARC
  5
1BD45
  8
0
  6
CONTINUOUS
 62
     3
 10
65.5000000000049738
 20
8.0498756211202984
 30
0.0
 40
0.9999999999950832
210
0.0
220
-0.0000000000000002
230
-1.0
 50
354.2894068624837018
 51
0.0000000000114882
  0
ARC
  5
1BD46
  8
0
  6
CONTINUOUS
 62
     3
 10
-65.5000000000049027
 20
8.0498756211203322
 30
0.0
 40
0.9999999999950548
210
0.0
220
-0.0000000000000002
230
-1.0
 50
179.9999999999884039
 51
185.7105931375162129
  0
LINE
  5
1BD47
  8
0
  6
CONTINUOUS
 62
     3
 10
66.4999999999998863
 20
234.9999999999998863
 30
-0.0000000000000522
 11
66.4999999999999432
 21
8.0498756211205382
 31
-0.0000000000000018
210
-0.0000000000000002
220
1.0
230
-0.0000000000000002
  0
LINE
  5
1BD48
  8
0
  6
CONTINUOUS
 62
     3
 10
-66.5000000000001421
 20
234.999999999999801
 30
-0.0000000000000522
 11
-66.5000000000000711
 21
8.0498756211205098
 31
-0.0000000000000018
210
-0.0000000000000002
220
1.0
230
-0.0000000000000002
  0
LINE
  5
1BD49
  8
0
  6
CONTINUOUS
 62
     3
 10
-65.7000000000000739
 20
-0.0000000000003072
 30
0.0
 11
-66.4950371902100557
 21
7.9503719020994978
 31
-0.0000000000000018
210
-0.0000000000000002
220
1.0
230
-0.0000000000000002
  0
LINE
  5
1BD4A
  8
0
  6
CONTINUOUS
 62
     3
 10
65.6999999999999602
 20
-0.0000000000002701
 30
0.0
 11
66.495037190209942
 21
7.9503719020995369
 31
-0.0000000000000018
210
-0.0000000000000002
220
1.0
230
-0.0000000000000002
  0
LINE
  5
1BD4B
  8
0
  6
CONTINUOUS
 62
     3
 10
-75.5
 20
-56.9998957656649026
 30
0.0000000000000127
 11
-0.0000000000000016
 21
-56.9998957656648884
 31
0.0000000000000127
210
-0.0000000000000002
220
1.0
230
-0.0000000000000002
  0
LINE
  5
1BD4C
  8
0
  6
CONTINUOUS
 62
     3
 10
0.0000000000000243
 20
-56.9998957656648884
 30
0.0000000000000127
 11
75.5000000000000142
 21
-56.999895765664867
 31
0.0000000000000127
210
-0.0000000000000002
220
1.0
230
-0.0000000000000002
  0
LINE
  5
1BD4D
  8
0
  6
CONTINUOUS
 62
     3
 10
-71.4801488286690443
 20
-59.9998957656649097
 30
0.0000000000000133
 11
-0.0000000000000009
 21
-59.9998957656648884
 31
0.0000000000000133
210
-0.0000000000000002
220
1.0
230
-0.0000000000000002
  0
LINE
  5
1BD4E
  8
0
  6
CONTINUOUS
 62
     3
 10
0.0000000000000167
 20
-59.9998957656648884
 30
0.0000000000000133
 11
71.4801488286690585
 21
-59.999895765664867
 31
0.0000000000000133
210
-0.0000000000000002
220
1.0
230
-0.0000000000000002
  0
LINE
  5
1BD4F
  8
0
  6
CONTINUOUS
 62
     3
 10
-73.3000000000000114
 20
-64.9998957656649026
 30
0.0000000000000144
 11
0.0000000000000002
 21
-64.9998957656648884
 31
0.0000000000000144
210
-0.0000000000000002
220
1.0
230
-0.0000000000000002
  0
LINE
  5
1BD50
  8
0
  6
CONTINUOUS
 62
     3
 10
0.0000000000000142
 20
-64.9998957656648884
 30
0.0000000000000144
 11
73.3000000000000256
 21
-64.9998957656648741
 31
0.0000000000000144
210
-0.0000000000000002
220
1.0
230
-0.0000000000000002
  0
LINE
  5
1BD51
  8
0
  6
CONTINUOUS
 62
     3
 10
-73.3000000000000114
 20
-68.0998957656649253
 30
0.0000000000000151
 11
0.0000000000000009
 21
-68.0998957656649111
 31
0.0000000000000151
210
-0.0000000000000002
220
1.0
230
-0.0000000000000002
  0
LINE
  5
1BD52
  8
0
  6
CONTINUOUS
 62
     3
 10
0.0000000000000151
 20
-68.0998957656649111
 30
0.0000000000000151
 11
73.3000000000000256
 21
-68.0998957656648969
 31
0.0000000000000151
210
-0.0000000000000002
220
1.0
230
-0.0000000000000002
  0
LINE
  5
1BD53
  8
0
  6
CONTINUOUS
 62
     3
 10
-75.7000000000000455
 20
-70.4998957656649026
 30
0.0000000000000157
 11
0.0000000000000014
 21
-70.4998957656648741
 31
0.0000000000000157
210
-0.0000000000000002
220
1.0
230
-0.0000000000000002
  0
LINE
  5
1BD54
  8
0
  6
CONTINUOUS
 62
     3
 10
0.0000000000000261
 20
-70.4998957656648741
 30
0.0000000000000157
 11
75.7000000000000739
 21
-70.4998957656648741
 31
0.0000000000000157
210
-0.0000000000000002
220
1.0
230
-0.0000000000000002
  0
LINE
  5
1BD55
  8
0
  6
CONTINUOUS
 62
     3
 10
-75.7000000000000455
 20
-71.4998957656649026
 30
0.0000000000000159
 11
0.0000000000000017
 21
-71.4998957656648884
 31
0.0000000000000159
210
-0.0000000000000002
220
1.0
230
-0.0000000000000002
  0
LINE
  5
1BD56
  8
0
  6
CONTINUOUS
 62
     3
 10
0.0000000000000264
 20
-71.4998957656648884
 30
0.0000000000000159
 11
75.7000000000000739
 21
-71.4998957656648741
 31
0.0000000000000159
210
-0.0000000000000002
220
1.0
230
-0.0000000000000002
  0
LINE
  5
1BD57
  8
0
  6
CONTINUOUS
 62
     3
 10
-73.5
 20
-73.699895765664948
 30
0.0000000000000164
 11
0.0000000000000022
 21
-73.6998957656649338
 31
0.0000000000000164
210
-0.0000000000000002
220
1.0
230
-0.0000000000000002
  0
LINE
  5
1BD58
  8
0
  6
CONTINUOUS
 62
     3
 10
0.0000000000000244
 20
-73.6998957656649338
 30
0.0000000000000164
 11
73.5000000000000284
 21
-73.6998957656649196
 31
0.0000000000000164
210
-0.0000000000000002
220
1.0
230
-0.0000000000000002
  0
LINE
  5
1BD59
  8
0
  6
CONTINUOUS
 62
     3
 10
-73.5
 20
-76.1893839890133648
 30
0.0000000000000169
 11
0.0000000000000027
 21
-76.1893839890133506
 31
0.0000000000000169
210
-0.0000000000000002
220
1.0
230
-0.0000000000000002
  0
LINE
  5
1BD5A
  8
0
  6
CONTINUOUS
 62
     3
 10
0.0000000000000251
 20
-76.1893839890133506
 30
0.0000000000000169
 11
73.5000000000000284
 21
-76.1893839890133364
 31
0.0000000000000169
210
-0.0000000000000002
220
1.0
230
-0.0000000000000002
  0
LINE
  5
1BD5B
  8
0
  6
CONTINUOUS
 62
     3
 10
-75.7000000000000455
 20
-79.9998957656649026
 30
0.0000000000000178
 11
0.0000000000000036
 21
-79.9998957656648884
 31
0.0000000000000178
210
-0.0000000000000002
220
1.0
230
-0.0000000000000002
  0
LINE
  5
1BD5C
  8
0
  6
CONTINUOUS
 62
     3
 10
0.0000000000000288
 20
-79.9998957656648884
 30
0.0000000000000178
 11
75.7000000000000739
 21
-79.9998957656648741
 31
0.0000000000000178
210
-0.0000000000000002
220
1.0
230
-0.0000000000000002
  0
LINE
  5
1BD5D
  8
0
  6
CONTINUOUS
 62
     3
 10
-64.4999999999998863
 20
-80.999895765664931
 30
0.000000000000018
 11
0.0000000000000038
 21
-80.9998957656649168
 31
0.000000000000018
210
-0.0000000000000002
220
1.0
230
-0.0000000000000002
  0
LINE
  5
1BD5E
  8
0
  6
CONTINUOUS
 62
     3
 10
0.000000000000031
 20
-80.9998957656649168
 30
0.000000000000018
 11
64.4999999999999147
 21
-80.9998957656649168
 31
0.000000000000018
210
-0.0000000000000002
220
1.0
230
-0.0000000000000002
  0
LINE
  5
1BD5F
  8
0
  6
CONTINUOUS
 62
     3
 10
-71.5000000000000711
 20
-50.0000000000003126
 30
0.0000000000000111
 11
-0.0000000000000031
 21
-50.0000000000002984
 31
0.0000000000000111
210
-0.0000000000000002
220
1.0
230
-0.0000000000000002
  0
LINE
  5
1BD60
  8
0
  6
CONTINUOUS
 62
     3
 10
0.0000000000000117
 20
-50.0000000000002984
 30
0.0000000000000111
 11
71.5000000000000995
 21
-50.0000000000002771
 31
0.0000000000000111
210
-0.0000000000000002
220
1.0
230
-0.0000000000000002
  0
ARC
  5
1BD61
  8
0
  6
CONTINUOUS
 62
     3
 10
70.9999999999999858
 20
-57.9998957656649026
 30
0.0
 40
0.999999999999993
210
0.0
220
-0.0000000000000002
230
-1.0
 50
89.9999999999991758
 51
180.0000000000003979
  0
ARC
  5
1BD62
  8
0
  6
CONTINUOUS
 62
     3
 10
-71.0000000000000142
 20
-57.9998957656648599
 30
0.0
 40
0.9999999999999859
210
0.0
220
-0.0000000000000002
230
-1.0
 50
359.9999999999996021
 51
90.0000000000007958
  0
LINE
  5
1BD63
  8
0
  6
CONTINUOUS
 62
     3
 10
70.0000000000000284
 20
-57.999895765664867
 30
0.0000000000000129
 11
70.0000000000000284
 21
-58.9998957656648599
 31
0.0000000000000131
210
-0.0000000000000002
220
1.0
230
-0.0000000000000002
  0
LINE
  5
1BD64
  8
0
  6
CONTINUOUS
 62
     3
 10
-70.0
 20
-57.9998957656649097
 30
0.0000000000000129
 11
-70.0
 21
-58.9998957656649097
 31
0.0000000000000131
210
-0.0000000000000002
220
1.0
230
-0.0000000000000002
  0
ARC
  5
1BD65
  8
0
  6
CONTINUOUS
 62
     3
 10
70.9999999999999858
 20
-58.9998957656649168
 30
0.0
 40
0.9999999999999859
210
0.0
220
-0.0000000000000002
230
-1.0
 50
179.9999999999996021
 51
270.0000000000007958
  0
ARC
  5
1BD66
  8
0
  6
CONTINUOUS
 62
     3
 10
-71.0000000000000142
 20
-58.999895765664867
 30
0.0
 40
0.999999999999993
210
0.0
220
-0.0000000000000002
230
-1.0
 50
270.0
 51
0.0000000000012086
  0
LINE
  5
1BD67
  8
0
  6
CONTINUOUS
 62
     3
 10
71.4801488286690585
 20
-59.999895765664867
 30
0.0000000000000133
 11
73.3000000000000398
 21
-64.9998957656648741
 31
0.0000000000000144
210
-0.0000000000000002
220
1.0
230
-0.0000000000000002
  0
LINE
  5
1BD68
  8
0
  6
CONTINUOUS
 62
     3
 10
-71.4801488286690301
 20
-59.9998957656649097
 30
0.0000000000000133
 11
-73.3000000000000114
 21
-64.9998957656649026
 31
0.0000000000000144
210
-0.0000000000000002
220
1.0
230
-0.0000000000000002
  0
LINE
  5
1BD69
  8
0
  6
CONTINUOUS
 62
     3
 10
73.3000000000000398
 20
-64.9998957656648741
 30
0.0000000000000144
 11
73.3000000000000398
 21
-68.0998957656648969
 31
0.0000000000000151
210
-0.0000000000000002
220
1.0
230
-0.0000000000000002
  0
LINE
  5
1BD6A
  8
0
  6
CONTINUOUS
 62
     3
 10
-73.3000000000000114
 20
-64.9998957656649026
 30
0.0000000000000144
 11
-73.3000000000000114
 21
-68.0998957656649253
 31
0.0000000000000151
210
-0.0000000000000002
220
1.0
230
-0.0000000000000002
  0
LINE
  5
1BD6B
  8
0
  6
CONTINUOUS
 62
     3
 10
73.3000000000000398
 20
-68.0998957656648969
 30
0.0000000000000151
 11
75.7000000000000739
 21
-70.4998957656648741
 31
0.0000000000000157
210
-0.0000000000000002
220
1.0
230
-0.0000000000000002
  0
LINE
  5
1BD6C
  8
0
  6
CONTINUOUS
 62
     3
 10
-73.3000000000000114
 20
-68.0998957656649253
 30
0.0000000000000151
 11
-75.7000000000000455
 21
-70.4998957656649026
 31
0.0000000000000157
210
-0.0000000000000002
220
1.0
230
-0.0000000000000002
  0
LINE
  5
1BD6D
  8
0
  6
CONTINUOUS
 62
     3
 10
75.7000000000000739
 20
-70.4998957656648741
 30
0.0000000000000157
 11
75.7000000000000739
 21
-71.4998957656648741
 31
0.0000000000000159
210
-0.0000000000000002
220
1.0
230
-0.0000000000000002
  0
LINE
  5
1BD6E
  8
0
  6
CONTINUOUS
 62
     3
 10
-75.7000000000000455
 20
-70.4998957656649026
 30
0.0000000000000157
 11
-75.7000000000000455
 21
-71.4998957656649026
 31
0.0000000000000159
210
-0.0000000000000002
220
1.0
230
-0.0000000000000002
  0
LINE
  5
1BD6F
  8
0
  6
CONTINUOUS
 62
     3
 10
-73.5
 20
-73.699895765664948
 30
0.0000000000000164
 11
-75.7000000000000455
 21
-71.4998957656649026
 31
0.0000000000000159
210
-0.0000000000000002
220
1.0
230
-0.0000000000000002
  0
LINE
  5
1BD70
  8
0
  6
CONTINUOUS
 62
     3
 10
73.5000000000000284
 20
-73.6998957656649196
 30
0.0000000000000164
 11
75.7000000000000739
 21
-71.4998957656648741
 31
0.0000000000000159
210
-0.0000000000000002
220
1.0
230
-0.0000000000000002
  0
LINE
  5
1BD71
  8
0
  6
CONTINUOUS
 62
     3
 10
73.5000000000000284
 20
-73.6998957656649196
 30
0.0000000000000164
 11
73.5000000000000284
 21
-76.1893839890133364
 31
0.0000000000000169
210
-0.0000000000000002
220
1.0
230
-0.0000000000000002
  0
LINE
  5
1BD72
  8
0
  6
CONTINUOUS
 62
     3
 10
-73.5
 20
-73.699895765664948
 30
0.0000000000000164
 11
-73.5
 21
-76.1893839890133648
 31
0.0000000000000169
210
-0.0000000000000002
220
1.0
230
-0.0000000000000002
  0
LINE
  5
1BD73
  8
0
  6
CONTINUOUS
 62
     3
 10
73.5000000000000284
 20
-76.1893839890133364
 30
0.0000000000000169
 11
75.7000000000000739
 21
-79.9998957656648741
 31
0.0000000000000178
210
-0.0000000000000002
220
1.0
230
-0.0000000000000002
  0
LINE
  5
1BD74
  8
0
  6
CONTINUOUS
 62
     3
 10
-73.5
 20
-76.1893839890133648
 30
0.0000000000000169
 11
-75.7000000000000455
 21
-79.9998957656649026
 31
0.0000000000000178
210
-0.0000000000000002
220
1.0
230
-0.0000000000000002
  0
ARC
  5
1BD75
  8
0
  6
CONTINUOUS
 62
     3
 10
64.4999999999998863
 20
-74.999895765665002
 30
0.0
 40
5.9999999999999014
210
0.0
220
-0.0000000000000002
230
-1.0
 50
270.0
 51
303.5573097619209761
  0
ARC
  5
1BD76
  8
0
  6
CONTINUOUS
 62
     3
 10
-64.4999999999999147
 20
-74.9998957656649736
 30
0.0
 40
5.9999999999999041
210
0.0
220
-0.0000000000000002
230
-1.0
 50
236.4426902380789102
 51
270.0
  0
ARC
  5
1BD77
  8
0
  6
CONTINUOUS
 62
     3
 10
71.4758400866410426
 20
-52.7998957656649281
 30
0.0
 40
2.8000000000000238
210
0.0
220
-0.0000000000000002
230
-1.0
 50
15.0000000000003393
 51
89.5056149120653259
  0
ARC
  5
1BD78
  8
0
  6
CONTINUOUS
 62
     3
 10
-71.475840086641071
 20
-52.7998957656648926
 30
0.0
 40
2.8000000000000211
210
0.0
220
-0.0000000000000002
230
-1.0
 50
90.4943850879346172
 51
164.9999999999996021
  0
LINE
  5
1BD79
  8
0
  6
CONTINUOUS
 62
     3
 10
74.1804324002504529
 20
-52.0752024393777972
 30
0.0000000000000116
 11
75.5000000000000284
 21
-56.999895765664867
 31
0.0000000000000127
210
-0.0000000000000002
220
1.0
230
-0.0000000000000002
  0
LINE
  5
1BD7A
  8
0
  6
CONTINUOUS
 62
     3
 10
-74.1804324002504245
 20
-52.075202439377847
 30
0.0000000000000116
 11
-75.5
 21
-56.9998957656649026
 31
0.0000000000000127
210
-0.0000000000000002
220
1.0
230
-0.0000000000000002
  0
LINE
  5
1BD7B
  8
0
  6
CONTINUOUS
 62
     3
 10
72.1603532929805027
 20
248.0000000000003126
 30
-0.0000000000000551
 11
-72.1603532929806164
 21
248.000000000000199
 31
-0.0000000000000551
210
-0.0000000000000002
220
1.0
230
-0.0000000000000002
  0
LINE
  5
1BD7C
  8
0
  6
CONTINUOUS
 62
     3
 10
-150.0000000000001137
 20
266.0000000000002274
 30
-0.0000000000000591
 11
-150.0000000000001137
 21
268.0000000000002274
 31
-0.0000000000000595
210
-0.0000000000000002
220
1.0
230
-0.0000000000000002
  0
LINE
  5
1BD7D
  8
0
  6
CONTINUOUS
 62
     3
 10
-150.0000000000001137
 20
268.0000000000002274
 30
-0.0000000000000595
 11
-150.0000000000001137
 21
270.0000000000002274
 31
-0.00000000000006
210
-0.0000000000000002
220
1.0
230
-0.0000000000000002
  0
LINE
  5
1BD7E
  8
0
  6
CONTINUOUS
 62
     3
 10
-150.0000000000001137
 20
270.0000000000002274
 30
-0.00000000000006
 11
-150.0000000000001137
 21
346.0000000000002274
 31
-0.0000000000000768
210
-0.0000000000000002
220
1.0
230
-0.0000000000000002
  0
ARC
  5
1BD7F
  8
0
  6
CONTINUOUS
 62
     3
 10
-130.0000000000001137
 20
346.0000000000002274
 30
-0.0000000000000768
 40
20.0
 50
90.0000000000000284
 51
180.0
  0
CIRCLE
  5
1BD80
  8
0
  6
CONTINUOUS
 62
     3
 10
-130.0000000000001137
 20
346.0000000000002274
 30
-0.0000000000000768
 40
3.999999999999988
  0
LINE
  5
1BD81
  8
0
  6
CONTINUOUS
 62
     3
 10
-150.0
 20
268.0000000000002274
 30
-0.0000000000000595
 11
150.0
 21
268.0000000000002842
 31
-0.0000000000000595
210
-0.0000000000000002
220
1.0
230
-0.0000000000000002
  0
LINE
  5
1BD82
  8
0
  6
CONTINUOUS
 62
     3
 10
150.0
 20
266.0000000000002842
 30
-0.0000000000000591
 11
-150.0
 21
266.0000000000002274
 31
-0.0000000000000591
210
-0.0000000000000002
220
1.0
230
-0.0000000000000002
  0
LINE
  5
1BD83
  8
0
  6
CONTINUOUS
 62
     3
 10
150.0
 20
266.0000000000002842
 30
-0.0000000000000591
 11
150.0
 21
268.0000000000002842
 31
-0.0000000000000595
210
-0.0000000000000002
220
1.0
230
-0.0000000000000002
  0
LINE
  5
1BD84
  8
0
  6
CONTINUOUS
 62
     3
 10
150.0
 20
268.0000000000002842
 30
-0.0000000000000595
 11
150.0
 21
270.0000000000002842
 31
-0.00000000000006
210
-0.0000000000000002
220
1.0
230
-0.0000000000000002
  0
LINE
  5
1BD85
  8
0
  6
CONTINUOUS
 62
     3
 10
-130.0000000000001137
 20
366.0000000000002274
 30
-0.0000000000000813
 11
130.0
 21
366.0000000000003979
 31
-0.0000000000000813
210
-0.0000000000000002
220
1.0
230
-0.0000000000000002
  0
LINE
  5
1BD86
  8
0
  6
CONTINUOUS
 62
     3
 10
150.0
 20
270.0000000000002842
 30
-0.00000000000006
 11
150.0
 21
346.0000000000002842
 31
-0.0000000000000768
210
-0.0000000000000002
220
1.0
230
-0.0000000000000002
  0
ARC
  5
1BD87
  8
0
  6
CONTINUOUS
 62
     3
 10
-130.0
 20
346.0000000000002842
 30
0.0
 40
20.0
210
0.0
220
-0.0000000000000002
230
-1.0
 50
89.9999999999999858
 51
180.0
  0
CIRCLE
  5
1BD88
  8
0
  6
CONTINUOUS
 62
     3
 10
-130.0
 20
346.0000000000002842
 30
0.0
 40
3.999999999999988
210
0.0
220
-0.0000000000000002
230
-1.0
  0
ARC
  5
1BD89
  8
0
  6
CONTINUOUS
 62
     3
 10
77.5000000000000711
 20
262.5000000000002274
 30
0.0
 40
3.5
210
0.0
220
-0.0000000000000002
230
-1.0
 50
89.9999999999999858
 51
192.8280495223822868
  0
ARC
  5
1BD8A
  8
0
  6
CONTINUOUS
 62
     3
 10
-77.4999999999999574
 20
262.5000000000002274
 30
0.0
 40
3.4999999999999938
210
0.0
220
-0.0000000000000002
230
-1.0
 50
347.1719504776175995
 51
90.0
  0
ARC
  5
1BD8B
  8
0
  6
CONTINUOUS
 62
     3
 10
57.9673251498190112
 20
258.052228102726076
 30
0.0
 40
16.5326748501810883
210
0.0
220
-0.0000000000000002
230
-1.0
 50
342.7803027270542202
 51
12.8280495223831394
  0
ARC
  5
1BD8C
  8
0
  6
CONTINUOUS
 62
     3
 10
-57.9673251498190822
 20
258.052228102726076
 30
0.0
 40
16.5326748501808893
210
0.0
220
-0.0000000000000002
230
-1.0
 50
167.1719504776164058
 51
197.2196972729456945
  0
LINE
  5
1BD8D
  8
0
  6
CONTINUOUS
 62
     3
 10
-72.1603532929806306
 20
248.000000000000199
 30
-0.0000000000000551
 11
-73.7589500707291137
 21
253.157953891047697
 31
-0.0000000000000562
210
-0.0000000000000002
220
1.0
230
-0.0000000000000002
  0
LINE
  5
1BD8E
  8
0
  6
CONTINUOUS
 62
     3
 10
72.1603532929805169
 20
248.0000000000003126
 30
-0.0000000000000551
 11
73.7589500707290142
 21
253.1579538910478107
 31
-0.0000000000000562
210
-0.0000000000000002
220
1.0
230
-0.0000000000000002
  0
LINE
  5
1BD8F
  8
0
  6
VERDECKT
 62
     1
 10
-63.7099256195318304
 20
0.1990074380465198
 30
0.0
 11
63.7099256195317096
 21
0.199007438046556
 31
0.0
210
-0.0000000000000002
220
1.0
230
-0.0000000000000002
  0
ARC
  5
1BD90
  8
0
  6
VERDECKT
 62
     1
 10
42.0000000000004121
 20
259.9999999999997726
 30
0.0
 40
29.9999999999997016
210
0.0
220
-0.0000000000000002
230
-1.0
 50
338.6325470100903772
 51
0.0000000000001018
  0
ARC
  5
1BD91
  8
0
  6
VERDECKT
 62
     1
 10
-41.9999999999998082
 20
259.9999999999997726
 30
0.0
 40
30.0000000000000711
210
0.0
220
-0.0000000000000002
230
-1.0
 50
179.9999999999998863
 51
201.3674529899093102
  0
LINE
  5
1BD92
  8
0
  6
VERDECKT
 62
     1
 10
-69.5194308710120197
 20
248.000000000000199
 30
-0.0000000000000551
 11
-69.9378880439466712
 21
249.0695648922875876
 31
-0.0000000000000553
210
-0.0000000000000002
220
1.0
230
-0.0000000000000002
  0
LINE
  5
1BD93
  8
0
  6
VERDECKT
 62
     1
 10
69.5194308710117923
 20
248.0000000000003126
 30
-0.0000000000000551
 11
69.9378880439464439
 21
249.0695648922877012
 31
-0.0000000000000553
210
-0.0000000000000002
220
1.0
230
-0.0000000000000002
  0
ARC
  5
1BD94
  8
0
  6
VERDECKT
 62
     1
 10
94.4999999999999858
 20
234.9999999999998863
 30
0.0
 40
29.9999999999998508
210
0.0
220
-0.0000000000000002
230
-1.0
 50
158.6325470100902919
 51
180.0000000000001137
  0
ARC
  5
1BD95
  8
0
  6
VERDECKT
 62
     1
 10
-94.4999999999996447
 20
235.0
 30
0.0
 40
29.99999999999973
210
0.0
220
-0.0000000000000002
230
-1.0
 50
359.9999999999997158
 51
21.3674529899095695
  0
LINE
  5
1BD96
  8
0
  6
VERDECKT
 62
     1
 10
-66.5621119560535703
 20
245.9304351077120998
 30
-0.0000000000000546
 11
-68.0753621743502748
 21
249.7982605661352125
 31
-0.0000000000000555
210
-0.0000000000000002
220
1.0
230
-0.0000000000000002
  0
LINE
  5
1BD97
  8
0
  6
VERDECKT
 62
     1
 10
66.562111956053343
 20
245.9304351077120998
 30
-0.0000000000000546
 11
68.0753621743500332
 21
249.7982605661352125
 31
-0.0000000000000555
210
-0.0000000000000002
220
1.0
230
-0.0000000000000002
  0
ARC
  5
1BD98
  8
0
  6
VERDECKT
 62
     1
 10
42.0000000000002629
 20
259.9999999999998863
 30
0.0
 40
27.9999999999998792
210
0.0
220
-0.0000000000000002
230
-1.0
 50
338.6325470100903203
 51
0.0
  0
ARC
  5
1BD99
  8
0
  6
VERDECKT
 62
     1
 10
-42.0000000000000071
 20
259.9999999999998863
 30
0.0
 40
27.9999999999998685
210
0.0
220
-0.0000000000000002
230
-1.0
 50
180.0
 51
201.3674529899097081
  0
LINE
  5
1BD9A
  8
0
  6
VERDECKT
 62
     1
 10
69.9999999999999005
 20
269.9999999999998863
 30
-0.00000000000006
 11
69.9999999999999005
 21
259.9999999999998863
 31
-0.0000000000000577
210
-0.0000000000000002
220
1.0
230
-0.0000000000000002
  0
LINE
  5
1BD9B
  8
0
  6
VERDECKT
 62
     1
 10
-70.0000000000001279
 20
269.9999999999998863
 30
-0.00000000000006
 11
-70.0000000000001279
 21
259.9999999999998863
 31
-0.0000000000000577
210
-0.0000000000000002
220
1.0
230
-0.0000000000000002
  0
LINE
  5
1BD9C
  8
0
  6
VERDECKT
 62
     1
 10
72.0000000000484022
 20
268.0000000000002274
 30
-0.0000000000000595
 11
72.0000000000484022
 21
259.9999999999997726
 31
-0.0000000000000577
210
-0.0000000000000002
220
1.0
230
-0.0000000000000002
  0
LINE
  5
1BD9D
  8
0
  6
VERDECKT
 62
     1
 10
-72.0000000000486153
 20
268.0000000000002274
 30
-0.0000000000000595
 11
-72.0000000000486153
 21
259.9999999999997726
 31
-0.0000000000000577
210
-0.0000000000000002
220
1.0
230
-0.0000000000000002
  0
ARC
  5
1BD9E
  8
0
  6
VERDECKT
 62
     1
 10
63.4999999999807372
 20
8.1496268636070042
 30
0.0
 40
0.999999999995076
210
0.0
220
-0.0000000000000002
230
-1.0
 50
354.2894068624837018
 51
0.0000000000115009
  0
ARC
  5
1BD9F
  8
0
  6
VERDECKT
 62
     1
 10
-63.499999999980659
 20
8.1496268636070432
 30
0.0
 40
0.9999999999950405
210
0.0
220
-0.0000000000000002
230
-1.0
 50
179.9999999999886029
 51
185.7105931375164118
  0
LINE
  5
1BDA0
  8
0
  6
VERDECKT
 62
     1
 10
-63.7099256195318304
 20
0.1990074380465182
 30
0.0
 11
-64.4950371901857835
 21
8.0501231445862071
 31
-0.0000000000000018
210
-0.0000000000000002
220
1.0
230
-0.0000000000000002
  0
LINE
  5
1BDA1
  8
0
  6
VERDECKT
 62
     1
 10
63.7099256195317309
 20
0.1990074380465545
 30
0.0
 11
64.495037190185684
 21
8.0501231445862462
 31
-0.0000000000000018
210
-0.0000000000000002
220
1.0
230
-0.0000000000000002
  0
LINE
  5
1BDA2
  8
0
  6
VERDECKT
 62
     1
 10
64.4999999999756284
 20
234.9999999999998863
 30
-0.0000000000000522
 11
64.4999999999756994
 21
8.1496268636072262
 31
-0.0000000000000018
210
-0.0000000000000002
220
1.0
230
-0.0000000000000002
  0
LINE
  5
1BDA3
  8
0
  6
VERDECKT
 62
     1
 10
-64.4999999999758842
 20
234.999999999999801
 30
-0.0000000000000522
 11
-64.4999999999758131
 21
8.1496268636071996
 31
-0.0000000000000018
210
-0.0000000000000002
220
1.0
230
-0.0000000000000002
  0
LINE
  5
1BDA4
  8
0
  6
VERDECKT
 62
     1
 10
63.7099256195317167
 20
0.1990074380465517
 30
0.0
 11
65.6999999999999602
 21
-0.0000000000002721
 31
0.0
210
-0.0000000000000002
220
1.0
230
-0.0000000000000002
  0
LINE
  5
1BDA5
  8
0
  6
VERDECKT
 62
     1
 10
-63.7099256195318304
 20
0.1990074380465156
 30
0.0
 11
-65.7000000000000739
 21
-0.0000000000003093
 31
0.0
210
-0.0000000000000002
220
1.0
230
-0.0000000000000002
  0
LINE
  5
1BDA6
  8
0
  6
VERDECKT
 62
     1
 10
-70.7000000000000455
 20
-76.9998957656649026
 30
0.0000000000000171
 11
0.0000000000000029
 21
-76.9998957656648884
 31
0.0000000000000171
210
-0.0000000000000002
220
1.0
230
-0.0000000000000002
  0
LINE
  5
1BDA7
  8
0
  6
VERDECKT
 62
     1
 10
0.0000000000000246
 20
-76.9998957656648884
 30
0.0000000000000171
 11
70.7000000000000739
 21
-76.9998957656648741
 31
0.0000000000000171
210
-0.0000000000000002
220
1.0
230
-0.0000000000000002
  0
LINE
  5
1BDA8
  8
0
  6
VERDECKT
 62
     1
 10
-61.4999999999999929
 20
-78.9998957656649026
 30
0.0000000000000175
 11
0.0000000000000104
 21
-78.9998957656648884
 31
0.0000000000000175
210
-0.0000000000000002
220
1.0
230
-0.0000000000000002
  0
LINE
  5
1BDA9
  8
0
  6
VERDECKT
 62
     1
 10
0.0000000000000267
 20
-78.9998957656648884
 30
0.0000000000000175
 11
61.5000000000000284
 21
-78.9998957656648741
 31
0.0000000000000175
210
-0.0000000000000002
220
1.0
230
-0.0000000000000002
  0
LINE
  5
1BDAA
  8
0
  6
VERDECKT
 62
     1
 10
70.7000000000000739
 20
-76.9998957656648741
 30
0.0000000000000171
 11
73.7000000000000739
 21
-79.9998957656648741
 31
0.0000000000000178
210
-0.0000000000000002
220
1.0
230
-0.0000000000000002
  0
LINE
  5
1BDAB
  8
0
  6
VERDECKT
 62
     1
 10
-70.7000000000000455
 20
-76.9998957656649026
 30
0.0000000000000171
 11
-73.7000000000000455
 21
-79.9998957656649026
 31
0.0000000000000178
210
-0.0000000000000002
220
1.0
230
-0.0000000000000002
  0
ARC
  5
1BDAC
  8
0
  6
VERDECKT
 62
     1
 10
64.4999999999997442
 20
-74.9998957656648884
 30
0.0
 40
6.000000000000079
210
0.0
220
-0.0000000000000002
230
-1.0
 50
303.5573097619216014
 51
340.5287793655097062
  0
ARC
  5
1BDAD
  8
0
  6
VERDECKT
 62
     1
 10
-64.4999999999997726
 20
-74.9998957656648599
 30
0.0
 40
6.000000000000079
210
0.0
220
-0.0000000000000002
230
-1.0
 50
199.4712206344902086
 51
236.4426902380783986
  0
LINE
  5
1BDAE
  8
0
  6
VERDECKT
 62
     1
 10
61.5000000000000284
 20
-78.9998957656648741
 30
0.0000000000000175
 11
61.5000000000000284
 21
-80.9998957656648884
 31
0.000000000000018
210
-0.0000000000000002
220
1.0
230
-0.0000000000000002
  0
LINE
  5
1BDAF
  8
0
  6
VERDECKT
 62
     1
 10
-61.5
 20
-78.9998957656649026
 30
0.0000000000000175
 11
-61.4999999999999929
 21
-80.9998957656649168
 31
0.000000000000018
210
-0.0000000000000002
220
1.0
230
-0.0000000000000002
  0
ARC
  5
1BDB0
  8
0
  6
VERDECKT
 62
     1
 10
61.5000000000000213
 20
-72.9998957656649168
 30
0.0
 40
5.9999999999999858
210
0.0
220
-0.0000000000000002
230
-1.0
 50
270.0
 51
0.0000000000003308
  0
ARC
  5
1BDB1
  8
0
  6
VERDECKT
 62
     1
 10
-61.5000000000000497
 20
-72.9998957656648741
 30
0.0
 40
5.9999999999999787
210
0.0
220
-0.0000000000000002
230
-1.0
 50
179.999999999999801
 51
270.0000000000002274
  0
LINE
  5
1BDB2
  8
0
  6
VERDECKT
 62
     1
 10
67.5000000000000284
 20
-56.999895765664867
 30
0.0000000000000127
 11
67.5000000000000284
 21
-72.9998957656648741
 31
0.0000000000000162
210
-0.0000000000000002
220
1.0
230
-0.0000000000000002
  0
LINE
  5
1BDB3
  8
0
  6
VERDECKT
 62
     1
 10
-67.5
 20
-56.9998957656649026
 30
0.0000000000000127
 11
-67.5
 21
-72.9998957656649026
 31
0.0000000000000162
210
-0.0000000000000002
220
1.0
230
-0.0000000000000002
  0
LINE
  5
1BDB4
  8
0
  6
VERDECKT
 62
     1
 10
-67.5
 20
-56.9998957656649026
 30
0.0000000000000127
 11
-68.8195675997495044
 21
-52.0752024393778683
 31
0.0000000000000116
210
-0.0000000000000002
220
1.0
230
-0.0000000000000002
  0
LINE
  5
1BDB5
  8
0
  6
VERDECKT
 62
     1
 10
67.5000000000000284
 20
-56.999895765664867
 30
0.0000000000000127
 11
68.8195675997495329
 21
-52.0752024393778328
 31
0.0000000000000116
210
-0.0000000000000002
220
1.0
230
-0.0000000000000002
  0
ARC
  5
1BDB6
  8
0
  6
VERDECKT
 62
     1
 10
71.5241599133589148
 20
-52.7998957656649424
 30
0.0
 40
2.8000000000000269
210
0.0
220
-0.0000000000000002
230
-1.0
 50
90.494385087931164
 51
165.0
  0
ARC
  5
1BDB7
  8
0
  6
VERDECKT
 62
     1
 10
-71.5241599133589574
 20
-52.7998957656648997
 30
0.0
 40
2.800000000000034
210
0.0
220
-0.0000000000000002
230
-1.0
 50
14.9999999999999893
 51
89.5056149120688076
  0
LINE
  5
1BDB8
  8
0
  6
VERDECKT
 62
     1
 10
-70.2500000000000711
 20
248.5920728806478053
 30
-0.0000000000000552
 11
70.2499999999999432
 21
248.5920728806478905
 31
-0.0000000000000552
210
-0.0000000000000002
220
1.0
230
-0.0000000000000002
  0
LINE
  5
1BDB9
  8
0
  6
VERDECKT
 62
     1
 10
70.2499999999999432
 20
248.5920728806478905
 30
-0.0000000000000552
 11
72.1603532929805169
 21
248.0000000000003126
 31
-0.0000000000000551
210
-0.0000000000000002
220
1.0
230
-0.0000000000000002
  0
LINE
  5
1BDBA
  8
0
  6
VERDECKT
 62
     1
 10
-70.2500000000000711
 20
248.5920728806478053
 30
-0.0000000000000552
 11
-72.1603532929806306
 21
248.000000000000199
 31
-0.0000000000000551
210
-0.0000000000000002
220
1.0
230
-0.0000000000000002
  0
LINE
  5
1BDBB
  8
0
  6
VERDECKT
 62
     1
 10
-70.2500000000000711
 20
248.5920728806478053
 30
-0.0000000000000552
 11
-71.8485967777485683
 21
253.7500267716953033
 31
-0.0000000000000563
210
-0.0000000000000002
220
1.0
230
-0.0000000000000002
  0
LINE
  5
1BDBC
  8
0
  6
VERDECKT
 62
     1
 10
70.2499999999999432
 20
248.5920728806478905
 30
-0.0000000000000552
 11
71.8485967777484547
 21
253.7500267716953886
 31
-0.0000000000000563
210
-0.0000000000000002
220
1.0
230
-0.0000000000000002
  0
ARC
  5
1BDBD
  8
0
  6
VERDECKT
 62
     1
 10
57.9673251498190183
 20
258.052228102726076
 30
0.0
 40
14.5326748501810705
210
0.0
220
-0.0000000000000002
230
-1.0
 50
342.7803027270542202
 51
12.8280495223831199
  0
ARC
  5
1BDBE
  8
0
  6
VERDECKT
 62
     1
 10
-57.9673251498188904
 20
258.052228102726076
 30
0.0
 40
14.5326748501810705
210
0.0
220
-0.0000000000000002
230
-1.0
 50
167.1719504776168037
 51
197.2196972729456945
  0
ARC
  5
1BDBF
  8
0
  6
VERDECKT
 62
     1
 10
77.5000000000000711
 20
262.5000000000002274
 30
0.0
 40
5.5000000000000568
210
0.0
220
-0.0000000000000002
230
-1.0
 50
89.9999999999999858
 51
192.828049522381491
  0
ARC
  5
1BDC0
  8
0
  6
VERDECKT
 62
     1
 10
-77.4999999999999574
 20
262.5000000000002274
 30
0.0
 40
5.5
210
0.0
220
-0.0000000000000002
230
-1.0
 50
347.1719504776183953
 51
90.0
  0
ENDBLK
  5
1BDC2
  8
0
  0
ENDSEC
  0
SECTION
  2
ENTITIES
  0
TEXT
  5
416B
  8
VOLL
 10
441.2467849443549994
 20
195.2108867802037935
 30
0.0
 40
1.8
  1

  7
GREEKS
  0
INSERT
  5
46F1
  8
ADSK_ASSOC_ENTITY_BACKUPS
  2
*S0
 10
0.0
 20
0.0
 30
0.0
  0
INSERT
  5
1BD0F
  8
STEMPEL
  2
A$C9F0801F4
 10
0.0
 20
0.0
 30
0.0
  0
INSERT
  5
1BD3A
  8
STEMPEL
  2
A$CB8CBD75C
 10
0.0000000000002012
 20
-280.9998957656649168
 30
0.000000000000018
  0
INSERT
  5
1BDC3
  8
STEMPEL
  2
A$CD3F3EF3A
 10
295.0000000000001137
 20
-0.0000000000005116
 30
0.0
  0
VIEWPORT
  5
46D0
 67
     1
  8
0
 10
297.0106030273440751
 20
210.0055635070800975
 30
0.0
 40
798.1701256077443531
 41
426.3698209718671137
 68
     1
 69
     1
1001
ACAD
1000
MVIEW
1002
{
1070
    16
1010
0.0
1020
0.0
1030
0.0
1010
0.0
1020
0.0
1030
1.0
1040
0.0
1040
426.3698209718671137
1040
297.0106030273440751
1040
210.0055635070800975
1040
50.0
1040
0.0
1040
0.0
1070
     0
1070
  1500
1070
     1
1070
     1
1070
     0
1070
     0
1070
     0
1070
     0
1040
0.0
1040
0.0
1040
0.0
1040
10.0
1040
10.0
1040
10.0
1040
10.0
1070
     0
1002
{
1002
}
1002
}
  0
ENDSEC
  0
EOF
