  0
SECTION
  2
HEADER
  9
$ACADVER
  1
AC1009
  9
$INSBASE
 10
0.0
 20
0.0
 30
0.0
  9
$EXTMIN
 10
-122.4999999999999005
 20
-422.0000000000002274
 30
-0.0000000000000813
  9
$EXTMAX
 10
440.0000000000002274
 20
365.9999999999997158
 30
0.0000000000000375
  9
$LIMMIN
 10
0.0
 20
0.0
  9
$LIMMAX
 10
1681.9999999999990905
 20
1188.0
  9
$ORTHOMODE
 70
     1
  9
$REGENMODE
 70
     1
  9
$FILLMODE
 70
     1
  9
$QTEXTMODE
 70
     0
  9
$MIRRTEXT
 70
     1
  9
$DRAGMODE
 70
     2
  9
$LTSCALE
 40
20.0
  9
$OSMODE
 70
   511
  9
$ATTMODE
 70
     1
  9
$TEXTSIZE
 40
3.5
  9
$TRACEWID
 40
1.0
  9
$TEXTSTYLE
  7
STANDARD
  9
$CLAYER
  8
STEMPEL
  9
$CELTYPE
  6
BYLAYER
  9
$CECOLOR
 62
   256
  9
$DIMSCALE
 40
1.0
  9
$DIMASZ
 40
3.5
  9
$DIMEXO
 40
1.0
  9
$DIMDLI
 40
0.38
  9
$DIMRND
 40
0.0
  9
$DIMDLE
 40
0.0
  9
$DIMEXE
 40
1.0
  9
$DIMTP
 40
0.0
  9
$DIMTM
 40
0.000000001
  9
$DIMTXT
 40
3.5
  9
$DIMCEN
 40
0.09
  9
$DIMTSZ
 40
0.0
  9
$DIMTOL
 70
     0
  9
$DIMLIM
 70
     0
  9
$DIMTIH
 70
     0
  9
$DIMTOH
 70
     0
  9
$DIMSE1
 70
     0
  9
$DIMSE2
 70
     0
  9
$DIMTAD
 70
     1
  9
$DIMZIN
 70
     8
  9
$DIMBLK
  1

  9
$DIMASO
 70
     1
  9
$DIMSHO
 70
     0
  9
$DIMPOST
  1

  9
$DIMAPOST
  1

  9
$DIMALT
 70
     0
  9
$DIMALTD
 70
     2
  9
$DIMALTF
 40
25.3999999999999986
  9
$DIMLFAC
 40
2.0
  9
$DIMTOFL
 70
     1
  9
$DIMTVP
 40
0.0
  9
$DIMTIX
 70
     0
  9
$DIMSOXD
 70
     0
  9
$DIMSAH
 70
     0
  9
$DIMBLK1
  1

  9
$DIMBLK2
  1

  9
$DIMSTYLE
  2
LORO
  9
$DIMCLRD
 70
     0
  9
$DIMCLRE
 70
     0
  9
$DIMCLRT
 70
     1
  9
$DIMTFAC
 40
0.5
  9
$DIMGAP
 40
1.5
  9
$LUNITS
 70
     2
  9
$LUPREC
 70
     2
  9
$SKETCHINC
 40
1.0
  9
$FILLETRAD
 40
16.0
  9
$AUNITS
 70
     0
  9
$AUPREC
 70
     0
  9
$MENU
  1
ACAD
  9
$ELEVATION
 40
0.0
  9
$PELEVATION
 40
0.0
  9
$THICKNESS
 40
0.0
  9
$LIMCHECK
 70
     0
  9
$BLIPMODE
 70
     0
  9
$CHAMFERA
 40
2.0
  9
$CHAMFERB
 40
2.0
  9
$SKPOLY
 70
     0
  9
$TDCREATE
 40
2455397.867048610933125
  9
$TDUPDATE
 40
2459710.623506945092231
  9
$TDINDWG
 40
3.7223381481
  9
$TDUSRTIMER
 40
3.7223381481
  9
$USRTIMER
 70
     1
  9
$ANGBASE
 50
0.0
  9
$ANGDIR
 70
     0
  9
$PDMODE
 70
     0
  9
$PDSIZE
 40
0.0
  9
$PLINEWID
 40
0.0
  9
$COORDS
 70
     1
  9
$SPLFRAME
 70
     0
  9
$SPLINETYPE
 70
     6
  9
$SPLINESEGS
 70
     8
  9
$ATTDIA
 70
     1
  9
$ATTREQ
 70
     1
  9
$HANDLING
 70
     1
  9
$HANDSEED
  5
1BA19
  9
$SURFTAB1
 70
     6
  9
$SURFTAB2
 70
     6
  9
$SURFTYPE
 70
     6
  9
$SURFU
 70
     6
  9
$SURFV
 70
     6
  9
$UCSNAME
  2

  9
$UCSORG
 10
0.0
 20
0.0
 30
0.0
  9
$UCSXDIR
 10
1.0
 20
0.0
 30
0.0
  9
$UCSYDIR
 10
0.0
 20
1.0
 30
0.0
  9
$PUCSNAME
  2

  9
$PUCSORG
 10
0.0
 20
0.0
 30
0.0
  9
$PUCSXDIR
 10
1.0
 20
0.0
 30
0.0
  9
$PUCSYDIR
 10
0.0
 20
1.0
 30
0.0
  9
$USERI1
 70
     0
  9
$USERI2
 70
     0
  9
$USERI3
 70
     0
  9
$USERI4
 70
     0
  9
$USERI5
 70
     0
  9
$USERR1
 40
0.0
  9
$USERR2
 40
0.0
  9
$USERR3
 40
0.0
  9
$USERR4
 40
0.0
  9
$USERR5
 40
0.0
  9
$WORLDVIEW
 70
     1
  9
$SHADEDGE
 70
     3
  9
$SHADEDIF
 70
    70
  9
$TILEMODE
 70
     1
  9
$MAXACTVP
 70
    16
  9
$PLIMCHECK
 70
     0
  9
$PEXTMIN
 10
1.0000000000000000E+20
 20
1.0000000000000000E+20
 30
1.0000000000000000E+20
  9
$PEXTMAX
 10
-1.0000000000000000E+20
 20
-1.0000000000000000E+20
 30
-1.0000000000000000E+20
  9
$PLIMMIN
 10
-2.9593969726560352
 20
-2.0944364929199142
  9
$PLIMMAX
 10
596.9806030273440456
 20
422.1055635070800918
  9
$UNITMODE
 70
     0
  9
$VISRETAIN
 70
     0
  9
$PLINEGEN
 70
     0
  9
$PSLTSCALE
 70
     0
  0
ENDSEC
  0
SECTION
  2
TABLES
  0
TABLE
  2
VPORT
 70
     1
  0
VPORT
  2
*ACTIVE
 70
     0
 10
0.0
 20
0.0
 11
1.0
 21
1.0
 12
94.712274296084658
 22
-297.9607114821582172
 13
0.0
 23
0.0
 14
1.0
 24
1.0
 15
10.0
 25
10.0
 16
-0.0000000000002984
 26
0.0
 36
1153.2350196496240642
 17
64.0377257039155126
 27
269.9607114821578762
 37
-0.0000000000000161
 40
792.0306905370841832
 41
1.8720136518771331
 42
50.0
 43
0.0
 44
0.0
 50
0.0
 51
0.0
 71
     0
 72
  1500
 73
     1
 74
     0
 75
     0
 76
     0
 77
     0
 78
     0
  0
ENDTAB
  0
TABLE
  2
LTYPE
 70
     3
  0
LTYPE
  2
CONTINUOUS
 70
     0
  3
Solid line
 72
    65
 73
     0
 40
0.0
  0
LTYPE
  2
STRICHPUNKT
 70
     0
  3
__ . __ . __ . __ . __ . __ . __ . __ . __ . __
 72
    65
 73
     4
 40
1.0
 49
0.5
 49
-0.25
 49
0.0
 49
-0.25
  0
LTYPE
  2
VERDECKT
 70
     0
  3
Verdeckt __ __ __ __ __ __ __ __ __ __ __ __ __
 72
    65
 73
     2
 40
0.375
 49
0.25
 49
-0.125
  0
ENDTAB
  0
TABLE
  2
LAYER
 70
     7
  0
LAYER
  2
0
 70
     0
 62
     7
  6
CONTINUOUS
  0
LAYER
  2
VOLL
 70
     0
 62
     1
  6
CONTINUOUS
  0
LAYER
  2
STEMPEL
 70
     0
 62
     3
  6
CONTINUOUS
  0
LAYER
  2
DEFPOINTS
 70
     0
 62
     7
  6
CONTINUOUS
  0
LAYER
  2
ADSK_ASSOC_ENTITY_BACKUPS
 70
     1
 62
    -7
  6
CONTINUOUS
  0
ENDTAB
  0
TABLE
  2
STYLE
 70
     3
  0
STYLE
  2
STANDARD
 70
     0
 40
0.0
 41
0.8
 50
0.0
 71
     0
 42
3.5
  3
simplex.shx
  4

  0
STYLE
  2
GREEKS
 70
     0
 40
0.0
 41
0.8
 50
0.0
 71
     0
 42
2.5
  3
SIMPLEX.shx
  4

  0
ENDTAB
  0
TABLE
  2
VIEW
 70
     0
  0
ENDTAB
  0
TABLE
  2
UCS
 70
     0
  0
ENDTAB
  0
TABLE
  2
APPID
 70
    31
  0
APPID
  2
ACAD
 70
     0
  0
APPID
  2
ACAD_EXEMPT_FROM_CAD_STANDARDS
 70
     0
  0
APPID
  2
ACAD_NAV_VCDISPLAY
 70
     0
  0
APPID
  2
GRADIENTCOLOR1ACI
 70
     0
  0
APPID
  2
GRADIENTCOLOR2ACI
 70
     0
  0
APPID
  2
ACAUTHENVIRON
 70
     0
  0
APPID
  2
ACDBDYNAMICBLOCKTRUENAME
 70
     0
  0
APPID
  2
ACDBDYNAMICBLOCKGUID
 70
     0
  0
APPID
  2
ACAD_PSEXT
 70
     0
  0
APPID
  2
ACAD_MLEADERVER
 70
     0
  0
APPID
  2
ACAECLAYERSTANDARD
 70
     0
  0
APPID
  2
ACCMTRANSPARENCY
 70
     0
  0
APPID
  2
ACAD_STEPID
 70
     0
  0
APPID
  2
ACSYNERGY
 70
     0
  0
APPID
  2
SYNERGY_BODY_TBR_ID
 70
     0
  0
APPID
  2
ACAD_VIEW_EDGE_ID
 70
     0
  0
APPID
  2
ACAD_DSTYLE_DIMJAG
 70
     0
  0
APPID
  2
ACAD_DSTYLE_DIMBREAK
 70
     0
  0
APPID
  2
ACAD_DSTYLE_DIMTALN
 70
     0
  0
APPID
  2
ACADANNOMONITORALERTICONDI
 70
     0
  0
APPID
  2
ACAD_DIMASSOC_CALC_DIMLFAC
 70
     0
  0
APPID
  2
ACAD_DIMASSOC_DIMLFAC
 70
     0
  0
APPID
  2
ACAD_DIMASSOC_OVERRIDDEN_D
 70
     0
  0
APPID
  2
ACAD_DSTYLE_DIMRADIAL_EXTENSION
 70
     0
  0
APPID
  2
ACADANNOPO
 70
     0
  0
APPID
  2
ACSYNERGYSKETCH
 70
     0
  0
APPID
  2
ACAD_MODELDOC_XFORM
 70
     0
  0
APPID
  2
SYNERGY_EXCLUDED_FROM_SNAPSHOT
 70
     0
  0
APPID
  2
PLOTTRANSPARENCY
 70
     0
  0
APPID
  2
ACAD_TC
 70
     0
  0
APPID
  2
ACADANNOAV
 70
     0
  0
ENDTAB
  0
TABLE
  2
DIMSTYLE
 70
     2
  0
DIMSTYLE
  2
STANDARD
 70
     0
  3

  4

  5

  6

  7

 40
1.0
 41
0.18
 42
0.0625
 43
0.38
 44
0.18
 45
0.0
 46
0.0
 47
0.0
 48
0.0
140
0.18
141
0.09
142
0.0
143
25.3999999999999986
144
1.0
145
0.0
146
1.0
147
0.09
 71
     0
 72
     0
 73
     1
 74
     1
 75
     0
 76
     0
 77
     0
 78
     0
170
     0
171
     2
172
     0
173
     0
174
     0
175
     0
176
     0
177
     0
178
     0
  0
DIMSTYLE
  2
LORO
 70
     0
  3

  4

  5

  6

  7

 40
1.0
 41
3.5
 42
1.0
 43
0.38
 44
1.0
 45
0.0
 46
0.0
 47
0.0
 48
0.000000001
140
3.5
141
0.09
142
0.0
143
25.3999999999999986
144
2.0
145
0.0
146
0.5
147
1.5
 71
     0
 72
     0
 73
     0
 74
     0
 75
     0
 76
     0
 77
     1
 78
     8
170
     0
171
     2
172
     1
173
     0
174
     0
175
     0
176
     0
177
     0
178
     1
  0
ENDTAB
  0
ENDSEC
  0
SECTION
  2
BLOCKS
  0
BLOCK
  8
0
  2
$MODEL_SPACE
 70
     0
 10
0.0
 20
0.0
 30
0.0
  3
$MODEL_SPACE
  1

  0
ENDBLK
  5
38
  8
0
  0
BLOCK
 67
     1
  8
0
  2
$PAPER_SPACE
 70
     0
 10
0.0
 20
0.0
 30
0.0
  3
$PAPER_SPACE
  1

  0
ENDBLK
  5
36
 67
     1
  8
0
  0
BLOCK
  8
0
  2
*S0
 70
     1
 10
0.0
 20
0.0
 30
0.0
  3
*S0
  1

  0
ENDBLK
  5
46EF
  8
0
  0
BLOCK
  8
0
  2
A$C4BD38407
 70
     0
 10
0.0
 20
0.0
 30
0.0
  3
A$C4BD38407
  1

  0
LINE
  5
1B8B4
  8
0
  6
CONTINUOUS
 62
     3
 10
-50.6999999999998607
 20
-0.0000000000002842
 30
0.0
 11
50.7000000000001023
 21
-0.0000000000002842
 31
0.0
210
0.0
220
1.0
230
-0.0000000000000002
  0
LINE
  5
1B8B5
  8
0
  6
CONTINUOUS
 62
     3
 10
-60.4999999999999076
 20
269.9999999999997726
 30
-0.00000000000006
 11
60.5000000000001066
 21
269.9999999999997726
 31
-0.00000000000006
210
0.0
220
1.0
230
-0.0000000000000002
  0
ARC
  5
1B8B6
  8
0
  6
CONTINUOUS
 62
     3
 10
50.5000000000022027
 20
8.0498756211204459
 30
0.0
 40
0.9999999999976907
210
0.0
220
-0.0000000000000002
230
-1.0
 50
354.2894068624951842
 51
0.0000000000074298
  0
ARC
  5
1B8B7
  8
0
  6
CONTINUOUS
 62
     3
 10
-50.4999999999967386
 20
8.0498756211207336
 30
0.0
 40
1.0000000000033671
210
0.0
220
-0.0000000000000002
230
-1.0
 50
180.0000000000088107
 51
185.7105931374885017
  0
LINE
  5
1B8B8
  8
0
  6
CONTINUOUS
 62
     3
 10
51.5000000000000995
 20
239.999999999999801
 30
-0.0000000000000533
 11
51.5000000000001066
 21
8.0498756211205791
 31
-0.0000000000000018
210
0.0
220
1.0
230
-0.0000000000000002
  0
LINE
  5
1B8B9
  8
0
  6
CONTINUOUS
 62
     3
 10
-51.4999999999999005
 20
239.999999999999801
 30
-0.0000000000000533
 11
-51.4999999999998792
 21
8.0498756211205791
 31
-0.0000000000000018
210
0.0
220
1.0
230
-0.0000000000000002
  0
LINE
  5
1B8BA
  8
0
  6
CONTINUOUS
 62
     3
 10
-50.6999999999998892
 20
-0.0000000000002869
 30
0.0
 11
-51.4950371902098709
 21
7.9503719020995884
 31
-0.0000000000000018
210
0.0
220
1.0
230
-0.0000000000000002
  0
LINE
  5
1B8BB
  8
0
  6
CONTINUOUS
 62
     3
 10
50.7000000000001094
 20
-0.0000000000002847
 30
0.0
 11
51.4950371902100983
 21
7.9503719020995911
 31
-0.0000000000000018
210
0.0
220
1.0
230
-0.0000000000000002
  0
LINE
  5
1B8BC
  8
0
  6
CONTINUOUS
 62
     3
 10
-52.8415189189037804
 20
245.0030695945887942
 30
-0.0000000000000544
 11
-58.6179753299170585
 21
255.0000000000001137
 31
-0.0000000000000566
210
0.0
220
1.0
230
-0.0000000000000002
  0
LINE
  5
1B8BD
  8
0
  6
CONTINUOUS
 62
     3
 10
52.8415189189040007
 20
245.0030695945887942
 30
-0.0000000000000544
 11
58.617975329917293
 21
255.0000000000001137
 31
-0.0000000000000566
210
0.0
220
1.0
230
-0.0000000000000002
  0
ARC
  5
1B8BE
  8
0
  6
CONTINUOUS
 62
     3
 10
61.5000000000000924
 20
239.999999999999801
 30
0.0
 40
10.0000000000002096
210
0.0
220
-0.0000000000000002
230
-1.0
 50
149.9796896468810132
 51
179.9999999999996021
  0
ARC
  5
1B8BF
  8
0
  6
CONTINUOUS
 62
     3
 10
-61.5000000000001066
 20
239.999999999999801
 30
0.0
 40
10.0
210
0.0
220
-0.0000000000000002
230
-1.0
 50
0.0
 51
30.0203103531192497
  0
LINE
  5
1B8C0
  8
0
  6
CONTINUOUS
 62
     3
 10
60.5000000000001066
 20
269.9999999999997726
 30
-0.00000000000006
 11
60.5000000000001066
 21
268.0000000000002274
 31
-0.0000000000000595
210
0.0
220
1.0
230
-0.0000000000000002
  0
LINE
  5
1B8C1
  8
0
  6
CONTINUOUS
 62
     3
 10
-60.4999999999999005
 20
269.9999999999997726
 30
-0.00000000000006
 11
-60.4999999999999005
 21
268.0000000000001137
 31
-0.0000000000000595
210
0.0
220
1.0
230
-0.0000000000000002
  0
LINE
  5
1B8C2
  8
0
  6
CONTINUOUS
 62
     3
 10
-122.4999999999999005
 20
265.9999999999997726
 30
-0.0000000000000591
 11
0.0000000000000853
 21
265.9999999999997726
 31
-0.0000000000000591
210
0.0
220
1.0
230
-0.0000000000000002
  0
LINE
  5
1B8C3
  8
0
  6
CONTINUOUS
 62
     3
 10
-122.4999999999999005
 20
268.0
 30
-0.0000000000000595
 11
0.0000000000000853
 21
268.0
 31
-0.0000000000000595
210
0.0
220
1.0
230
-0.0000000000000002
  0
LINE
  5
1B8C4
  8
0
  6
CONTINUOUS
 62
     3
 10
61.0000000000001208
 20
255.0000000000001137
 30
-0.0000000000000566
 11
-60.9999999999998792
 21
255.0000000000001137
 31
-0.0000000000000566
210
0.0
220
1.0
230
-0.0000000000000002
  0
LINE
  5
1B8C5
  8
0
  6
CONTINUOUS
 62
     3
 10
0.0000000000001421
 20
268.0000000000002274
 30
-0.0000000000000595
 11
91.7500000000001421
 21
268.0000000000002274
 31
-0.0000000000000595
210
0.0
220
1.0
230
-0.0000000000000002
  0
LINE
  5
1B8C6
  8
0
  6
CONTINUOUS
 62
     3
 10
91.7500000000001421
 20
265.9999999999997726
 30
-0.0000000000000591
 11
0.0000000000001421
 21
265.9999999999997726
 31
-0.0000000000000591
210
0.0
220
1.0
230
-0.0000000000000002
  0
ARC
  5
1B8C7
  8
0
  6
CONTINUOUS
 62
     3
 10
-91.7500000000001137
 20
269.2499999999998863
 30
0.0
 40
3.2499999999999929
210
0.0
220
-0.0000000000000002
230
-1.0
 50
180.0
 51
270.0000000000001137
  0
LINE
  5
1B8C8
  8
0
  6
CONTINUOUS
 62
     3
 10
95.0000000000001137
 20
269.2499999999998863
 30
-0.0000000000000598
 11
95.0000000000001137
 21
345.9999999999997158
 31
-0.0000000000000768
210
0.0
220
1.0
230
-0.0000000000000002
  0
LINE
  5
1B8C9
  8
0
  6
CONTINUOUS
 62
     3
 10
93.0000000000001421
 20
269.2500000000002274
 30
-0.0000000000000598
 11
93.0000000000001421
 21
345.9999999999997158
 31
-0.0000000000000768
210
0.0
220
1.0
230
-0.0000000000000002
  0
ARC
  5
1B8CA
  8
0
  6
CONTINUOUS
 62
     3
 10
91.7500000000000853
 20
269.2500000000001137
 30
-0.0000000000000598
 40
1.250000000000014
 50
270.0000000000006821
 51
359.9999999999994884
  0
LINE
  5
1B8CB
  8
0
  6
CONTINUOUS
 62
     3
 10
93.0000000000001137
 20
345.9999999999997158
 30
-0.0000000000000768
 11
93.0000000000001137
 21
365.9999999999997158
 31
-0.0000000000000813
210
0.0
220
1.0
230
-0.0000000000000002
  0
LINE
  5
1B8CC
  8
0
  6
CONTINUOUS
 62
     3
 10
95.0000000000001137
 20
365.9999999999997158
 30
-0.0000000000000813
 11
95.0000000000001137
 21
345.9999999999997158
 31
-0.0000000000000768
210
0.0
220
1.0
230
-0.0000000000000002
  0
LINE
  5
1B8CD
  8
0
  6
CONTINUOUS
 62
     3
 10
95.0000000000000853
 20
365.9999999999997158
 30
-0.0000000000000813
 11
93.0000000000001421
 21
365.9999999999997158
 31
-0.0000000000000813
210
0.0
220
1.0
230
-0.0000000000000002
  0
LINE
  5
1B8CE
  8
0
  6
CONTINUOUS
 62
     3
 10
-122.499999999999801
 20
268.0
 30
-0.0000000000000595
 11
-122.499999999999801
 21
265.9999999999997726
 31
-0.0000000000000591
210
0.0
220
1.0
230
-0.0000000000000002
  0
ARC
  5
1B8CF
  8
0
  6
CONTINUOUS
 62
     3
 10
-70.2862577672368047
 20
264.0000000000003979
 30
0.0
 40
1.999999999999676
210
0.0
220
-0.0000000000000002
230
-1.0
 50
36.999999999993328
 51
90.0000000000016058
  0
ARC
  5
1B8D0
  8
0
  6
CONTINUOUS
 62
     3
 10
70.2862577672365632
 20
264.0000000000003979
 30
0.0
 40
1.9999999999996581
210
0.0
220
-0.0000000000000002
230
-1.0
 50
89.9999999999983658
 51
143.0000000000067075
  0
LINE
  5
1B8D1
  8
0
  6
CONTINUOUS
 62
     3
 10
-60.9999999999998792
 20
255.0000000000001137
 30
-0.0000000000000566
 11
-68.6889867471421667
 21
265.2036300463039993
 31
-0.0000000000000589
210
0.0
220
1.0
230
-0.0000000000000002
  0
LINE
  5
1B8D2
  8
0
  6
CONTINUOUS
 62
     3
 10
61.0000000000001208
 20
255.0000000000001137
 30
-0.0000000000000566
 11
68.6889867471423656
 21
265.2036300463039993
 31
-0.0000000000000589
210
0.0
220
1.0
230
-0.0000000000000002
  0
LINE
  5
1B8D3
  8
0
  6
CONTINUOUS
 62
     3
 10
-55.6090464708851187
 20
-50.0000000000001776
 30
0.0000000000000111
 11
55.6090464708853389
 21
-50.0000000000001776
 31
0.0000000000000111
210
0.0
220
1.0
230
-0.0000000000000002
  0
LINE
  5
1B8D4
  8
0
  6
CONTINUOUS
 62
     3
 10
-57.7499999999998792
 20
-66.00000000000027
 30
0.0000000000000147
 11
57.7500000000001066
 21
-66.00000000000027
 31
0.0000000000000147
210
0.0
220
1.0
230
-0.0000000000000002
  0
LINE
  5
1B8D5
  8
0
  6
CONTINUOUS
 62
     3
 10
-59.4999999999998792
 20
-67.5000000000003268
 30
0.000000000000015
 11
59.5000000000001066
 21
-67.5000000000003268
 31
0.000000000000015
210
0.0
220
1.0
230
-0.0000000000000002
  0
LINE
  5
1B8D6
  8
0
  6
CONTINUOUS
 62
     3
 10
-59.4999999999998792
 20
-68.5000000000002842
 30
0.0000000000000152
 11
59.5000000000001066
 21
-68.5000000000002842
 31
0.0000000000000152
210
0.0
220
1.0
230
-0.0000000000000002
  0
LINE
  5
1B8D7
  8
0
  6
CONTINUOUS
 62
     3
 10
-57.117144432479563
 20
-70.8828555675206502
 30
0.0000000000000157
 11
57.1171444324797832
 21
-70.8828555675206502
 31
0.0000000000000157
210
0.0
220
1.0
230
-0.0000000000000002
  0
LINE
  5
1B8D8
  8
0
  6
CONTINUOUS
 62
     3
 10
-59.9999999999998934
 20
-75.0000000000002416
 30
0.0000000000000167
 11
60.0000000000001066
 21
-75.0000000000002416
 31
0.0000000000000167
210
0.0
220
1.0
230
-0.0000000000000002
  0
LINE
  5
1B8D9
  8
0
  6
CONTINUOUS
 62
     3
 10
-49.4999999999998792
 20
-77.00000000000027
 30
0.0000000000000171
 11
49.5000000000001066
 21
-77.00000000000027
 31
0.0000000000000171
210
0.0
220
1.0
230
-0.0000000000000002
  0
LINE
  5
1B8DA
  8
0
  6
CONTINUOUS
 62
     3
 10
-59.4999999999998792
 20
-57.0000000000002984
 30
0.0000000000000127
 11
59.5000000000001066
 21
-57.0000000000002984
 31
0.0000000000000127
210
0.0
220
1.0
230
-0.0000000000000002
  0
ARC
  5
1B8DB
  8
0
  6
CONTINUOUS
 62
     3
 10
55.6394515204000868
 20
-57.8000000000003311
 30
0.0
 40
0.8000000000000042
210
0.0
220
-0.0000000000000002
230
-1.0
 50
89.9999999999959357
 51
199.8552143693231073
  0
ARC
  5
1B8DC
  8
0
  6
CONTINUOUS
 62
     3
 10
-55.6394515204003071
 20
-57.8000000000003311
 30
0.0
 40
0.8000000000000133
210
0.0
220
-0.0000000000000002
230
-1.0
 50
340.144785630676779
 51
90.0000000000040643
  0
LINE
  5
1B8DD
  8
0
  6
CONTINUOUS
 62
     3
 10
54.8870084006469767
 20
-58.071715571022402
 30
0.0000000000000129
 11
57.7500000000001421
 21
-66.0000000000002558
 31
0.0000000000000147
210
0.0
220
1.0
230
-0.0000000000000002
  0
LINE
  5
1B8DE
  8
0
  6
CONTINUOUS
 62
     3
 10
-54.8870084006467494
 20
-58.071715571022402
 30
0.0000000000000129
 11
-57.7499999999999076
 21
-66.0000000000002558
 31
0.0000000000000147
210
0.0
220
1.0
230
-0.0000000000000002
  0
LINE
  5
1B8DF
  8
0
  6
CONTINUOUS
 62
     3
 10
57.7500000000001066
 20
-66.00000000000027
 30
0.0000000000000147
 11
59.5000000000001066
 21
-67.5000000000003268
 31
0.000000000000015
210
0.0
220
1.0
230
-0.0000000000000002
  0
LINE
  5
1B8E0
  8
0
  6
CONTINUOUS
 62
     3
 10
-57.7499999999998792
 20
-66.00000000000027
 30
0.0000000000000147
 11
-59.4999999999998792
 21
-67.5000000000003268
 31
0.000000000000015
210
0.0
220
1.0
230
-0.0000000000000002
  0
LINE
  5
1B8E1
  8
0
  6
CONTINUOUS
 62
     3
 10
59.5000000000001066
 20
-67.5000000000003268
 30
0.000000000000015
 11
59.5000000000001066
 21
-68.5000000000002842
 31
0.0000000000000152
210
0.0
220
1.0
230
-0.0000000000000002
  0
LINE
  5
1B8E2
  8
0
  6
CONTINUOUS
 62
     3
 10
-59.4999999999998792
 20
-67.5000000000003268
 30
0.000000000000015
 11
-59.4999999999998792
 21
-68.5000000000002842
 31
0.0000000000000152
210
0.0
220
1.0
230
-0.0000000000000002
  0
LINE
  5
1B8E3
  8
0
  6
CONTINUOUS
 62
     3
 10
-57.117144432479563
 20
-70.8828555675206502
 30
0.0000000000000157
 11
-59.4999999999998792
 21
-68.5000000000002842
 31
0.0000000000000152
210
0.0
220
1.0
230
-0.0000000000000002
  0
LINE
  5
1B8E4
  8
0
  6
CONTINUOUS
 62
     3
 10
57.1171444324797832
 20
-70.8828555675206502
 30
0.0000000000000157
 11
59.5000000000000995
 21
-68.5000000000002842
 31
0.0000000000000152
210
0.0
220
1.0
230
-0.0000000000000002
  0
LINE
  5
1B8E5
  8
0
  6
CONTINUOUS
 62
     3
 10
57.1171444324797832
 20
-70.8828555675206502
 30
0.0000000000000157
 11
60.0000000000000995
 21
-75.0000000000002416
 31
0.0000000000000167
210
0.0
220
1.0
230
-0.0000000000000002
  0
LINE
  5
1B8E6
  8
0
  6
CONTINUOUS
 62
     3
 10
-57.117144432479563
 20
-70.8828555675206502
 30
0.0000000000000157
 11
-59.9999999999998792
 21
-75.0000000000002416
 31
0.0000000000000167
210
0.0
220
1.0
230
-0.0000000000000002
  0
ARC
  5
1B8E7
  8
0
  6
CONTINUOUS
 62
     3
 10
49.4999999999998508
 20
-72.000000000000199
 30
0.0
 40
5.0000000000000853
210
0.0
220
-0.0000000000000002
230
-1.0
 50
270.0
 51
323.1301023541556106
  0
ARC
  5
1B8E8
  8
0
  6
CONTINUOUS
 62
     3
 10
-49.5000000000000711
 20
-72.000000000000199
 30
0.0
 40
5.000000000000087
210
0.0
220
-0.0000000000000002
230
-1.0
 50
216.8698976458439063
 51
269.9999999999994884
  0
ARC
  5
1B8E9
  8
0
  6
CONTINUOUS
 62
     3
 10
55.6090464708851187
 20
-51.5000000000001279
 30
0.0
 40
1.4999999999999469
210
0.0
220
-0.0000000000000002
230
-1.0
 50
25.8941133784704611
 51
90.0
  0
ARC
  5
1B8EA
  8
0
  6
CONTINUOUS
 62
     3
 10
-55.6090464708853389
 20
-51.5000000000001279
 30
0.0
 40
1.49999999999995
210
0.0
220
-0.0000000000000002
230
-1.0
 50
90.0
 51
154.1058866215294927
  0
LINE
  5
1B8EB
  8
0
  6
CONTINUOUS
 62
     3
 10
56.9584504483276532
 20
-50.8449359530072726
 30
0.0000000000000113
 11
59.0984106065129566
 21
-55.2531625413523813
 31
0.0000000000000123
210
0.0
220
1.0
230
-0.0000000000000002
  0
LINE
  5
1B8EC
  8
0
  6
CONTINUOUS
 62
     3
 10
-56.9584504483274188
 20
-50.8449359530072726
 30
0.0000000000000113
 11
-59.0984106065127435
 21
-55.2531625413523813
 31
0.0000000000000123
210
0.0
220
1.0
230
-0.0000000000000002
  0
ARC
  5
1B8ED
  8
0
  6
CONTINUOUS
 62
     3
 10
55.4999999999988489
 20
-57.0000000000006111
 30
0.0
 40
4.0000000000010374
210
0.0
220
-0.0000000000000002
230
-1.0
 50
0.0000000000044782
 51
25.8941133784711894
  0
ARC
  5
1B8EE
  8
0
  6
CONTINUOUS
 62
     3
 10
-55.4999999999990834
 20
-57.0000000000006111
 30
0.0
 40
4.0000000000010374
210
0.0
220
-0.0000000000000002
230
-1.0
 50
154.1058866215288106
 51
179.9999999999955094
  0
LINE
  5
1B8EF
  8
0
  6
VERDECKT
 62
     1
 10
-49.2074442146849194
 20
0.1492555785312107
 30
0.0
 11
49.2074442146851325
 21
0.1492555785312107
 31
0.0
210
0.0
220
1.0
230
-0.0000000000000002
  0
ARC
  5
1B8F0
  8
0
  6
VERDECKT
 62
     1
 10
48.9999999999987992
 20
8.1246890528020632
 30
0.0
 40
1.0000000000010869
210
0.0
220
-0.0000000000000002
230
-1.0
 50
354.2894068625008117
 51
359.9999999999952252
  0
ARC
  5
1B8F1
  8
0
  6
VERDECKT
 62
     1
 10
-48.9999999999990195
 20
8.1246890528020685
 30
0.0
 40
1.0000000000010869
210
0.0
220
-0.0000000000000002
230
-1.0
 50
180.0000000000046896
 51
185.710593137499103
  0
LINE
  5
1B8F2
  8
0
  6
VERDECKT
 62
     1
 10
-49.2074442146849123
 20
0.149255578531208
 30
0.0
 11
-49.995037190209878
 21
8.0251853337809642
 31
-0.0000000000000018
210
0.0
220
1.0
230
-0.0000000000000002
  0
LINE
  5
1B8F3
  8
0
  6
VERDECKT
 62
     1
 10
49.2074442146851325
 20
0.1492555785312111
 30
0.0
 11
49.9950371902100983
 21
8.0251853337809695
 31
-0.0000000000000018
210
0.0
220
1.0
230
-0.0000000000000002
  0
LINE
  5
1B8F4
  8
0
  6
VERDECKT
 62
     1
 10
50.0000000000000995
 20
239.999999999999801
 30
-0.0000000000000533
 11
50.0000000000001066
 21
8.1246890528019851
 31
-0.0000000000000018
210
0.0
220
1.0
230
-0.0000000000000002
  0
LINE
  5
1B8F5
  8
0
  6
VERDECKT
 62
     1
 10
-49.9999999999999005
 20
239.999999999999801
 30
-0.0000000000000533
 11
-49.9999999999998934
 21
8.1246890528019851
 31
-0.0000000000000018
210
0.0
220
1.0
230
-0.0000000000000002
  0
LINE
  5
1B8F6
  8
0
  6
VERDECKT
 62
     1
 10
49.2074442146851325
 20
0.149255578531216
 30
0.0
 11
50.7000000000001094
 21
-0.0000000000002826
 31
0.0
210
0.0
220
1.0
230
-0.0000000000000002
  0
LINE
  5
1B8F7
  8
0
  6
VERDECKT
 62
     1
 10
-49.2074442146849123
 20
0.1492555785312098
 30
0.0
 11
-50.6999999999998892
 21
-0.000000000000289
 31
0.0
210
0.0
220
1.0
230
-0.0000000000000002
  0
ARC
  5
1B8F8
  8
0
  6
VERDECKT
 62
     1
 10
54.0000000000000213
 20
259.9999999999997726
 30
0.0
 40
6.4999999999998632
210
0.0
220
-0.0000000000000002
230
-1.0
 50
329.9796896468808995
 51
0.0000000000005089
  0
ARC
  5
1B8F9
  8
0
  6
VERDECKT
 62
     1
 10
-54.0000000000002274
 20
259.9999999999997726
 30
0.0
 40
6.4999999999998721
210
0.0
220
-0.0000000000000002
230
-1.0
 50
179.9999999999994884
 51
210.0203103531189868
  0
LINE
  5
1B8FA
  8
0
  6
VERDECKT
 62
     1
 10
-58.6179753299170585
 20
255.0000000000001137
 30
-0.0000000000000566
 11
-59.6280127027123825
 21
256.748004763516974
 31
-0.000000000000057
210
0.0
220
1.0
230
-0.0000000000000002
  0
LINE
  5
1B8FB
  8
0
  6
VERDECKT
 62
     1
 10
58.617975329917293
 20
255.0000000000001137
 30
-0.0000000000000566
 11
59.6280127027126099
 21
256.748004763516974
 31
-0.000000000000057
210
0.0
220
1.0
230
-0.0000000000000002
  0
ARC
  5
1B8FC
  8
0
  6
VERDECKT
 62
     1
 10
61.4999999999998082
 20
239.9999999999998863
 30
0.0
 40
11.4999999999999201
210
0.0
220
-0.0000000000000002
230
-1.0
 50
149.9796896468807859
 51
180.0000000000001137
  0
ARC
  5
1B8FD
  8
0
  6
VERDECKT
 62
     1
 10
-61.5000000000000426
 20
239.9999999999998863
 30
0.0
 40
11.4999999999999307
210
0.0
220
-0.0000000000000002
230
-1.0
 50
359.9999999999997726
 51
30.0203103531191502
  0
LINE
  5
1B8FE
  8
0
  6
VERDECKT
 62
     1
 10
-51.5427467567393407
 20
245.7535300337771105
 30
-0.0000000000000546
 11
-58.329240540547957
 21
257.4984652027052903
 31
-0.0000000000000572
210
0.0
220
1.0
230
-0.0000000000000002
  0
LINE
  5
1B8FF
  8
0
  6
VERDECKT
 62
     1
 10
51.542746756739561
 20
245.7535300337771105
 30
-0.0000000000000546
 11
58.3292405405481915
 21
257.4984652027052903
 31
-0.0000000000000572
210
0.0
220
1.0
230
-0.0000000000000002
  0
ARC
  5
1B900
  8
0
  6
VERDECKT
 62
     1
 10
54.0
 20
259.9999999999997726
 30
0.0
 40
4.9999999999998792
210
0.0
220
-0.0000000000000002
230
-1.0
 50
329.9796896468815248
 51
0.0000000000006616
  0
ARC
  5
1B901
  8
0
  6
VERDECKT
 62
     1
 10
-53.9999999999998579
 20
259.9999999999998863
 30
0.0
 40
5.0000000000002478
210
0.0
220
-0.0000000000000002
230
-1.0
 50
180.0000000000005969
 51
210.0203103531183899
  0
LINE
  5
1B902
  8
0
  6
VERDECKT
 62
     1
 10
59.0000000000001066
 20
269.9999999999997726
 30
-0.00000000000006
 11
59.0000000000001066
 21
259.9999999999997726
 31
-0.0000000000000577
210
0.0
220
1.0
230
-0.0000000000000002
  0
LINE
  5
1B903
  8
0
  6
VERDECKT
 62
     1
 10
-58.9999999999998934
 20
269.9999999999997726
 30
-0.00000000000006
 11
-58.9999999999998934
 21
259.9999999999997726
 31
-0.0000000000000577
210
0.0
220
1.0
230
-0.0000000000000002
  0
LINE
  5
1B904
  8
0
  6
VERDECKT
 62
     1
 10
60.5000000000001066
 20
268.0000000000002274
 30
-0.0000000000000595
 11
60.5000000000001066
 21
259.9999999999997726
 31
-0.0000000000000577
210
0.0
220
1.0
230
-0.0000000000000002
  0
LINE
  5
1B905
  8
0
  6
VERDECKT
 62
     1
 10
-60.4999999999999005
 20
268.0000000000001137
 30
-0.0000000000000595
 11
-60.4999999999999005
 21
259.9999999999997726
 31
-0.0000000000000577
210
0.0
220
1.0
230
-0.0000000000000002
  0
LINE
  5
1B906
  8
0
  6
VERDECKT
 62
     1
 10
59.4027289799051914
 20
256.203630046304113
 30
-0.0000000000000569
 11
-59.4027289799049569
 21
256.203630046304113
 31
-0.0000000000000569
210
0.0
220
1.0
230
-0.0000000000000002
  0
LINE
  5
1B907
  8
0
  6
VERDECKT
 62
     1
 10
-59.4027289799049569
 20
256.203630046304113
 30
-0.0000000000000569
 11
-67.0917157270473581
 21
266.4072600926079986
 31
-0.0000000000000592
210
0.0
220
1.0
230
-0.0000000000000002
  0
LINE
  5
1B908
  8
0
  6
VERDECKT
 62
     1
 10
59.4027289799051772
 20
256.203630046304113
 30
-0.0000000000000569
 11
67.0917157270476139
 21
266.4072600926079986
 31
-0.0000000000000592
210
0.0
220
1.0
230
-0.0000000000000002
  0
ARC
  5
1B909
  8
0
  6
VERDECKT
 62
     1
 10
-70.28625776723689
 20
264.0000000000001137
 30
0.0
 40
3.9999999999999321
210
0.0
220
-0.0000000000000002
230
-1.0
 50
36.999999999996227
 51
89.9999999999995879
  0
ARC
  5
1B90A
  8
0
  6
VERDECKT
 62
     1
 10
70.2862577672366626
 20
264.0000000000001137
 30
0.0
 40
3.9999999999999432
210
0.0
220
-0.0000000000000002
230
-1.0
 50
90.0000000000003979
 51
143.0000000000038085
  0
LINE
  5
1B90B
  8
0
  6
VERDECKT
 62
     1
 10
59.4027289799051914
 20
256.203630046304113
 30
-0.0000000000000569
 11
61.0000000000001208
 21
255.0000000000001137
 31
-0.0000000000000566
210
0.0
220
1.0
230
-0.0000000000000002
  0
LINE
  5
1B90C
  8
0
  6
VERDECKT
 62
     1
 10
-59.4027289799049569
 20
256.203630046304113
 30
-0.0000000000000569
 11
-60.9999999999998792
 21
255.0000000000001137
 31
-0.0000000000000566
210
0.0
220
1.0
230
-0.0000000000000002
  0
LINE
  5
1B90D
  8
0
  6
VERDECKT
 62
     1
 10
93.0000000000001137
 20
349.9999999999997726
 30
-0.0000000000000777
 11
95.0000000000000853
 21
349.9999999999997726
 31
-0.0000000000000777
210
0.0
220
1.0
230
-0.0000000000000002
  0
LINE
  5
1B90E
  8
0
  6
VERDECKT
 62
     1
 10
93.0000000000000853
 20
341.9999999999997726
 30
-0.0000000000000759
 11
95.0000000000000853
 21
341.9999999999997726
 31
-0.0000000000000759
210
0.0
220
1.0
230
-0.0000000000000002
  0
LINE
  5
1B90F
  8
0
  6
VERDECKT
 62
     1
 10
-51.7999999999998408
 20
-59.9132265073574928
 30
0.0000000000000133
 11
51.8000000000001819
 21
-59.9132265073574928
 31
0.0000000000000133
210
0.0
220
1.0
230
-0.0000000000000002
  0
LINE
  5
1B910
  8
0
  6
VERDECKT
 62
     1
 10
47.5000000000001634
 20
-75.4439840251520906
 30
0.0000000000000168
 11
-47.4999999999998295
 21
-75.4439840251520906
 31
0.0000000000000168
210
0.0
220
1.0
230
-0.0000000000000002
  0
LINE
  5
1B911
  8
0
  6
VERDECKT
 62
     1
 10
-56.5995849235804869
 20
-73.0000000000002132
 30
0.0000000000000162
 11
56.5995849235807214
 21
-73.0000000000002132
 31
0.0000000000000162
210
0.0
220
1.0
230
-0.0000000000000002
  0
ARC
  5
1B912
  8
0
  6
VERDECKT
 62
     1
 10
55.6090464708850618
 20
-51.49322650735742
 30
0.0
 40
1.499999999999968
210
0.0
220
-0.0000000000000002
230
-1.0
 50
95.4470566892314451
 51
165.0000000000017906
  0
ARC
  5
1B913
  8
0
  6
VERDECKT
 62
     1
 10
-55.6090464708854029
 20
-51.49322650735742
 30
0.0
 40
1.499999999999968
210
0.0
220
-0.0000000000000002
230
-1.0
 50
14.9999999999981704
 51
84.5529433107685549
  0
LINE
  5
1B914
  8
0
  6
VERDECKT
 62
     1
 10
-51.7999999999998266
 20
-59.9132265073574928
 30
0.0000000000000133
 11
-54.1601577314514699
 21
-51.1049979397036935
 31
0.0000000000000113
210
0.0
220
1.0
230
-0.0000000000000002
  0
LINE
  5
1B915
  8
0
  6
VERDECKT
 62
     1
 10
51.8000000000001677
 20
-59.9132265073574928
 30
0.0000000000000133
 11
54.1601577314518181
 21
-51.1049979397036935
 31
0.0000000000000113
210
0.0
220
1.0
230
-0.0000000000000002
  0
LINE
  5
1B916
  8
0
  6
VERDECKT
 62
     1
 10
51.8000000000001819
 20
-59.9132265073574928
 30
0.0000000000000133
 11
51.8000000000001819
 21
-70.4932265073574769
 31
0.0000000000000157
210
0.0
220
1.0
230
-0.0000000000000002
  0
LINE
  5
1B917
  8
0
  6
VERDECKT
 62
     1
 10
-51.7999999999998408
 20
-59.9132265073574928
 30
0.0000000000000133
 11
-51.7999999999998408
 21
-70.4932265073574769
 31
0.0000000000000157
210
0.0
220
1.0
230
-0.0000000000000002
  0
ARC
  5
1B918
  8
0
  6
VERDECKT
 62
     1
 10
46.7999999999997982
 20
-70.49322650735742
 30
0.0
 40
5.0000000000000488
210
0.0
220
-0.0000000000000002
230
-1.0
 50
278.0478462473117816
 51
359.9999999999993179
  0
ARC
  5
1B919
  8
0
  6
VERDECKT
 62
     1
 10
-46.8000000000001322
 20
-70.49322650735742
 30
0.0
 40
5.0000000000000417
210
0.0
220
-0.0000000000000002
230
-1.0
 50
180.0000000000005969
 51
261.9521537526882184
  0
LINE
  5
1B91A
  8
0
  6
VERDECKT
 62
     1
 10
-47.4999999999998295
 20
-77.00000000000027
 30
0.0000000000000171
 11
-47.4999999999998295
 21
-75.4439840251520906
 31
0.0000000000000168
210
0.0
220
1.0
230
-0.0000000000000002
  0
LINE
  5
1B91B
  8
0
  6
VERDECKT
 62
     1
 10
47.5000000000001634
 20
-77.00000000000027
 30
0.0000000000000171
 11
47.5000000000001634
 21
-75.4439840251520906
 31
0.0000000000000168
210
0.0
220
1.0
230
-0.0000000000000002
  0
LINE
  5
1B91C
  8
0
  6
VERDECKT
 62
     1
 10
56.5995849235806929
 20
-73.0000000000002132
 30
0.0000000000000162
 11
58.0000000000000782
 21
-75.0000000000002558
 31
0.0000000000000167
210
0.0
220
1.0
230
-0.0000000000000002
  0
LINE
  5
1B91D
  8
0
  6
VERDECKT
 62
     1
 10
-56.5995849235804727
 20
-73.0000000000002132
 30
0.0000000000000162
 11
-57.9999999999998579
 21
-75.0000000000002558
 31
0.0000000000000167
210
0.0
220
1.0
230
-0.0000000000000002
  0
ARC
  5
1B91E
  8
0
  6
VERDECKT
 62
     1
 10
49.4999999999999787
 20
-72.0000000000003126
 30
0.0
 40
4.9999999999999121
210
0.0
220
-0.0000000000000002
230
-1.0
 50
323.130102354156179
 51
348.4630409671851226
  0
ARC
  5
1B91F
  8
0
  6
VERDECKT
 62
     1
 10
-49.500000000000199
 20
-72.0000000000003126
 30
0.0
 40
4.9999999999999103
210
0.0
220
-0.0000000000000002
230
-1.0
 50
191.5369590328147922
 51
216.8698976458437926
  0
ENDBLK
  5
1B921
  8
0
  0
BLOCK
  8
0
  2
A$CA04772D4
 70
     0
 10
0.0
 20
0.0
 30
0.0
  3
A$CA04772D4
  1

  0
LINE
  5
1B925
  8
0
  6
CONTINUOUS
 62
     3
 10
-50.7000000000000171
 20
-0.0000000000002986
 30
0.0
 11
50.7000000000000171
 21
-0.0000000000002699
 31
0.0
210
-0.0000000000000002
220
1.0
230
-0.0000000000000002
  0
LINE
  5
1B926
  8
0
  6
CONTINUOUS
 62
     3
 10
-60.5000000000000711
 20
269.9999999999998863
 30
-0.00000000000006
 11
60.4999999999999503
 21
269.9999999999998863
 31
-0.00000000000006
210
-0.0000000000000002
220
1.0
230
-0.0000000000000002
  0
ARC
  5
1B927
  8
0
  6
CONTINUOUS
 62
     3
 10
50.500000000002359
 20
8.0498756211204352
 30
0.0
 40
0.9999999999976482
210
0.0
220
-0.0000000000000002
230
-1.0
 50
354.2894068624951274
 51
0.0000000000074298
  0
ARC
  5
1B928
  8
0
  6
CONTINUOUS
 62
     3
 10
-50.4999999999965681
 20
8.0498756211207514
 30
0.0
 40
1.000000000003439
210
0.0
220
-0.0000000000000002
230
-1.0
 50
180.000000000008896
 51
185.7105931374883028
  0
LINE
  5
1B929
  8
0
  6
CONTINUOUS
 62
     3
 10
51.4999999999999503
 20
239.9999999999998863
 30
-0.0000000000000533
 11
51.5000000000000213
 21
8.0498756211205915
 31
-0.0000000000000018
210
-0.0000000000000002
220
1.0
230
-0.0000000000000002
  0
LINE
  5
1B92A
  8
0
  6
CONTINUOUS
 62
     3
 10
-51.5000000000000782
 20
239.9999999999998863
 30
-0.0000000000000533
 11
-51.5000000000000213
 21
8.0498756211205702
 31
-0.0000000000000018
210
-0.0000000000000002
220
1.0
230
-0.0000000000000002
  0
LINE
  5
1B92B
  8
0
  6
CONTINUOUS
 62
     3
 10
-50.7000000000000171
 20
-0.0000000000002981
 30
0.0
 11
-51.495037190210013
 21
7.9503719020995796
 31
-0.0000000000000018
210
-0.0000000000000002
220
1.0
230
-0.0000000000000002
  0
LINE
  5
1B92C
  8
0
  6
CONTINUOUS
 62
     3
 10
50.7000000000000171
 20
-0.0000000000002694
 30
0.0
 11
51.495037190210013
 21
7.9503719020996071
 31
-0.0000000000000018
210
-0.0000000000000002
220
1.0
230
-0.0000000000000002
  0
LINE
  5
1B92D
  8
0
  6
CONTINUOUS
 62
     3
 10
-52.8415189189039509
 20
245.0030695945887942
 30
-0.0000000000000544
 11
-58.6179753299172432
 21
255.0000000000001137
 31
-0.0000000000000566
210
-0.0000000000000002
220
1.0
230
-0.0000000000000002
  0
LINE
  5
1B92E
  8
0
  6
CONTINUOUS
 62
     3
 10
52.8415189189038514
 20
245.0030695945887942
 30
-0.0000000000000544
 11
58.6179753299171296
 21
255.0000000000001137
 31
-0.0000000000000566
210
-0.0000000000000002
220
1.0
230
-0.0000000000000002
  0
ARC
  5
1B92F
  8
0
  6
CONTINUOUS
 62
     3
 10
61.50000000000027
 20
239.999999999999801
 30
0.0
 40
10.0000000000002096
210
0.0
220
-0.0000000000000002
230
-1.0
 50
149.9796896468810132
 51
179.9999999999996021
  0
ARC
  5
1B930
  8
0
  6
CONTINUOUS
 62
     3
 10
-61.4999999999999574
 20
239.9999999999998863
 30
0.0
 40
10.0
210
0.0
220
-0.0000000000000002
230
-1.0
 50
0.0
 51
30.020310353119239
  0
LINE
  5
1B931
  8
0
  6
CONTINUOUS
 62
     3
 10
60.4999999999999574
 20
269.9999999999998863
 30
-0.00000000000006
 11
60.4999999999999574
 21
268.0000000000001137
 31
-0.0000000000000595
210
-0.0000000000000002
220
1.0
230
-0.0000000000000002
  0
LINE
  5
1B932
  8
0
  6
CONTINUOUS
 62
     3
 10
-60.5000000000000782
 20
269.9999999999998863
 30
-0.00000000000006
 11
-60.5000000000000782
 21
268.0000000000001137
 31
-0.0000000000000595
210
-0.0000000000000002
220
1.0
230
-0.0000000000000002
  0
LINE
  5
1B933
  8
0
  6
CONTINUOUS
 62
     3
 10
-122.5000000000000995
 20
268.0000000000001137
 30
-0.0000000000000595
 11
-122.5000000000000995
 21
265.9999999999998863
 31
-0.0000000000000591
210
-0.0000000000000002
220
1.0
230
-0.0000000000000002
  0
LINE
  5
1B934
  8
0
  6
CONTINUOUS
 62
     3
 10
-122.5000000000000995
 20
265.9999999999998863
 30
-0.0000000000000591
 11
122.499999999999801
 21
265.9999999999998863
 31
-0.0000000000000591
210
-0.0000000000000002
220
1.0
230
-0.0000000000000002
  0
LINE
  5
1B935
  8
0
  6
CONTINUOUS
 62
     3
 10
122.499999999999801
 20
268.0000000000002274
 30
-0.0000000000000595
 11
122.499999999999801
 21
265.9999999999997726
 31
-0.0000000000000591
210
-0.0000000000000002
220
1.0
230
-0.0000000000000002
  0
LINE
  5
1B936
  8
0
  6
CONTINUOUS
 62
     3
 10
-122.5000000000000995
 20
268.0000000000001137
 30
-0.0000000000000595
 11
122.499999999999801
 21
268.0000000000001137
 31
-0.0000000000000595
210
-0.0000000000000002
220
1.0
230
-0.0000000000000002
  0
LINE
  5
1B937
  8
0
  6
CONTINUOUS
 62
     3
 10
60.9999999999998366
 20
255.0000000000001137
 30
-0.0000000000000566
 11
-61.0000000000001918
 21
255.0000000000001137
 31
-0.0000000000000566
210
-0.0000000000000002
220
1.0
230
-0.0000000000000002
  0
LINE
  5
1B938
  8
0
  6
CONTINUOUS
 62
     3
 10
122.499999999999801
 20
269.2500000000002842
 30
-0.0000000000000598
 11
122.499999999999801
 21
345.9999999999997726
 31
-0.0000000000000768
210
-0.0000000000000002
220
1.0
230
-0.0000000000000002
  0
LINE
  5
1B939
  8
0
  6
CONTINUOUS
 62
     3
 10
122.499999999999801
 20
268.0000000000002274
 30
-0.0000000000000595
 11
122.499999999999801
 21
269.2500000000002274
 31
-0.0000000000000598
210
-0.0000000000000002
220
1.0
230
-0.0000000000000002
  0
LINE
  5
1B93A
  8
0
  6
CONTINUOUS
 62
     3
 10
-122.500000000000199
 20
269.2500000000001137
 30
-0.0000000000000598
 11
-122.500000000000199
 21
268.0000000000001137
 31
-0.0000000000000595
210
-0.0000000000000002
220
1.0
230
-0.0000000000000002
  0
CIRCLE
  5
1B93B
  8
0
  6
CONTINUOUS
 62
     3
 10
-102.499999999999801
 20
345.9999999999998863
 30
0.0
 40
4.0
210
0.0
220
-0.0000000000000002
230
-1.0
  0
CIRCLE
  5
1B93C
  8
0
  6
CONTINUOUS
 62
     3
 10
102.5000000000002984
 20
345.9999999999998863
 30
0.0
 40
4.0
210
0.0
220
-0.0000000000000002
230
-1.0
  0
ARC
  5
1B93D
  8
0
  6
CONTINUOUS
 62
     3
 10
102.500000000000199
 20
345.9999999999997726
 30
0.0
 40
20.0
210
0.0
220
-0.0000000000000002
230
-1.0
 50
0.0
 51
90.0000000000000284
  0
LINE
  5
1B93E
  8
0
  6
CONTINUOUS
 62
     3
 10
-122.500000000000199
 20
345.9999999999997726
 30
-0.0000000000000768
 11
-122.500000000000199
 21
269.2500000000001137
 31
-0.0000000000000598
210
-0.0000000000000002
220
1.0
230
-0.0000000000000002
  0
ARC
  5
1B93F
  8
0
  6
CONTINUOUS
 62
     3
 10
-102.499999999999801
 20
345.9999999999997726
 30
0.0
 40
20.0
210
0.0
220
-0.0000000000000002
230
-1.0
 50
89.9999999999999858
 51
180.0
  0
LINE
  5
1B940
  8
0
  6
CONTINUOUS
 62
     3
 10
102.499999999999801
 20
365.9999999999997726
 30
-0.0000000000000813
 11
-102.500000000000199
 21
365.9999999999997726
 31
-0.0000000000000813
210
-0.0000000000000002
220
1.0
230
-0.0000000000000002
  0
ARC
  5
1B941
  8
0
  6
CONTINUOUS
 62
     3
 10
-70.2862577672365489
 20
264.0000000000003979
 30
0.0
 40
1.999999999999722
210
0.0
220
-0.0000000000000002
230
-1.0
 50
36.9999999999943583
 51
90.0000000000020179
  0
ARC
  5
1B942
  8
0
  6
CONTINUOUS
 62
     3
 10
70.2862577672368474
 20
264.0000000000005116
 30
0.0
 40
1.9999999999996021
210
0.0
220
-0.0000000000000002
230
-1.0
 50
89.9999999999983373
 51
143.0000000000075033
  0
LINE
  5
1B943
  8
0
  6
CONTINUOUS
 62
     3
 10
-61.0000000000001918
 20
255.0000000000001137
 30
-0.0000000000000566
 11
-68.6889867471424651
 21
265.203630046304113
 31
-0.0000000000000589
210
-0.0000000000000002
220
1.0
230
-0.0000000000000002
  0
LINE
  5
1B944
  8
0
  6
CONTINUOUS
 62
     3
 10
60.9999999999998366
 20
255.0000000000001137
 30
-0.0000000000000566
 11
68.688986747142124
 21
265.203630046304113
 31
-0.0000000000000589
210
-0.0000000000000002
220
1.0
230
-0.0000000000000002
  0
LINE
  5
1B945
  8
0
  6
CONTINUOUS
 62
     3
 10
-55.6090464708852679
 20
-50.0000000000002132
 30
0.0000000000000111
 11
-0.0000000000000031
 21
-50.0000000000001918
 31
0.0000000000000111
210
-0.0000000000000002
220
1.0
230
-0.0000000000000002
  0
LINE
  5
1B946
  8
0
  6
CONTINUOUS
 62
     3
 10
0.0000000000000125
 20
-50.0000000000001918
 30
0.0000000000000111
 11
55.6090464708852465
 21
-50.0000000000001705
 31
0.0000000000000111
210
-0.0000000000000002
220
1.0
230
-0.0000000000000002
  0
LINE
  5
1B947
  8
0
  6
CONTINUOUS
 62
     3
 10
-57.7499999999999787
 20
-66.0000000000002842
 30
0.0000000000000147
 11
0.0000000000000004
 21
-66.0000000000002842
 31
0.0000000000000147
210
-0.0000000000000002
220
1.0
230
-0.0000000000000002
  0
LINE
  5
1B948
  8
0
  6
CONTINUOUS
 62
     3
 10
0.0000000000000176
 20
-66.0000000000002842
 30
0.0000000000000147
 11
57.7500000000000213
 21
-66.00000000000027
 31
0.0000000000000147
210
-0.0000000000000002
220
1.0
230
-0.0000000000000002
  0
LINE
  5
1B949
  8
0
  6
CONTINUOUS
 62
     3
 10
-59.4999999999999574
 20
-67.5000000000003553
 30
0.000000000000015
 11
0.0000000000000008
 21
-67.5000000000003411
 31
0.000000000000015
210
-0.0000000000000002
220
1.0
230
-0.0000000000000002
  0
LINE
  5
1B94A
  8
0
  6
CONTINUOUS
 62
     3
 10
0.0000000000000109
 20
-67.5000000000003411
 30
0.000000000000015
 11
59.5000000000000071
 21
-67.5000000000003268
 31
0.000000000000015
210
-0.0000000000000002
220
1.0
230
-0.0000000000000002
  0
LINE
  5
1B94B
  8
0
  6
CONTINUOUS
 62
     3
 10
-59.4999999999999574
 20
-68.5000000000003268
 30
0.0000000000000152
 11
0.000000000000001
 21
-68.5000000000003126
 31
0.0000000000000152
210
-0.0000000000000002
220
1.0
230
-0.0000000000000002
  0
LINE
  5
1B94C
  8
0
  6
CONTINUOUS
 62
     3
 10
0.0000000000000112
 20
-68.5000000000003126
 30
0.0000000000000152
 11
59.5000000000000071
 21
-68.5000000000002842
 31
0.0000000000000152
210
-0.0000000000000002
220
1.0
230
-0.0000000000000002
  0
LINE
  5
1B94D
  8
0
  6
CONTINUOUS
 62
     3
 10
-57.1171444324796624
 20
-70.8828555675206786
 30
0.0000000000000157
 11
0.0000000000000015
 21
-70.8828555675206644
 31
0.0000000000000157
210
-0.0000000000000002
220
1.0
230
-0.0000000000000002
  0
LINE
  5
1B94E
  8
0
  6
CONTINUOUS
 62
     3
 10
0.0000000000000103
 20
-70.8828555675206644
 30
0.0000000000000157
 11
57.1171444324796909
 21
-70.8828555675206502
 31
0.0000000000000157
210
-0.0000000000000002
220
1.0
230
-0.0000000000000002
  0
LINE
  5
1B94F
  8
0
  6
CONTINUOUS
 62
     3
 10
-60.0
 20
-75.00000000000027
 30
0.0000000000000167
 11
0.0000000000000024
 21
-75.0000000000002558
 31
0.0000000000000167
210
-0.0000000000000002
220
1.0
230
-0.0000000000000002
  0
LINE
  5
1B950
  8
0
  6
CONTINUOUS
 62
     3
 10
0.0000000000000152
 20
-75.0000000000002558
 30
0.0000000000000167
 11
60.0000000000000213
 21
-75.0000000000002416
 31
0.0000000000000167
210
-0.0000000000000002
220
1.0
230
-0.0000000000000002
  0
LINE
  5
1B951
  8
0
  6
CONTINUOUS
 62
     3
 10
-49.5000000000000213
 20
-77.0000000000002984
 30
0.0000000000000171
 11
0.0000000000000029
 21
-77.0000000000002842
 31
0.0000000000000171
210
-0.0000000000000002
220
1.0
230
-0.0000000000000002
  0
LINE
  5
1B952
  8
0
  6
CONTINUOUS
 62
     3
 10
0.0000000000000186
 20
-77.0000000000002842
 30
0.0000000000000171
 11
49.5000000000000071
 21
-77.00000000000027
 31
0.0000000000000171
210
-0.0000000000000002
220
1.0
230
-0.0000000000000002
  0
LINE
  5
1B953
  8
0
  6
CONTINUOUS
 62
     3
 10
-59.4999999999999574
 20
-57.0000000000003268
 30
0.0000000000000127
 11
-0.0000000000000016
 21
-57.0000000000003126
 31
0.0000000000000127
210
-0.0000000000000002
220
1.0
230
-0.0000000000000002
  0
LINE
  5
1B954
  8
0
  6
CONTINUOUS
 62
     3
 10
0.0000000000000079
 20
-57.0000000000003126
 30
0.0000000000000127
 11
59.5000000000000071
 21
-57.0000000000002913
 31
0.0000000000000127
210
-0.0000000000000002
220
1.0
230
-0.0000000000000002
  0
ARC
  5
1B955
  8
0
  6
CONTINUOUS
 62
     3
 10
55.6394515204002005
 20
-57.8000000000003595
 30
0.0
 40
0.8000000000000044
210
0.0
220
-0.0000000000000002
230
-1.0
 50
89.9999999999959357
 51
199.8552143693231073
  0
ARC
  5
1B956
  8
0
  6
CONTINUOUS
 62
     3
 10
-55.6394515204002218
 20
-57.8000000000003311
 30
0.0
 40
0.8000000000000135
210
0.0
220
-0.0000000000000002
230
-1.0
 50
340.144785630676779
 51
90.0000000000040643
  0
LINE
  5
1B957
  8
0
  6
CONTINUOUS
 62
     3
 10
54.8870084006468772
 20
-58.071715571022402
 30
0.0000000000000129
 11
57.7500000000000497
 21
-66.0000000000002558
 31
0.0000000000000147
210
-0.0000000000000002
220
1.0
230
-0.0000000000000002
  0
LINE
  5
1B958
  8
0
  6
CONTINUOUS
 62
     3
 10
-54.8870084006468701
 20
-58.0717155710224304
 30
0.0000000000000129
 11
-57.7500000000000284
 21
-66.0000000000002842
 31
0.0000000000000147
210
-0.0000000000000002
220
1.0
230
-0.0000000000000002
  0
LINE
  5
1B959
  8
0
  6
CONTINUOUS
 62
     3
 10
57.7500000000000213
 20
-66.00000000000027
 30
0.0000000000000147
 11
59.5000000000000213
 21
-67.5000000000003268
 31
0.000000000000015
210
-0.0000000000000002
220
1.0
230
-0.0000000000000002
  0
LINE
  5
1B95A
  8
0
  6
CONTINUOUS
 62
     3
 10
-57.7500000000000071
 20
-66.0000000000002842
 30
0.0000000000000147
 11
-59.5000000000000071
 21
-67.5000000000003553
 31
0.000000000000015
210
-0.0000000000000002
220
1.0
230
-0.0000000000000002
  0
LINE
  5
1B95B
  8
0
  6
CONTINUOUS
 62
     3
 10
59.5000000000000213
 20
-67.5000000000003268
 30
0.000000000000015
 11
59.5000000000000213
 21
-68.5000000000002842
 31
0.0000000000000152
210
-0.0000000000000002
220
1.0
230
-0.0000000000000002
  0
LINE
  5
1B95C
  8
0
  6
CONTINUOUS
 62
     3
 10
-59.5000000000000071
 20
-67.5000000000003553
 30
0.000000000000015
 11
-59.5000000000000071
 21
-68.5000000000003268
 31
0.0000000000000152
210
-0.0000000000000002
220
1.0
230
-0.0000000000000002
  0
LINE
  5
1B95D
  8
0
  6
CONTINUOUS
 62
     3
 10
-57.1171444324796695
 20
-70.8828555675206786
 30
0.0000000000000157
 11
-59.5
 21
-68.5000000000003268
 31
0.0000000000000152
210
-0.0000000000000002
220
1.0
230
-0.0000000000000002
  0
LINE
  5
1B95E
  8
0
  6
CONTINUOUS
 62
     3
 10
57.1171444324796909
 20
-70.8828555675206502
 30
0.0000000000000157
 11
59.5000000000000071
 21
-68.5000000000002842
 31
0.0000000000000152
210
-0.0000000000000002
220
1.0
230
-0.0000000000000002
  0
LINE
  5
1B95F
  8
0
  6
CONTINUOUS
 62
     3
 10
57.1171444324796909
 20
-70.8828555675206502
 30
0.0000000000000157
 11
60.0000000000000071
 21
-75.0000000000002416
 31
0.0000000000000167
210
-0.0000000000000002
220
1.0
230
-0.0000000000000002
  0
LINE
  5
1B960
  8
0
  6
CONTINUOUS
 62
     3
 10
-57.1171444324796695
 20
-70.8828555675206786
 30
0.0000000000000157
 11
-60.0
 21
-75.00000000000027
 31
0.0000000000000167
210
-0.0000000000000002
220
1.0
230
-0.0000000000000002
  0
ARC
  5
1B961
  8
0
  6
CONTINUOUS
 62
     3
 10
49.4999999999999716
 20
-72.0000000000002416
 30
0.0
 40
5.0000000000000711
210
0.0
220
-0.0000000000000002
230
-1.0
 50
270.0
 51
323.1301023541557811
  0
ARC
  5
1B962
  8
0
  6
CONTINUOUS
 62
     3
 10
-49.4999999999999929
 20
-72.0000000000002132
 30
0.0
 40
5.0000000000000737
210
0.0
220
-0.0000000000000002
230
-1.0
 50
216.8698976458437926
 51
269.9999999999994884
  0
ARC
  5
1B963
  8
0
  6
CONTINUOUS
 62
     3
 10
55.6090464708852323
 20
-51.5000000000001634
 30
0.0
 40
1.4999999999999469
210
0.0
220
-0.0000000000000002
230
-1.0
 50
25.8941133784704505
 51
89.9999999999999858
  0
ARC
  5
1B964
  8
0
  6
CONTINUOUS
 62
     3
 10
-55.6090464708852465
 20
-51.5000000000001208
 30
0.0
 40
1.49999999999995
210
0.0
220
-0.0000000000000002
230
-1.0
 50
89.9999999999999858
 51
154.1058866215294927
  0
LINE
  5
1B965
  8
0
  6
CONTINUOUS
 62
     3
 10
56.9584504483275609
 20
-50.8449359530072584
 30
0.0000000000000113
 11
59.0984106065128714
 21
-55.253162541352367
 31
0.0000000000000123
210
-0.0000000000000002
220
1.0
230
-0.0000000000000002
  0
LINE
  5
1B966
  8
0
  6
CONTINUOUS
 62
     3
 10
-56.9584504483275396
 20
-50.8449359530072869
 30
0.0000000000000113
 11
-59.0984106065128501
 21
-55.2531625413524026
 31
0.0000000000000123
210
-0.0000000000000002
220
1.0
230
-0.0000000000000002
  0
ARC
  5
1B967
  8
0
  6
CONTINUOUS
 62
     3
 10
55.4999999999992895
 20
-57.0000000000005684
 30
0.0
 40
4.0000000000007114
210
0.0
220
-0.0000000000000002
230
-1.0
 50
0.0000000000034477
 51
25.8941133784723014
  0
ARC
  5
1B968
  8
0
  6
CONTINUOUS
 62
     3
 10
-55.4999999999991616
 20
-57.0000000000005826
 30
0.0
 40
4.0000000000008624
210
0.0
220
-0.0000000000000002
230
-1.0
 50
154.1058866215279011
 51
179.9999999999957083
  0
LINE
  5
1B969
  8
0
  6
VERDECKT
 62
     1
 10
-49.207444214685033
 20
0.1492555785311967
 30
0.0
 11
49.207444214685033
 21
0.1492555785312246
 31
0.0
210
-0.0000000000000002
220
1.0
230
-0.0000000000000002
  0
ARC
  5
1B96A
  8
0
  6
VERDECKT
 62
     1
 10
48.9999999999989484
 20
8.1246890528020561
 30
0.0
 40
1.000000000001066
210
0.0
220
-0.0000000000000002
230
-1.0
 50
354.289406862500698
 51
359.9999999999952252
  0
ARC
  5
1B96B
  8
0
  6
VERDECKT
 62
     1
 10
-48.99999999999892
 20
8.1246890528020845
 30
0.0
 40
1.0000000000010869
210
0.0
220
-0.0000000000000002
230
-1.0
 50
180.0000000000046896
 51
185.710593137499103
  0
LINE
  5
1B96C
  8
0
  6
VERDECKT
 62
     1
 10
-49.207444214685033
 20
0.1492555785311971
 30
0.0
 11
-49.9950371902099988
 21
8.0251853337809571
 31
-0.0000000000000018
210
-0.0000000000000002
220
1.0
230
-0.0000000000000002
  0
LINE
  5
1B96D
  8
0
  6
VERDECKT
 62
     1
 10
49.207444214685033
 20
0.1492555785312252
 30
0.0
 11
49.9950371902099988
 21
8.0251853337809855
 31
-0.0000000000000018
210
-0.0000000000000002
220
1.0
230
-0.0000000000000002
  0
LINE
  5
1B96E
  8
0
  6
VERDECKT
 62
     1
 10
49.9999999999999503
 20
239.9999999999998863
 30
-0.0000000000000533
 11
50.0000000000000071
 21
8.1246890528019975
 31
-0.0000000000000018
210
-0.0000000000000002
220
1.0
230
-0.0000000000000002
  0
LINE
  5
1B96F
  8
0
  6
VERDECKT
 62
     1
 10
-50.0000000000000711
 20
239.9999999999998863
 30
-0.0000000000000533
 11
-50.0000000000000071
 21
8.1246890528019762
 31
-0.0000000000000018
210
-0.0000000000000002
220
1.0
230
-0.0000000000000002
  0
LINE
  5
1B970
  8
0
  6
VERDECKT
 62
     1
 10
49.207444214685033
 20
0.1492555785312269
 30
0.0
 11
50.7000000000000171
 21
-0.0000000000002714
 31
0.0
210
-0.0000000000000002
220
1.0
230
-0.0000000000000002
  0
LINE
  5
1B971
  8
0
  6
VERDECKT
 62
     1
 10
-49.207444214685033
 20
0.149255578531199
 30
0.0
 11
-50.7000000000000171
 21
-0.0000000000003001
 31
0.0
210
-0.0000000000000002
220
1.0
230
-0.0000000000000002
  0
ARC
  5
1B972
  8
0
  6
VERDECKT
 62
     1
 10
54.0000000000002984
 20
259.9999999999997726
 30
0.0
 40
6.499999999999778
210
0.0
220
-0.0000000000000002
230
-1.0
 50
329.9796896468805016
 51
0.0000000000004962
  0
ARC
  5
1B973
  8
0
  6
VERDECKT
 62
     1
 10
-54.0000000000000782
 20
259.9999999999997726
 30
0.0
 40
6.499999999999873
210
0.0
220
-0.0000000000000002
230
-1.0
 50
179.9999999999994884
 51
210.0203103531189868
  0
LINE
  5
1B974
  8
0
  6
VERDECKT
 62
     1
 10
-58.6179753299172432
 20
255.0000000000001137
 30
-0.0000000000000566
 11
-59.6280127027125602
 21
256.7480047635170877
 31
-0.000000000000057
210
-0.0000000000000002
220
1.0
230
-0.0000000000000002
  0
LINE
  5
1B975
  8
0
  6
VERDECKT
 62
     1
 10
58.6179753299171296
 20
255.0000000000001137
 30
-0.0000000000000566
 11
59.6280127027124607
 21
256.7480047635170877
 31
-0.000000000000057
210
-0.0000000000000002
220
1.0
230
-0.0000000000000002
  0
ARC
  5
1B976
  8
0
  6
VERDECKT
 62
     1
 10
61.4999999999999929
 20
239.9999999999998863
 30
0.0
 40
11.4999999999999307
210
0.0
220
-0.0000000000000002
230
-1.0
 50
149.9796896468807859
 51
180.0000000000001137
  0
ARC
  5
1B977
  8
0
  6
VERDECKT
 62
     1
 10
-61.4999999999998934
 20
239.9999999999998863
 30
0.0
 40
11.4999999999999307
210
0.0
220
-0.0000000000000002
230
-1.0
 50
359.9999999999997726
 51
30.0203103531191395
  0
LINE
  5
1B978
  8
0
  6
VERDECKT
 62
     1
 10
-51.5427467567395325
 20
245.7535300337771957
 30
-0.0000000000000546
 11
-58.3292405405481489
 21
257.498465202705404
 31
-0.0000000000000572
210
-0.0000000000000002
220
1.0
230
-0.0000000000000002
  0
LINE
  5
1B979
  8
0
  6
VERDECKT
 62
     1
 10
51.5427467567394118
 20
245.7535300337771957
 30
-0.0000000000000546
 11
58.3292405405480281
 21
257.498465202705404
 31
-0.0000000000000572
210
-0.0000000000000002
220
1.0
230
-0.0000000000000002
  0
ARC
  5
1B97A
  8
0
  6
VERDECKT
 62
     1
 10
54.0000000000001918
 20
259.9999999999997726
 30
0.0
 40
4.9999999999998801
210
0.0
220
-0.0000000000000002
230
-1.0
 50
329.9796896468815248
 51
0.0000000000006488
  0
ARC
  5
1B97B
  8
0
  6
VERDECKT
 62
     1
 10
-54.0000000000000497
 20
259.9999999999997726
 30
0.0
 40
4.9999999999998943
210
0.0
220
-0.0000000000000002
230
-1.0
 50
179.9999999999992895
 51
210.0203103531185036
  0
LINE
  5
1B97C
  8
0
  6
VERDECKT
 62
     1
 10
58.9999999999999503
 20
269.9999999999998863
 30
-0.00000000000006
 11
58.9999999999999503
 21
259.9999999999998863
 31
-0.0000000000000577
210
-0.0000000000000002
220
1.0
230
-0.0000000000000002
  0
LINE
  5
1B97D
  8
0
  6
VERDECKT
 62
     1
 10
-59.0000000000000782
 20
269.9999999999998863
 30
-0.00000000000006
 11
-59.0000000000000782
 21
259.9999999999998863
 31
-0.0000000000000577
210
-0.0000000000000002
220
1.0
230
-0.0000000000000002
  0
LINE
  5
1B97E
  8
0
  6
VERDECKT
 62
     1
 10
60.4999999999999574
 20
268.0000000000001137
 30
-0.0000000000000595
 11
60.4999999999999574
 21
259.9999999999998863
 31
-0.0000000000000577
210
-0.0000000000000002
220
1.0
230
-0.0000000000000002
  0
LINE
  5
1B97F
  8
0
  6
VERDECKT
 62
     1
 10
-60.5000000000000782
 20
268.0000000000001137
 30
-0.0000000000000595
 11
-60.5000000000000782
 21
259.9999999999998863
 31
-0.0000000000000577
210
-0.0000000000000002
220
1.0
230
-0.0000000000000002
  0
LINE
  5
1B980
  8
0
  6
VERDECKT
 62
     1
 10
59.4027289799049214
 20
256.203630046304113
 30
-0.0000000000000569
 11
-59.4027289799052625
 21
256.203630046304113
 31
-0.0000000000000569
210
-0.0000000000000002
220
1.0
230
-0.0000000000000002
  0
LINE
  5
1B981
  8
0
  6
VERDECKT
 62
     1
 10
-59.4027289799052483
 20
256.203630046304113
 30
-0.0000000000000569
 11
-67.0917157270476565
 21
266.4072600926079986
 31
-0.0000000000000592
210
-0.0000000000000002
220
1.0
230
-0.0000000000000002
  0
LINE
  5
1B982
  8
0
  6
VERDECKT
 62
     1
 10
59.4027289799049072
 20
256.203630046304113
 30
-0.0000000000000569
 11
67.0917157270473155
 21
266.4072600926079986
 31
-0.0000000000000592
210
-0.0000000000000002
220
1.0
230
-0.0000000000000002
  0
ARC
  5
1B983
  8
0
  6
VERDECKT
 62
     1
 10
-70.2862577672366342
 20
264.0000000000001137
 30
0.0
 40
3.9999999999999778
210
0.0
220
-0.0000000000000002
230
-1.0
 50
36.9999999999967528
 51
89.999999999999801
  0
ARC
  5
1B984
  8
0
  6
VERDECKT
 62
     1
 10
70.2862577672369468
 20
264.0000000000002274
 30
0.0
 40
3.9999999999998872
210
0.0
220
-0.0000000000000002
230
-1.0
 50
90.0000000000005969
 51
143.0000000000042917
  0
LINE
  5
1B985
  8
0
  6
VERDECKT
 62
     1
 10
59.4027289799049214
 20
256.203630046304113
 30
-0.0000000000000569
 11
60.9999999999998366
 21
255.0000000000001137
 31
-0.0000000000000566
210
-0.0000000000000002
220
1.0
230
-0.0000000000000002
  0
LINE
  5
1B986
  8
0
  6
VERDECKT
 62
     1
 10
-59.4027289799052625
 20
256.203630046304113
 30
-0.0000000000000569
 11
-61.0000000000001918
 21
255.0000000000001137
 31
-0.0000000000000566
210
-0.0000000000000002
220
1.0
230
-0.0000000000000002
  0
LINE
  5
1B987
  8
0
  6
VERDECKT
 62
     1
 10
-51.8016575748095676
 20
-59.9132265073575212
 30
0.0000000000000133
 11
-0.0016575748095145
 21
-59.9132265073574999
 31
0.0000000000000133
210
-0.0000000000000002
220
1.0
230
-0.0000000000000002
  0
LINE
  5
1B988
  8
0
  6
VERDECKT
 62
     1
 10
-0.0016575748095022
 20
-59.9132265073574999
 30
0.0000000000000133
 11
51.7983424251904978
 21
-59.9132265073574928
 31
0.0000000000000133
210
-0.0000000000000002
220
1.0
230
-0.0000000000000002
  0
LINE
  5
1B989
  8
0
  6
VERDECKT
 62
     1
 10
47.4983424251904722
 20
-75.4439840251520906
 30
0.0000000000000168
 11
-0.0016575748094968
 21
-75.4439840251521048
 31
0.0000000000000168
210
-0.0000000000000002
220
1.0
230
-0.0000000000000002
  0
LINE
  5
1B98A
  8
0
  6
VERDECKT
 62
     1
 10
-0.0016575748095082
 20
-75.4439840251521048
 30
0.0000000000000168
 11
-47.5016575748094994
 21
-75.443984025152119
 31
0.0000000000000168
210
-0.0000000000000002
220
1.0
230
-0.0000000000000002
  0
LINE
  5
1B98B
  8
0
  6
VERDECKT
 62
     1
 10
-56.5995849235806077
 20
-73.0000000000002416
 30
0.0000000000000162
 11
0.000000000000002
 21
-73.0000000000002132
 31
0.0000000000000162
210
-0.0000000000000002
220
1.0
230
-0.0000000000000002
  0
LINE
  5
1B98C
  8
0
  6
VERDECKT
 62
     1
 10
0.0000000000000103
 20
-73.0000000000002132
 30
0.0000000000000162
 11
56.599584923580629
 21
-73.0000000000002132
 31
0.0000000000000162
210
-0.0000000000000002
220
1.0
230
-0.0000000000000002
  0
ARC
  5
1B98D
  8
0
  6
VERDECKT
 62
     1
 10
55.6107040456947388
 20
-51.4932265073574413
 30
0.0
 40
1.4999999999999609
210
0.0
220
-0.0000000000000002
230
-1.0
 50
95.4470566892311751
 51
165.0000000000019895
  0
ARC
  5
1B98E
  8
0
  6
VERDECKT
 62
     1
 10
-55.6073888960757401
 20
-51.4932265073574129
 30
0.0
 40
1.4999999999999689
210
0.0
220
-0.0000000000000002
230
-1.0
 50
14.9999999999981508
 51
84.5529433107633537
  0
LINE
  5
1B98F
  8
0
  6
VERDECKT
 62
     1
 10
-51.801657574809532
 20
-59.9132265073575212
 30
0.0000000000000133
 11
-54.1618153062611682
 21
-51.104997939703722
 31
0.0000000000000113
210
-0.0000000000000002
220
1.0
230
-0.0000000000000002
  0
LINE
  5
1B990
  8
0
  6
VERDECKT
 62
     1
 10
51.798342425190512
 20
-59.9132265073574928
 30
0.0000000000000133
 11
54.1585001566421482
 21
-51.1049979397036935
 31
0.0000000000000113
210
-0.0000000000000002
220
1.0
230
-0.0000000000000002
  0
LINE
  5
1B991
  8
0
  6
VERDECKT
 62
     1
 10
51.7983424251905191
 20
-59.9132265073574928
 30
0.0000000000000133
 11
51.7983424251905191
 21
-70.4932265073574769
 31
0.0000000000000157
210
-0.0000000000000002
220
1.0
230
-0.0000000000000002
  0
LINE
  5
1B992
  8
0
  6
VERDECKT
 62
     1
 10
-51.801657574809532
 20
-59.9132265073575212
 30
0.0000000000000133
 11
-51.801657574809532
 21
-70.4932265073575053
 31
0.0000000000000157
210
-0.0000000000000002
220
1.0
230
-0.0000000000000002
  0
ARC
  5
1B993
  8
0
  6
VERDECKT
 62
     1
 10
46.8016575748094681
 20
-70.4932265073574484
 30
0.0
 40
5.0000000000000506
210
0.0
220
-0.0000000000000002
230
-1.0
 50
278.0478462473118952
 51
359.9999999999993179
  0
ARC
  5
1B994
  8
0
  6
VERDECKT
 62
     1
 10
-46.7983424251904623
 20
-70.49322650735742
 30
0.0
 40
5.0000000000000497
210
0.0
220
-0.0000000000000002
230
-1.0
 50
180.0000000000005969
 51
261.9521537526879911
  0
LINE
  5
1B995
  8
0
  6
VERDECKT
 62
     1
 10
-47.5016575748095065
 20
-77.0000000000002984
 30
0.0000000000000171
 11
-47.5016575748095065
 21
-75.443984025152119
 31
0.0000000000000168
210
-0.0000000000000002
220
1.0
230
-0.0000000000000002
  0
LINE
  5
1B996
  8
0
  6
VERDECKT
 62
     1
 10
47.4983424251905006
 20
-77.00000000000027
 30
0.0000000000000171
 11
47.4983424251905006
 21
-75.4439840251520906
 31
0.0000000000000168
210
-0.0000000000000002
220
1.0
230
-0.0000000000000002
  0
LINE
  5
1B997
  8
0
  6
VERDECKT
 62
     1
 10
56.5995849235806006
 20
-73.0000000000002132
 30
0.0000000000000162
 11
57.9999999999999929
 21
-75.0000000000002558
 31
0.0000000000000167
210
-0.0000000000000002
220
1.0
230
-0.0000000000000002
  0
LINE
  5
1B998
  8
0
  6
VERDECKT
 62
     1
 10
-56.5995849235805792
 20
-73.0000000000002558
 30
0.0000000000000162
 11
-57.9999999999999787
 21
-75.0000000000002842
 31
0.0000000000000167
210
-0.0000000000000002
220
1.0
230
-0.0000000000000002
  0
ARC
  5
1B999
  8
0
  6
VERDECKT
 62
     1
 10
49.4999999999998508
 20
-72.0000000000002274
 30
0.0
 40
5.0000000000001847
210
0.0
220
-0.0000000000000002
230
-1.0
 50
323.1301023541569748
 51
348.4630409671844973
  0
ARC
  5
1B99A
  8
0
  6
VERDECKT
 62
     1
 10
-49.4999999999998508
 20
-72.000000000000199
 30
0.0
 40
5.0000000000001839
210
0.0
220
-0.0000000000000002
230
-1.0
 50
191.5369590328155027
 51
216.8698976458429968
  0
ENDBLK
  5
1B99C
  8
0
  0
BLOCK
  8
0
  2
A$CC408F89F
 70
     0
 10
0.0
 20
0.0
 30
0.0
  3
A$CC408F89F
  1

  0
CIRCLE
  5
1B9A0
  8
0
  6
CONTINUOUS
 62
     3
 10
0.0000000000001136
 20
0.0
 30
0.0
 40
49.2074442146850117
  0
CIRCLE
  5
1B9A1
  8
0
  6
CONTINUOUS
 62
     3
 10
0.0000000000000579
 20
0.0000000000000024
 30
0.0
 40
50.0
  0
CIRCLE
  5
1B9A2
  8
0
  6
CONTINUOUS
 62
     3
 10
0.0000000000000493
 20
0.0000000000000043
 30
0.0
 40
59.0
  0
CIRCLE
  5
1B9A3
  8
0
  6
CONTINUOUS
 62
     3
 10
0.0000000000000493
 20
0.0000000000000043
 30
0.0
 40
60.5
  0
ARC
  5
1B9A4
  8
0
  6
CONTINUOUS
 62
     3
 10
0.0000000000000542
 20
0.0000000000000853
 30
0.0
 40
122.4999999999999005
 50
90.0
 51
270.0
  0
LINE
  5
1B9A5
  8
0
  6
CONTINUOUS
 62
     3
 10
0.0000000000000826
 20
-122.4999999999999005
 30
0.0
 11
91.7500000000000853
 21
-122.4999999999999005
 31
-0.0000000000000204
  0
LINE
  5
1B9A6
  8
0
  6
CONTINUOUS
 62
     3
 10
91.7500000000000568
 20
122.5000000000000995
 30
0.0
 11
0.0000000000000568
 21
122.5000000000000995
 31
0.0000000000000204
  0
LINE
  5
1B9A7
  8
0
  6
CONTINUOUS
 62
     3
 10
93.0000000000000711
 20
-122.4999999999999005
 30
0.0
 11
95.0000000000000568
 21
-122.4999999999999005
 31
-0.0000000000000004
  0
LINE
  5
1B9A8
  8
0
  6
CONTINUOUS
 62
     3
 10
91.7500000000000568
 20
-122.4999999999999005
 30
0.0
 11
93.0000000000000568
 21
-122.4999999999999005
 31
0.0
  0
LINE
  5
1B9A9
  8
0
  6
CONTINUOUS
 62
     3
 10
93.0000000000000568
 20
122.5000000000000995
 30
0.0
 11
91.7500000000000568
 21
122.5000000000000995
 31
0.0
  0
LINE
  5
1B9AA
  8
0
  6
CONTINUOUS
 62
     3
 10
93.0000000000000142
 20
102.5000000000000995
 30
0.0
 11
93.0000000000000426
 21
122.5000000000000995
 31
0.0
  0
LINE
  5
1B9AB
  8
0
  6
CONTINUOUS
 62
     3
 10
93.0000000000000426
 20
-122.4999999999999005
 30
0.0
 11
93.0000000000000142
 21
-102.4999999999999005
 31
0.0
  0
LINE
  5
1B9AC
  8
0
  6
CONTINUOUS
 62
     3
 10
93.0000000000000568
 20
-102.4999999999999005
 30
0.0
 11
93.0000000000000568
 21
102.5000000000000995
 31
0.0
  0
LINE
  5
1B9AD
  8
0
  6
CONTINUOUS
 62
     3
 10
95.0000000000000284
 20
-102.4999999999999005
 30
0.0
 11
95.0000000000000568
 21
-122.4999999999999005
 31
0.0
  0
LINE
  5
1B9AE
  8
0
  6
CONTINUOUS
 62
     3
 10
95.0
 20
-102.4999999999999005
 30
0.0
 11
95.0
 21
102.5000000000000995
 31
0.0
  0
LINE
  5
1B9AF
  8
0
  6
CONTINUOUS
 62
     3
 10
95.0000000000000568
 20
122.5000000000000995
 30
0.0
 11
95.0000000000000284
 21
102.5000000000000995
 31
0.0
  0
LINE
  5
1B9B0
  8
0
  6
CONTINUOUS
 62
     3
 10
95.0000000000000142
 20
122.5000000000000995
 30
0.0
 11
93.0000000000000853
 21
122.5000000000000995
 31
0.0000000000000004
  0
CIRCLE
  5
1B9B1
  8
0
  6
CONTINUOUS
 62
     3
 10
0.0000000000001873
 20
0.00165757480952
 30
0.0
 40
47.5
  0
CIRCLE
  5
1B9B2
  8
0
  6
VERDECKT
 62
     1
 10
0.0000000000000579
 20
0.0000000000000024
 30
0.0
 40
51.4999999999999929
  0
CIRCLE
  5
1B9B3
  8
0
  6
VERDECKT
 62
     1
 10
0.0000000000001137
 20
0.0
 30
0.0
 40
50.7000000000000028
  0
CIRCLE
  5
1B9B4
  8
0
  6
VERDECKT
 62
     1
 10
0.0000000000000568
 20
0.0000000000001137
 30
0.0
 40
59.4027289799050706
  0
CIRCLE
  5
1B9B5
  8
0
  6
VERDECKT
 62
     1
 10
0.0000000000000571
 20
0.0000000000001137
 30
0.0
 40
61.0
  0
LINE
  5
1B9B6
  8
0
  6
VERDECKT
 62
     1
 10
93.0000000000000142
 20
-98.4999999999998721
 30
0.0
 11
95.0000000000000142
 21
-98.4999999999998721
 31
-0.0000000000000004
  0
LINE
  5
1B9B7
  8
0
  6
VERDECKT
 62
     1
 10
93.0000000000000142
 20
-106.499999999999801
 30
0.0
 11
95.0000000000000142
 21
-106.499999999999801
 31
-0.0000000000000004
  0
LINE
  5
1B9B8
  8
0
  6
VERDECKT
 62
     1
 10
93.0000000000000426
 20
106.500000000000199
 30
0.0
 11
95.0000000000000568
 21
106.500000000000199
 31
-0.0000000000000004
  0
LINE
  5
1B9B9
  8
0
  6
VERDECKT
 62
     1
 10
93.0000000000000426
 20
98.500000000000199
 30
0.0
 11
95.0000000000000568
 21
98.500000000000199
 31
-0.0000000000000004
  0
CIRCLE
  5
1B9BA
  8
0
  6
VERDECKT
 62
     1
 10
0.0000000000001838
 20
0.001657574809521
 30
0.0
 40
51.8000000000000114
  0
CIRCLE
  5
1B9BB
  8
0
  6
VERDECKT
 62
     1
 10
0.0000000000001283
 20
0.0000000000000093
 30
0.0
 40
57.75
  0
CIRCLE
  5
1B9BC
  8
0
  6
VERDECKT
 62
     1
 10
0.0000000000001294
 20
0.000000000000009
 30
0.0
 40
57.1171444324796695
  0
CIRCLE
  5
1B9BD
  8
0
  6
VERDECKT
 62
     1
 10
0.0000000000001303
 20
0.0000000000000087
 30
0.0
 40
60.0
  0
CIRCLE
  5
1B9BE
  8
0
  6
VERDECKT
 62
     1
 10
0.0000000000001303
 20
0.0000000000000087
 30
0.0
 40
58.0
  0
CIRCLE
  5
1B9BF
  8
0
  6
VERDECKT
 62
     1
 10
0.0000000000001299
 20
0.0000000000000088
 30
0.0
 40
56.5995849235806077
  0
CIRCLE
  5
1B9C0
  8
0
  6
VERDECKT
 62
     1
 10
0.0000000000001299
 20
0.0000000000000088
 30
0.0
 40
54.3989794855663717
  0
CIRCLE
  5
1B9C1
  8
0
  6
VERDECKT
 62
     1
 10
0.0000000000001263
 20
0.0000000000000098
 30
0.0
 40
59.5
  0
CIRCLE
  5
1B9C2
  8
0
  6
VERDECKT
 62
     1
 10
0.0000000000001265
 20
0.0000000000000098
 30
0.0
 40
54.8394515204001891
  0
ENDBLK
  5
1B9C4
  8
0
  0
ENDSEC
  0
SECTION
  2
ENTITIES
  0
TEXT
  5
416B
  8
VOLL
 10
441.2467849443549994
 20
195.2108867802037935
 30
0.0
 40
1.8
  1

  7
GREEKS
  0
INSERT
  5
46F1
  8
ADSK_ASSOC_ENTITY_BACKUPS
  2
*S0
 10
0.0
 20
0.0
 30
0.0
  0
INSERT
  5
1B922
  8
STEMPEL
  2
A$C4BD38407
 10
0.0
 20
0.0
 30
0.0
  0
INSERT
  5
1B99D
  8
STEMPEL
  2
A$CA04772D4
 10
317.5000000000002842
 20
-0.0000000000001137
 30
0.0
  0
INSERT
  5
1B9C5
  8
STEMPEL
  2
A$CC408F89F
 10
0.0000000000000573
 20
-299.5000000000003979
 30
0.0000000000000171
  0
VIEWPORT
  5
46D0
 67
     1
  8
0
 10
297.0106030273440183
 20
210.0055635070800975
 30
0.0
 40
798.1701256077442395
 41
426.3698209718668863
 68
     1
 69
     1
1001
ACAD
1000
MVIEW
1002
{
1070
    16
1010
0.0
1020
0.0
1030
0.0
1010
0.0
1020
0.0
1030
1.0
1040
0.0
1040
426.3698209718668863
1040
297.0106030273440183
1040
210.0055635070800975
1040
50.0
1040
0.0
1040
0.0
1070
     0
1070
  1500
1070
     1
1070
     1
1070
     0
1070
     0
1070
     0
1070
     0
1040
0.0
1040
0.0
1040
0.0
1040
10.0
1040
10.0
1040
10.0
1040
10.0
1070
     0
1002
{
1002
}
1002
}
  0
ENDSEC
  0
EOF
