  0
SECTION
  2
HEADER
  9
$ACADVER
  1
AC1009
  9
$INSBASE
 10
0.0
 20
0.0
 30
0.0
  9
$EXTMIN
 10
-122.5000000000000995
 20
-372.5
 30
-0.0000000000000597
  9
$EXTMAX
 10
122.5
 20
269.0000000000001137
 30
0.0000000000000165
  9
$LIMMIN
 10
0.0
 20
0.0
  9
$LIMMAX
 10
419.9999999999998863
 20
594.0
  9
$ORTHOMODE
 70
     1
  9
$REGENMODE
 70
     1
  9
$FILLMODE
 70
     1
  9
$QTEXTMODE
 70
     0
  9
$MIRRTEXT
 70
     1
  9
$DRAGMODE
 70
     2
  9
$LTSCALE
 40
10.0
  9
$OSMODE
 70
   511
  9
$ATTMODE
 70
     1
  9
$TEXTSIZE
 40
3.5
  9
$TRACEWID
 40
1.0
  9
$TEXTSTYLE
  7
STANDARD
  9
$CLAYER
  8
STEMPEL
  9
$CELTYPE
  6
BYLAYER
  9
$CECOLOR
 62
   256
  9
$DIMSCALE
 40
1.0
  9
$DIMASZ
 40
3.5
  9
$DIMEXO
 40
1.0
  9
$DIMDLI
 40
0.38
  9
$DIMRND
 40
0.0
  9
$DIMDLE
 40
0.0
  9
$DIMEXE
 40
1.0
  9
$DIMTP
 40
0.0
  9
$DIMTM
 40
0.000000001
  9
$DIMTXT
 40
3.5
  9
$DIMCEN
 40
0.09
  9
$DIMTSZ
 40
0.0
  9
$DIMTOL
 70
     0
  9
$DIMLIM
 70
     0
  9
$DIMTIH
 70
     0
  9
$DIMTOH
 70
     0
  9
$DIMSE1
 70
     0
  9
$DIMSE2
 70
     0
  9
$DIMTAD
 70
     1
  9
$DIMZIN
 70
     8
  9
$DIMBLK
  1

  9
$DIMASO
 70
     1
  9
$DIMSHO
 70
     0
  9
$DIMPOST
  1

  9
$DIMAPOST
  1

  9
$DIMALT
 70
     0
  9
$DIMALTD
 70
     2
  9
$DIMALTF
 40
25.3999999999999986
  9
$DIMLFAC
 40
2.0
  9
$DIMTOFL
 70
     1
  9
$DIMTVP
 40
0.0
  9
$DIMTIX
 70
     0
  9
$DIMSOXD
 70
     0
  9
$DIMSAH
 70
     0
  9
$DIMBLK1
  1

  9
$DIMBLK2
  1

  9
$DIMSTYLE
  2
LORO
  9
$DIMCLRD
 70
     0
  9
$DIMCLRE
 70
     0
  9
$DIMCLRT
 70
     1
  9
$DIMTFAC
 40
0.5
  9
$DIMGAP
 40
1.5
  9
$LUNITS
 70
     2
  9
$LUPREC
 70
     2
  9
$SKETCHINC
 40
1.0
  9
$FILLETRAD
 40
2.0
  9
$AUNITS
 70
     0
  9
$AUPREC
 70
     2
  9
$MENU
  1
ACAD
  9
$ELEVATION
 40
0.0
  9
$PELEVATION
 40
0.0
  9
$THICKNESS
 40
0.0
  9
$LIMCHECK
 70
     0
  9
$BLIPMODE
 70
     0
  9
$CHAMFERA
 40
0.0
  9
$CHAMFERB
 40
0.0
  9
$SKPOLY
 70
     0
  9
$TDCREATE
 40
2455397.867048610933125
  9
$TDUPDATE
 40
2460591.6089236112311482
  9
$TDINDWG
 40
0.8957230671
  9
$TDUSRTIMER
 40
0.8957230671
  9
$USRTIMER
 70
     1
  9
$ANGBASE
 50
0.0
  9
$ANGDIR
 70
     0
  9
$PDMODE
 70
     0
  9
$PDSIZE
 40
0.0
  9
$PLINEWID
 40
0.0
  9
$COORDS
 70
     1
  9
$SPLFRAME
 70
     0
  9
$SPLINETYPE
 70
     6
  9
$SPLINESEGS
 70
     8
  9
$ATTDIA
 70
     1
  9
$ATTREQ
 70
     1
  9
$HANDLING
 70
     1
  9
$HANDSEED
  5
4257
  9
$SURFTAB1
 70
     6
  9
$SURFTAB2
 70
     6
  9
$SURFTYPE
 70
     6
  9
$SURFU
 70
     6
  9
$SURFV
 70
     6
  9
$UCSNAME
  2

  9
$UCSORG
 10
0.0
 20
0.0
 30
0.0
  9
$UCSXDIR
 10
1.0
 20
0.0
 30
0.0
  9
$UCSYDIR
 10
0.0
 20
1.0
 30
0.0
  9
$PUCSNAME
  2

  9
$PUCSORG
 10
0.0
 20
0.0
 30
0.0
  9
$PUCSXDIR
 10
1.0
 20
0.0
 30
0.0
  9
$PUCSYDIR
 10
0.0
 20
1.0
 30
0.0
  9
$USERI1
 70
     0
  9
$USERI2
 70
     0
  9
$USERI3
 70
     0
  9
$USERI4
 70
     0
  9
$USERI5
 70
     0
  9
$USERR1
 40
0.0
  9
$USERR2
 40
0.0
  9
$USERR3
 40
0.0
  9
$USERR4
 40
0.0
  9
$USERR5
 40
0.0
  9
$WORLDVIEW
 70
     1
  9
$SHADEDGE
 70
     3
  9
$SHADEDIF
 70
    70
  9
$TILEMODE
 70
     1
  9
$MAXACTVP
 70
    16
  9
$PLIMCHECK
 70
     0
  9
$PEXTMIN
 10
1.0000000000000000E+20
 20
1.0000000000000000E+20
 30
1.0000000000000000E+20
  9
$PEXTMAX
 10
-1.0000000000000000E+20
 20
-1.0000000000000000E+20
 30
-1.0000000000000000E+20
  9
$PLIMMIN
 10
-0.2447509765625
 20
-0.25
  9
$PLIMMAX
 10
296.7552490234375
 20
419.7499999999998863
  9
$UNITMODE
 70
     0
  9
$VISRETAIN
 70
     0
  9
$PLINEGEN
 70
     0
  9
$PSLTSCALE
 70
     0
  0
ENDSEC
  0
SECTION
  2
TABLES
  0
TABLE
  2
VPORT
 70
     1
  0
VPORT
  2
*ACTIVE
 70
     0
 10
0.0
 20
0.0
 11
1.0
 21
1.0
 12
0.0
 22
-125.0042724609375
 13
0.0
 23
0.0
 14
1.0
 24
1.0
 15
10.0
 25
10.0
 16
-0.0000000000002799
 26
0.0
 36
1260.714526117259993
 17
0.0
 27
73.2542724609375
 37
-0.0000000000000216
 40
644.8067010309276839
 41
1.8847807394668961
 42
50.0
 43
0.0
 44
0.0
 50
0.0
 51
0.0
 71
     0
 72
  1500
 73
     1
 74
     0
 75
     1
 76
     0
 77
     0
 78
     0
  0
ENDTAB
  0
TABLE
  2
LTYPE
 70
     6
  0
LTYPE
  2
CONTINUOUS
 70
     0
  3
Solid line
 72
    65
 73
     0
 40
0.0
  0
LTYPE
  2
STRICHPUNKT
 70
     0
  3
__ . __ . __ . __ . __ . __ . __ . __ . __ . __
 72
    65
 73
     4
 40
1.0
 49
0.5
 49
-0.25
 49
0.0
 49
-0.25
  0
LTYPE
  2
VERDECKT
 70
     0
  3
Verdeckt __ __ __ __ __ __ __ __ __ __ __ __ __
 72
    65
 73
     2
 40
0.375
 49
0.25
 49
-0.125
  0
ENDTAB
  0
TABLE
  2
LAYER
 70
    18
  0
LAYER
  2
0
 70
     0
 62
     7
  6
CONTINUOUS
  0
LAYER
  2
VOLL
 70
     0
 62
     1
  6
CONTINUOUS
  0
LAYER
  2
STEMPEL
 70
     0
 62
     3
  6
CONTINUOUS
  0
LAYER
  2
ADSK_ASSOC_ENTITY_BACKUPS
 70
     1
 62
    -7
  6
CONTINUOUS
  0
ENDTAB
  0
TABLE
  2
STYLE
 70
     4
  0
STYLE
  2
STANDARD
 70
     0
 40
0.0
 41
0.8
 50
0.0
 71
     0
 42
3.5
  3
simplex.shx
  4

  0
STYLE
  2
GREEKS
 70
     0
 40
0.0
 41
0.8
 50
0.0
 71
     0
 42
2.5
  3
SIMPLEX.shx
  4

  0
ENDTAB
  0
TABLE
  2
VIEW
 70
     2
  0
ENDTAB
  0
TABLE
  2
UCS
 70
     0
  0
ENDTAB
  0
TABLE
  2
APPID
 70
    23
  0
APPID
  2
ACAD
 70
     0
  0
APPID
  2
ACAECLAYERSTANDARD
 70
     0
  0
APPID
  2
ACCMTRANSPARENCY
 70
     0
  0
APPID
  2
ACAD_NAV_VCDISPLAY
 70
     0
  0
APPID
  2
ACAD_PSEXT
 70
     0
  0
APPID
  2
ACAD_EXEMPT_FROM_CAD_STANDARDS
 70
     0
  0
APPID
  2
ACSYNERGY
 70
     0
  0
APPID
  2
SYNERGY_BODY_TBR_ID
 70
     0
  0
APPID
  2
ACAD_VIEW_EDGE_ID
 70
     0
  0
APPID
  2
ACSYNERGYSKETCH
 70
     0
  0
APPID
  2
ACAD_MODELDOC_XFORM
 70
     0
  0
APPID
  2
ACAD_MLEADERVER
 70
     0
  0
APPID
  2
ACADANNOMONITORALERTICONDI
 70
     0
  0
APPID
  2
ACAD_DSTYLE_DIMJAG
 70
     0
  0
APPID
  2
ACAD_DSTYLE_DIMTALN
 70
     0
  0
APPID
  2
ACAD_DSTYLE_DIMBREAK
 70
     0
  0
APPID
  2
ACAD_STEPID
 70
     0
  0
APPID
  2
ACAD_TC
 70
     0
  0
APPID
  2
ACDBDYNAMICBLOCKGUID
 70
     0
  0
APPID
  2
ACADANNOPO
 70
     0
  0
APPID
  2
PLOTTRANSPARENCY
 70
     0
  0
APPID
  2
ACADANNOTATIVE
 70
     0
  0
APPID
  2
AcDbAttr
 70
     0
  0
ENDTAB
  0
TABLE
  2
DIMSTYLE
 70
     2
  0
DIMSTYLE
  2
LORO
 70
     0
  3

  4

  5

  6

  7

 40
1.0
 41
3.5
 42
1.0
 43
0.38
 44
1.0
 45
0.0
 46
0.0
 47
0.0
 48
0.000000001
140
3.5
141
0.09
142
0.0
143
25.3999999999999986
144
2.0
145
0.0
146
0.5
147
1.5
 71
     0
 72
     0
 73
     0
 74
     0
 75
     0
 76
     0
 77
     1
 78
     8
170
     0
171
     2
172
     1
173
     0
174
     0
175
     0
176
     0
177
     0
178
     1
  0
ENDTAB
  0
ENDSEC
  0
SECTION
  2
BLOCKS
  0
BLOCK
  8
0
  2
$MODEL_SPACE
 70
     0
 10
0.0
 20
0.0
 30
0.0
  3
$MODEL_SPACE
  1

  0
ENDBLK
  5
38
  8
0
  0
BLOCK
 67
     1
  8
0
  2
$PAPER_SPACE
 70
     0
 10
0.0
 20
0.0
 30
0.0
  3
$PAPER_SPACE
  1

  0
ENDBLK
  5
36
 67
     1
  8
0
  0
BLOCK
  8
0
  2
*S0
 70
     1
 10
0.0
 20
0.0
 30
0.0
  3
*S0
  1

  0
ENDBLK
  5
ACE
  8
0
  0
BLOCK
  8
0
  2
A$C9FC5635F
 70
     0
 10
0.0
 20
0.0
 30
0.0
  3
A$C9FC5635F
  1

  0
LINE
  5
4166
  8
0
  6
CONTINUOUS
 62
     3
 10
40.7499999999999716
 20
235.119431665331291
 30
-0.0000000000000522
 11
-40.7500000000000071
 21
235.119431665331291
 31
-0.0000000000000522
210
0.0
220
1.0
230
-0.0000000000000002
  0
LINE
  5
4167
  8
0
  6
CONTINUOUS
 62
     3
 10
35.5000000000000284
 20
0.0000000000000129
 30
0.0
 11
-35.4999999999999716
 21
0.0000000000000257
 31
0.0
210
0.0
220
1.0
230
-0.0000000000000002
  0
ARC
  5
4168
  8
0
  6
CONTINUOUS
 62
     3
 10
-41.4999999999999218
 20
229.0000000000001137
 30
0.0
 40
4.9999999999999503
210
0.0
220
-0.0000000000000002
230
-1.0
 50
359.9999999999997158
 51
47.2065004727365078
  0
ARC
  5
4169
  8
0
  6
CONTINUOUS
 62
     3
 10
41.4999999999999574
 20
229.0000000000001137
 30
0.0
 40
4.9999999999999476
210
0.0
220
-0.0000000000000002
230
-1.0
 50
132.7934995272634922
 51
180.0000000000003126
  0
LINE
  5
416A
  8
0
  6
CONTINUOUS
 62
     3
 10
-38.1032097258887603
 20
232.6690347277865101
 30
-0.0000000000000517
 11
-40.7500000000000071
 21
235.119431665331291
 31
-0.0000000000000522
210
0.0
220
1.0
230
-0.0000000000000002
  0
LINE
  5
416B
  8
0
  6
CONTINUOUS
 62
     3
 10
38.1032097258887177
 20
232.6690347277865101
 30
-0.0000000000000517
 11
40.7499999999999716
 21
235.119431665331291
 31
-0.0000000000000522
210
0.0
220
1.0
230
-0.0000000000000002
  0
LINE
  5
416C
  8
0
  6
CONTINUOUS
 62
     3
 10
40.3976700511860471
 20
235.5
 30
-0.0000000000000523
 11
40.7499999999999716
 21
235.119431665331291
 31
-0.0000000000000522
210
0.0
220
1.0
230
-0.0000000000000002
  0
LINE
  5
416D
  8
0
  6
CONTINUOUS
 62
     3
 10
-40.3976700511860898
 20
235.5
 30
-0.0000000000000523
 11
-40.7500000000000071
 21
235.119431665331291
 31
-0.0000000000000522
210
0.0
220
1.0
230
-0.0000000000000002
  0
ARC
  5
416E
  8
0
  6
CONTINUOUS
 62
     3
 10
-35.5000000000016414
 20
8.0622577482984301
 30
0.0
 40
0.9999999999983941
210
0.0
220
-0.0000000000000002
230
-1.0
 50
179.9999999999955094
 51
187.1250163489087868
  0
ARC
  5
416F
  8
0
  6
CONTINUOUS
 62
     3
 10
35.5000000000015774
 20
8.0622577482984461
 30
0.0
 40
0.9999999999983941
210
0.0
220
-0.0000000000000002
230
-1.0
 50
352.8749836510912132
 51
0.0000000000044642
  0
LINE
  5
4170
  8
0
  6
CONTINUOUS
 62
     3
 10
-35.4999999999999787
 20
0.0000000000000249
 30
0.0
 11
-36.4922778767136435
 21
7.9382230137093153
 31
-0.0000000000000018
210
0.0
220
1.0
230
-0.0000000000000002
  0
LINE
  5
4171
  8
0
  6
CONTINUOUS
 62
     3
 10
35.5000000000000426
 20
0.0000000000000124
 30
0.0
 11
36.4922778767137004
 21
7.9382230137093011
 31
-0.0000000000000018
210
0.0
220
1.0
230
-0.0000000000000002
  0
LINE
  5
4172
  8
0
  6
CONTINUOUS
 62
     3
 10
-36.4999999999999716
 20
8.0622577482985225
 30
-0.0000000000000018
 11
-36.4999999999999432
 21
229.0
 31
-0.0000000000000508
210
0.0
220
1.0
230
-0.0000000000000002
  0
LINE
  5
4173
  8
0
  6
CONTINUOUS
 62
     3
 10
36.5000000000000284
 20
8.0622577482985101
 30
-0.0000000000000018
 11
36.5000000000000711
 21
229.0
 31
-0.0000000000000508
210
0.0
220
1.0
230
-0.0000000000000002
  0
LINE
  5
4174
  8
0
  6
CONTINUOUS
 62
     3
 10
51.6235332713359085
 20
257.0000000000002274
 30
-0.0000000000000571
 11
-51.6235332713360506
 21
257.0000000000001137
 31
-0.0000000000000571
210
0.0
220
1.0
230
-0.0000000000000002
  0
LINE
  5
4175
  8
0
  6
CONTINUOUS
 62
     3
 10
-122.5000000000000995
 20
265.0000000000001137
 30
-0.0000000000000588
 11
122.4999999999999005
 21
265.0000000000001137
 31
-0.0000000000000588
210
0.0
220
1.0
230
-0.0000000000000002
  0
LINE
  5
4176
  8
0
  6
CONTINUOUS
 62
     3
 10
-122.5000000000000995
 20
267.0000000000001137
 30
-0.0000000000000593
 11
122.4999999999999005
 21
267.0000000000001137
 31
-0.0000000000000593
210
0.0
220
1.0
230
-0.0000000000000002
  0
LINE
  5
4177
  8
0
  6
CONTINUOUS
 62
     3
 10
-51.6235332713360506
 20
257.0000000000001137
 30
-0.0000000000000571
 11
-54.1264667286641483
 21
263.6999093378411771
 31
-0.0000000000000586
210
0.0
220
1.0
230
-0.0000000000000002
  0
LINE
  5
4178
  8
0
  6
CONTINUOUS
 62
     3
 10
51.6235332713358872
 20
257.0000000000001137
 30
-0.0000000000000571
 11
54.1264667286639565
 21
263.6999093378411771
 31
-0.0000000000000586
210
0.0
220
1.0
230
-0.0000000000000002
  0
ARC
  5
4179
  8
0
  6
CONTINUOUS
 62
     3
 10
-55.9999999999998082
 20
263.0000000000002842
 30
0.0
 40
1.9999999999997971
210
0.0
220
-0.0000000000000002
230
-1.0
 50
20.4845424892740411
 51
90.0000000000032543
  0
ARC
  5
417A
  8
0
  6
CONTINUOUS
 62
     3
 10
56.0000000000000284
 20
263.0000000000001137
 30
0.0
 40
1.9999999999998861
210
0.0
220
-0.0000000000000002
230
-1.0
 50
89.9999999999979678
 51
159.5154575107218022
  0
LINE
  5
417B
  8
0
  6
CONTINUOUS
 62
     3
 10
122.4999999999999005
 20
267.0000000000001137
 30
-0.0000000000000593
 11
122.4999999999999005
 21
265.0000000000001137
 31
-0.0000000000000588
210
0.0
220
1.0
230
-0.0000000000000002
  0
LINE
  5
417C
  8
0
  6
CONTINUOUS
 62
     3
 10
-122.5
 20
266.9999999999998863
 30
-0.0000000000000593
 11
-122.5
 21
264.9999999999998863
 31
-0.0000000000000588
210
0.0
220
1.0
230
-0.0000000000000002
  0
LINE
  5
417D
  8
0
  6
CONTINUOUS
 62
     3
 10
50.2000000000000171
 20
269.0000000000001137
 30
-0.0000000000000597
 11
-50.2000000000000171
 21
269.0000000000001137
 31
-0.0000000000000597
210
0.0
220
1.0
230
-0.0000000000000002
  0
LINE
  5
417E
  8
0
  6
CONTINUOUS
 62
     3
 10
40.4663561740293432
 20
235.5
 30
-0.0000000000000523
 11
-40.4663561740293289
 21
235.5
 31
-0.0000000000000523
210
0.0
220
1.0
230
-0.0000000000000002
  0
ARC
  5
417F
  8
0
  6
CONTINUOUS
 62
     3
 10
-40.1999999999901121
 20
261.0000000000050022
 30
0.0
 40
10.0000000000110791
210
0.0
220
-0.0000000000000002
230
-1.0
 50
203.5781784782045918
 51
209.1143386591409978
  0
ARC
  5
4180
  8
0
  6
CONTINUOUS
 62
     3
 10
40.2000000000084299
 20
260.9999999999959073
 30
0.0
 40
9.9999999999906528
210
0.0
220
-0.0000000000000002
230
-1.0
 50
330.8856613408539147
 51
336.4218215218007231
  0
LINE
  5
4181
  8
0
  6
CONTINUOUS
 62
     3
 10
-50.2000000000000313
 20
267.0
 30
-0.0000000000000593
 11
-50.2000000000000313
 21
269.0000000000001137
 31
-0.0000000000000597
210
0.0
220
1.0
230
-0.0000000000000002
  0
LINE
  5
4182
  8
0
  6
CONTINUOUS
 62
     3
 10
50.2000000000000313
 20
267.0000000000001137
 30
-0.0000000000000593
 11
50.2000000000000313
 21
269.0000000000001137
 31
-0.0000000000000597
210
0.0
220
1.0
230
-0.0000000000000002
  0
ARC
  5
4183
  8
0
  6
CONTINUOUS
 62
     3
 10
-16.3074518232963186
 20
253.2861558683187866
 30
0.0
 40
29.9999999999999183
210
0.0
220
-0.0000000000000002
230
-1.0
 50
191.2917700051418137
 51
216.361070218876705
  0
ARC
  5
4184
  8
0
  6
CONTINUOUS
 62
     3
 10
16.3074518232964216
 20
253.2861558683187866
 30
0.0
 40
29.9999999999998188
210
0.0
220
-0.0000000000000002
230
-1.0
 50
323.6389297811231245
 51
348.7082299948580726
  0
ARC
  5
4185
  8
0
  6
CONTINUOUS
 62
     3
 10
-75.1460194773267034
 20
241.5378386942691975
 30
0.0
 40
29.9999999999997797
210
0.0
220
-0.0000000000000002
230
-1.0
 50
11.2917700051424106
 51
29.1143386591440212
  0
ARC
  5
4186
  8
0
  6
CONTINUOUS
 62
     3
 10
75.1460194773263765
 20
241.5378386942693112
 30
0.0
 40
29.9999999999994209
210
0.0
220
-0.0000000000000002
230
-1.0
 50
150.8856613408559042
 51
168.7082299948575894
  0
LINE
  5
4187
  8
0
  6
CONTINUOUS
 62
     3
 10
-42.3000000000000327
 20
-57.0000000000001279
 30
0.0000000000000127
 11
42.2999999999999829
 21
-57.0000000000001279
 31
0.0000000000000127
210
0.0
220
1.0
230
-0.0000000000000002
  0
LINE
  5
4188
  8
0
  6
CONTINUOUS
 62
     3
 10
-40.5000000000000284
 20
-62.4949548389092868
 30
0.0000000000000139
 11
40.4999999999999716
 21
-62.4949548389092868
 31
0.0000000000000139
210
0.0
220
1.0
230
-0.0000000000000002
  0
LINE
  5
4189
  8
0
  6
CONTINUOUS
 62
     3
 10
-40.5000000000000284
 20
-63.6000000000001009
 30
0.0000000000000141
 11
40.4999999999999716
 21
-63.6000000000001009
 31
0.0000000000000141
210
0.0
220
1.0
230
-0.0000000000000002
  0
LINE
  5
418A
  8
0
  6
CONTINUOUS
 62
     3
 10
-41.9000000000000625
 20
-65.0000000000001279
 30
0.0000000000000144
 11
41.8999999999999986
 21
-65.0000000000001279
 31
0.0000000000000144
210
0.0
220
1.0
230
-0.0000000000000002
  0
LINE
  5
418B
  8
0
  6
CONTINUOUS
 62
     3
 10
-41.9000000000000625
 20
-66.0000000000001137
 30
0.0000000000000147
 11
41.8999999999999986
 21
-66.0000000000001137
 31
0.0000000000000147
210
0.0
220
1.0
230
-0.0000000000000002
  0
LINE
  5
418C
  8
0
  6
CONTINUOUS
 62
     3
 10
-40.5000000000000711
 20
-67.4000000000001052
 30
0.000000000000015
 11
40.5000000000000213
 21
-67.4000000000001052
 31
0.000000000000015
210
0.0
220
1.0
230
-0.0000000000000002
  0
LINE
  5
418D
  8
0
  6
CONTINUOUS
 62
     3
 10
-40.5000000000000711
 20
-68.0000000000001279
 30
0.0000000000000151
 11
40.5000000000000213
 21
-68.0000000000001279
 31
0.0000000000000151
210
0.0
220
1.0
230
-0.0000000000000002
  0
LINE
  5
418E
  8
0
  6
CONTINUOUS
 62
     3
 10
-42.8000000000000327
 20
-72.0000000000001279
 30
0.000000000000016
 11
42.7999999999999687
 21
-72.0000000000001279
 31
0.000000000000016
210
0.0
220
1.0
230
-0.0000000000000002
  0
LINE
  5
418F
  8
0
  6
CONTINUOUS
 62
     3
 10
-34.5000000000000284
 20
-74.5000000000001279
 30
0.0000000000000165
 11
34.4999999999999716
 21
-74.5000000000001279
 31
0.0000000000000165
210
0.0
220
1.0
230
-0.0000000000000002
  0
ARC
  5
4190
  8
0
  6
CONTINUOUS
 62
     3
 10
38.8970615154280708
 20
-53.0000000000001421
 30
0.0
 40
1.0000000000000271
210
0.0
220
-0.0000000000000002
230
-1.0
 50
29.4119136655303883
 51
89.9999999999992042
  0
ARC
  5
4191
  8
0
  6
CONTINUOUS
 62
     3
 10
-38.8970615154280068
 20
-53.0000000000001421
 30
0.0
 40
1.000000000000028
210
0.0
220
-0.0000000000000002
230
-1.0
 50
90.00000000000081
 51
150.5880863344696081
  0
LINE
  5
4192
  8
0
  6
CONTINUOUS
 62
     3
 10
38.897061515428021
 20
-52.0000000000000995
 30
0.0000000000000115
 11
-38.8970615154280779
 21
-52.0000000000000995
 31
0.0000000000000115
210
0.0
220
1.0
230
-0.0000000000000002
  0
LINE
  5
4193
  8
0
  6
CONTINUOUS
 62
     3
 10
39.7681732327772792
 20
-52.5089151031677801
 30
0.0000000000000117
 11
42.2999999999999901
 21
-57.0000000000001279
 31
0.0000000000000127
210
0.0
220
1.0
230
-0.0000000000000002
  0
LINE
  5
4194
  8
0
  6
CONTINUOUS
 62
     3
 10
-39.7681732327773432
 20
-52.5089151031677801
 30
0.0000000000000117
 11
-42.3000000000000398
 21
-57.0000000000001279
 31
0.0000000000000127
210
0.0
220
1.0
230
-0.0000000000000002
  0
ARC
  5
4195
  8
0
  6
CONTINUOUS
 62
     3
 10
39.214074003371131
 20
-57.5000000000000711
 30
0.0
 40
0.5
210
0.0
220
-0.0000000000000002
230
-1.0
 50
90.0000000000016058
 51
199.9999999999990052
  0
ARC
  5
4196
  8
0
  6
CONTINUOUS
 62
     3
 10
-39.2140740033710671
 20
-57.5000000000000711
 30
0.0
 40
0.4999999999999987
210
0.0
220
-0.0000000000000002
230
-1.0
 50
339.9999999999998863
 51
89.9999999999983658
  0
LINE
  5
4197
  8
0
  6
CONTINUOUS
 62
     3
 10
38.7442276929781002
 20
-57.6710100716628915
 30
0.0000000000000128
 11
40.4999999999999787
 21
-62.4949548389092868
 31
0.0000000000000139
210
0.0
220
1.0
230
-0.0000000000000002
  0
LINE
  5
4198
  8
0
  6
CONTINUOUS
 62
     3
 10
-38.7442276929781713
 20
-57.6710100716628986
 30
0.0000000000000128
 11
-40.5000000000000284
 21
-62.4949548389092868
 31
0.0000000000000139
210
0.0
220
1.0
230
-0.0000000000000002
  0
LINE
  5
4199
  8
0
  6
CONTINUOUS
 62
     3
 10
40.4999999999999716
 20
-62.4949548389092868
 30
0.0000000000000139
 11
40.4999999999999716
 21
-63.6000000000001009
 31
0.0000000000000141
210
0.0
220
1.0
230
-0.0000000000000002
  0
LINE
  5
419A
  8
0
  6
CONTINUOUS
 62
     3
 10
-40.5000000000000284
 20
-62.4949548389092868
 30
0.0000000000000139
 11
-40.5000000000000284
 21
-63.6000000000001009
 31
0.0000000000000141
210
0.0
220
1.0
230
-0.0000000000000002
  0
LINE
  5
419B
  8
0
  6
CONTINUOUS
 62
     3
 10
40.4999999999999716
 20
-63.6000000000001009
 30
0.0000000000000141
 11
41.8999999999999986
 21
-65.0000000000001279
 31
0.0000000000000144
210
0.0
220
1.0
230
-0.0000000000000002
  0
LINE
  5
419C
  8
0
  6
CONTINUOUS
 62
     3
 10
-40.5000000000000284
 20
-63.6000000000001009
 30
0.0000000000000141
 11
-41.9000000000000625
 21
-65.0000000000001279
 31
0.0000000000000144
210
0.0
220
1.0
230
-0.0000000000000002
  0
LINE
  5
419D
  8
0
  6
CONTINUOUS
 62
     3
 10
41.8999999999999986
 20
-65.0000000000001279
 30
0.0000000000000144
 11
41.8999999999999986
 21
-66.0000000000001137
 31
0.0000000000000147
210
0.0
220
1.0
230
-0.0000000000000002
  0
LINE
  5
419E
  8
0
  6
CONTINUOUS
 62
     3
 10
-41.9000000000000625
 20
-65.0000000000001279
 30
0.0000000000000144
 11
-41.9000000000000625
 21
-66.0000000000001137
 31
0.0000000000000147
210
0.0
220
1.0
230
-0.0000000000000002
  0
LINE
  5
419F
  8
0
  6
CONTINUOUS
 62
     3
 10
-40.5000000000000782
 20
-67.4000000000001052
 30
0.000000000000015
 11
-41.9000000000000625
 21
-66.0000000000001137
 31
0.0000000000000147
210
0.0
220
1.0
230
-0.0000000000000002
  0
LINE
  5
41A0
  8
0
  6
CONTINUOUS
 62
     3
 10
40.5000000000000284
 20
-67.4000000000001052
 30
0.000000000000015
 11
41.8999999999999986
 21
-66.0000000000001137
 31
0.0000000000000147
210
0.0
220
1.0
230
-0.0000000000000002
  0
LINE
  5
41A1
  8
0
  6
CONTINUOUS
 62
     3
 10
40.5000000000000284
 20
-67.4000000000001052
 30
0.000000000000015
 11
40.5000000000000284
 21
-68.0000000000001279
 31
0.0000000000000151
210
0.0
220
1.0
230
-0.0000000000000002
  0
LINE
  5
41A2
  8
0
  6
CONTINUOUS
 62
     3
 10
-40.5000000000000782
 20
-67.4000000000001052
 30
0.000000000000015
 11
-40.5000000000000782
 21
-68.0000000000001279
 31
0.0000000000000151
210
0.0
220
1.0
230
-0.0000000000000002
  0
LINE
  5
41A3
  8
0
  6
CONTINUOUS
 62
     3
 10
40.5000000000000284
 20
-68.0000000000001279
 30
0.0000000000000151
 11
42.7999999999999829
 21
-72.0000000000001279
 31
0.000000000000016
210
0.0
220
1.0
230
-0.0000000000000002
  0
LINE
  5
41A4
  8
0
  6
CONTINUOUS
 62
     3
 10
-40.5000000000000782
 20
-68.0000000000001279
 30
0.0000000000000151
 11
-42.8000000000000327
 21
-72.0000000000001279
 31
0.000000000000016
210
0.0
220
1.0
230
-0.0000000000000002
  0
ARC
  5
41A5
  8
0
  6
CONTINUOUS
 62
     3
 10
34.5000000000000568
 20
-70.5000000000001705
 30
0.0
 40
3.9999999999999569
210
0.0
220
-0.0000000000000002
230
-1.0
 50
270.0
 51
337.9756871629587067
  0
ARC
  5
41A6
  8
0
  6
CONTINUOUS
 62
     3
 10
-34.5
 20
-70.5000000000001705
 30
0.0
 40
3.9999999999999538
210
0.0
220
-0.0000000000000002
230
-1.0
 50
202.0243128370416912
 51
270.0000000000003979
  0
LINE
  5
41A7
  8
0
  6
VERDECKT
 62
     1
 10
39.9347703342132689
 20
236.0000000000001137
 30
-0.0000000000000524
 11
-39.9347703342133329
 21
236.0000000000001137
 31
-0.0000000000000524
210
0.0
220
1.0
230
-0.0000000000000002
  0
LINE
  5
41A8
  8
0
  6
VERDECKT
 62
     1
 10
34.3092665479436292
 20
0.1488416815070639
 30
0.0
 11
-34.3092665479435723
 21
0.1488416815070762
 31
0.0
210
0.0
220
1.0
230
-0.0000000000000002
  0
LINE
  5
41A9
  8
0
  6
VERDECKT
 62
     1
 10
39.9347703342132831
 20
236.0000000000001137
 30
-0.0000000000000524
 11
40.3976700511860471
 21
235.5
 31
-0.0000000000000523
210
0.0
220
1.0
230
-0.0000000000000002
  0
LINE
  5
41AA
  8
0
  6
VERDECKT
 62
     1
 10
-39.9347703342133187
 20
236.0000000000001137
 30
-0.0000000000000524
 11
-40.3976700511860898
 21
235.5
 31
-0.0000000000000523
210
0.0
220
1.0
230
-0.0000000000000002
  0
LINE
  5
41AB
  8
0
  6
VERDECKT
 62
     1
 10
-37.2879800601020435
 20
233.5496030624553043
 30
-0.0000000000000519
 11
-39.9347703342132974
 21
236.0000000000001137
 31
-0.0000000000000524
210
0.0
220
1.0
230
-0.0000000000000002
  0
LINE
  5
41AC
  8
0
  6
VERDECKT
 62
     1
 10
37.2879800601019866
 20
233.5496030624553043
 30
-0.0000000000000519
 11
39.9347703342132618
 21
236.0000000000001137
 31
-0.0000000000000524
210
0.0
220
1.0
230
-0.0000000000000002
  0
ARC
  5
41AD
  8
0
  6
VERDECKT
 62
     1
 10
-41.4999999999999218
 20
229.0000000000001137
 30
0.0
 40
6.1999999999999451
210
0.0
220
-0.0000000000000002
230
-1.0
 50
359.9999999999997158
 51
47.206500472736252
  0
ARC
  5
41AE
  8
0
  6
VERDECKT
 62
     1
 10
41.4999999999999432
 20
229.0000000000001137
 30
0.0
 40
6.1999999999999273
210
0.0
220
-0.0000000000000002
230
-1.0
 50
132.7934995272634922
 51
180.000000000000199
  0
ARC
  5
41AF
  8
0
  6
VERDECKT
 62
     1
 10
-34.3000000000016882
 20
8.1369670462567427
 30
0.0
 40
0.9999999999983444
210
0.0
220
-0.0000000000000002
230
-1.0
 50
179.9999999999955094
 51
187.1250163489090141
  0
ARC
  5
41B0
  8
0
  6
VERDECKT
 62
     1
 10
34.3000000000015817
 20
8.1369670462567552
 30
0.0
 40
0.9999999999984012
210
0.0
220
-0.0000000000000002
230
-1.0
 50
352.8749836510912132
 51
0.0000000000045927
  0
LINE
  5
41B1
  8
0
  6
VERDECKT
 62
     1
 10
-35.2999999999999829
 20
8.1369670462568369
 30
-0.0000000000000018
 11
-35.2999999999999403
 21
229.0
 31
-0.0000000000000508
210
0.0
220
1.0
230
-0.0000000000000002
  0
LINE
  5
41B2
  8
0
  6
VERDECKT
 62
     1
 10
35.3000000000000327
 20
8.1369670462568209
 30
-0.0000000000000018
 11
35.3000000000000682
 21
229.0
 31
-0.0000000000000508
210
0.0
220
1.0
230
-0.0000000000000002
  0
LINE
  5
41B3
  8
0
  6
VERDECKT
 62
     1
 10
-34.3092665479435723
 20
0.1488416815070766
 30
0.0
 11
-35.2922778767136407
 21
8.0129323116676243
 31
-0.0000000000000018
210
0.0
220
1.0
230
-0.0000000000000002
  0
LINE
  5
41B4
  8
0
  6
VERDECKT
 62
     1
 10
34.3092665479436292
 20
0.1488416815070637
 30
0.0
 11
35.2922778767136975
 21
8.0129323116676137
 31
-0.0000000000000018
210
0.0
220
1.0
230
-0.0000000000000002
  0
LINE
  5
41B5
  8
0
  6
VERDECKT
 62
     1
 10
34.3092665479436292
 20
0.1488416815070641
 30
0.0
 11
35.5000000000000284
 21
0.0000000000000135
 31
0.0
210
0.0
220
1.0
230
-0.0000000000000002
  0
LINE
  5
41B6
  8
0
  6
VERDECKT
 62
     1
 10
-34.3092665479435723
 20
0.1488416815070764
 30
0.0
 11
-35.4999999999999716
 21
0.0000000000000263
 31
0.0
210
0.0
220
1.0
230
-0.0000000000000002
  0
LINE
  5
41B7
  8
0
  6
VERDECKT
 62
     1
 10
49.7499999999999289
 20
257.6999093378412908
 30
-0.0000000000000572
 11
-49.7500000000000711
 21
257.6999093378411771
 31
-0.0000000000000572
210
0.0
220
1.0
230
-0.0000000000000002
  0
ARC
  5
41B8
  8
0
  6
VERDECKT
 62
     1
 10
-55.9999999999998792
 20
263.0000000000001137
 30
0.0
 40
3.9999999999999192
210
0.0
220
-0.0000000000000002
230
-1.0
 50
20.4845424892783683
 51
90.0000000000007248
  0
ARC
  5
41B9
  8
0
  6
VERDECKT
 62
     1
 10
55.9999999999999432
 20
263.0000000000002274
 30
0.0
 40
3.9999999999997722
210
0.0
220
-0.0000000000000002
230
-1.0
 50
89.9999999999977547
 51
159.5154575107225128
  0
LINE
  5
41BA
  8
0
  6
VERDECKT
 62
     1
 10
-49.7500000000000497
 20
257.6999093378411771
 30
-0.0000000000000572
 11
-52.2529334573281901
 21
264.3998186756822975
 31
-0.0000000000000587
210
0.0
220
1.0
230
-0.0000000000000002
  0
LINE
  5
41BB
  8
0
  6
VERDECKT
 62
     1
 10
49.7499999999999005
 20
257.6999093378412908
 30
-0.0000000000000572
 11
52.2529334573280195
 21
264.3998186756824111
 31
-0.0000000000000587
210
0.0
220
1.0
230
-0.0000000000000002
  0
LINE
  5
41BC
  8
0
  6
VERDECKT
 62
     1
 10
49.7499999999999432
 20
257.6999093378414045
 30
-0.0000000000000572
 11
51.6235332713359227
 21
257.0000000000002274
 31
-0.0000000000000571
210
0.0
220
1.0
230
-0.0000000000000002
  0
LINE
  5
41BD
  8
0
  6
VERDECKT
 62
     1
 10
-49.7500000000000924
 20
257.6999093378411771
 30
-0.0000000000000572
 11
-51.6235332713360791
 21
257.0000000000001137
 31
-0.0000000000000571
210
0.0
220
1.0
230
-0.0000000000000002
  0
LINE
  5
41BE
  8
0
  6
VERDECKT
 62
     1
 10
39.5000000000000071
 20
236.2114462347327901
 30
-0.0000000000000524
 11
-39.5
 21
236.2114462347327901
 31
-0.0000000000000524
210
0.0
220
1.0
230
-0.0000000000000002
  0
ARC
  5
41BF
  8
0
  6
VERDECKT
 62
     1
 10
-40.1999999999998607
 20
261.0000000000001137
 30
0.0
 40
10.0000000000001705
210
0.0
220
-0.0000000000000002
230
-1.0
 50
180.000000000000199
 51
203.5781784782012949
  0
ARC
  5
41C0
  8
0
  6
VERDECKT
 62
     1
 10
40.2000000000000171
 20
261.0000000000001137
 30
0.0
 40
10.0000000000000107
210
0.0
220
-0.0000000000000002
230
-1.0
 50
336.421821521798222
 51
0.0000000000000127
  0
LINE
  5
41C1
  8
0
  6
VERDECKT
 62
     1
 10
-50.2000000000000313
 20
261.0000000000001137
 30
-0.000000000000058
 11
-50.2000000000000313
 21
267.0
 31
-0.0000000000000593
210
0.0
220
1.0
230
-0.0000000000000002
  0
LINE
  5
41C2
  8
0
  6
VERDECKT
 62
     1
 10
50.2000000000000313
 20
261.0000000000001137
 30
-0.000000000000058
 11
50.2000000000000313
 21
267.0000000000001137
 31
-0.0000000000000593
210
0.0
220
1.0
230
-0.0000000000000002
  0
LINE
  5
41C3
  8
0
  6
VERDECKT
 62
     1
 10
-49.0000000000000213
 20
261.0000000000001137
 30
-0.000000000000058
 11
-49.0000000000000213
 21
269.0000000000001137
 31
-0.0000000000000597
210
0.0
220
1.0
230
-0.0000000000000002
  0
LINE
  5
41C4
  8
0
  6
VERDECKT
 62
     1
 10
49.0000000000000213
 20
261.0000000000001137
 30
-0.000000000000058
 11
49.0000000000000213
 21
269.0000000000001137
 31
-0.0000000000000597
210
0.0
220
1.0
230
-0.0000000000000002
  0
ARC
  5
41C5
  8
0
  6
VERDECKT
 62
     1
 10
-40.2000000000000384
 20
261.0000000000001137
 30
0.0
 40
8.7999999999999812
210
0.0
220
-0.0000000000000002
230
-1.0
 50
180.0
 51
209.1143386591442095
  0
ARC
  5
41C6
  8
0
  6
VERDECKT
 62
     1
 10
40.2000000000000384
 20
261.0000000000001137
 30
0.0
 40
8.7999999999999812
210
0.0
220
-0.0000000000000002
230
-1.0
 50
330.8856613408557905
 51
0.0000000000000127
  0
ARC
  5
41C7
  8
0
  6
VERDECKT
 62
     1
 10
-75.1460194773271155
 20
241.5378386942691122
 30
0.0
 40
31.2000000000001982
210
0.0
220
-0.0000000000000002
230
-1.0
 50
11.2917700051426397
 51
29.1143386591438613
  0
ARC
  5
41C8
  8
0
  6
VERDECKT
 62
     1
 10
75.1460194773267744
 20
241.5378386942691975
 30
0.0
 40
31.1999999999998714
210
0.0
220
-0.0000000000000002
230
-1.0
 50
150.8856613408559895
 51
168.7082299948573905
  0
ARC
  5
41C9
  8
0
  6
VERDECKT
 62
     1
 10
-16.3074518232958816
 20
253.286155868319014
 30
0.0
 40
28.8000000000003809
210
0.0
220
-0.0000000000000002
230
-1.0
 50
191.2917700051420127
 51
216.3610702188765913
  0
ARC
  5
41CA
  8
0
  6
VERDECKT
 62
     1
 10
16.3074518232961303
 20
253.2861558683189003
 30
0.0
 40
28.8000000000001108
210
0.0
220
-0.0000000000000002
230
-1.0
 50
323.638929781123295
 51
348.7082299948580726
  0
LINE
  5
41CB
  8
0
  6
VERDECKT
 62
     1
 10
39.5000000000000071
 20
236.2114462347327901
 30
-0.0000000000000524
 11
40.4663561740293289
 21
235.5
 31
-0.0000000000000523
210
0.0
220
1.0
230
-0.0000000000000002
  0
LINE
  5
41CC
  8
0
  6
VERDECKT
 62
     1
 10
-39.5
 20
236.2114462347327901
 30
-0.0000000000000524
 11
-40.4663561740293289
 21
235.5
 31
-0.0000000000000523
210
0.0
220
1.0
230
-0.0000000000000002
  0
LINE
  5
41CD
  8
0
  6
VERDECKT
 62
     1
 10
-37.0000000000000284
 20
-58.0000000000001279
 30
0.0000000000000129
 11
36.9999999999999716
 21
-58.0000000000001279
 31
0.0000000000000129
210
0.0
220
1.0
230
-0.0000000000000002
  0
LINE
  5
41CE
  8
0
  6
VERDECKT
 62
     1
 10
-32.0000000000000284
 20
-73.0000000000001279
 30
0.0000000000000162
 11
31.9999999999999716
 21
-73.0000000000001279
 31
0.0000000000000162
210
0.0
220
1.0
230
-0.0000000000000002
  0
LINE
  5
41CF
  8
0
  6
VERDECKT
 62
     1
 10
36.9999999999999716
 20
-58.0000000000001279
 30
0.0000000000000129
 11
36.9999999999999716
 21
-68.0000000000001279
 31
0.0000000000000151
210
0.0
220
1.0
230
-0.0000000000000002
  0
LINE
  5
41D0
  8
0
  6
VERDECKT
 62
     1
 10
-37.0000000000000284
 20
-58.0000000000001279
 30
0.0000000000000129
 11
-37.0000000000000284
 21
-68.0000000000001279
 31
0.0000000000000151
210
0.0
220
1.0
230
-0.0000000000000002
  0
LINE
  5
41D1
  8
0
  6
VERDECKT
 62
     1
 10
-37.0000000000000284
 20
-58.0000000000001279
 30
0.0000000000000129
 11
-37.9122537624158724
 21
-52.8263518223331729
 31
0.0000000000000117
210
0.0
220
1.0
230
-0.0000000000000002
  0
LINE
  5
41D2
  8
0
  6
VERDECKT
 62
     1
 10
36.9999999999999716
 20
-58.0000000000001279
 30
0.0000000000000129
 11
37.9122537624158227
 21
-52.8263518223331729
 31
0.0000000000000117
210
0.0
220
1.0
230
-0.0000000000000002
  0
ARC
  5
41D3
  8
0
  6
VERDECKT
 62
     1
 10
38.8970615154280921
 20
-53.0000000000001066
 30
0.0
 40
1.0000000000000071
210
0.0
220
-0.0000000000000002
230
-1.0
 50
90.0000000000003979
 51
169.9999999999990052
  0
ARC
  5
41D4
  8
0
  6
VERDECKT
 62
     1
 10
-38.8970615154280281
 20
-53.0000000000001066
 30
0.0
 40
1.0000000000000071
210
0.0
220
-0.0000000000000002
230
-1.0
 50
10.0000000000009397
 51
89.9999999999995879
  0
LINE
  5
41D5
  8
0
  6
VERDECKT
 62
     1
 10
40.1756658041690287
 20
-70.4725600474013305
 30
0.0000000000000156
 11
40.9999999999999574
 21
-72.0000000000001279
 31
0.000000000000016
210
0.0
220
1.0
230
-0.0000000000000002
  0
LINE
  5
41D6
  8
0
  6
VERDECKT
 62
     1
 10
-40.1756658041690784
 20
-70.4725600474013305
 30
0.0000000000000156
 11
-41.0000000000000284
 21
-72.0000000000001279
 31
0.000000000000016
210
0.0
220
1.0
230
-0.0000000000000002
  0
ARC
  5
41D7
  8
0
  6
VERDECKT
 62
     1
 10
39.3836461788299275
 20
-70.9000000000001336
 30
0.0
 40
0.9000000000000328
210
0.0
220
-0.0000000000000002
230
-1.0
 50
28.3550060284115588
 51
89.9999999999986642
  0
ARC
  5
41D8
  8
0
  6
VERDECKT
 62
     1
 10
39.3836461788299701
 20
-70.9000000000001336
 30
0.0
 40
0.9000000000000341
210
0.0
220
-0.0000000000000002
230
-1.0
 50
90.0000000000013358
 51
175.3175831377299119
  0
ARC
  5
41D9
  8
0
  6
VERDECKT
 62
     1
 10
-39.3836461788299133
 20
-70.9000000000001336
 30
0.0
 40
0.9000000000000262
210
0.0
220
-0.0000000000000002
230
-1.0
 50
4.6824168622700792
 51
89.9999999999986358
  0
ARC
  5
41DA
  8
0
  6
VERDECKT
 62
     1
 10
-39.3836461788298706
 20
-70.9000000000001336
 30
0.0
 40
0.9000000000000341
210
0.0
220
-0.0000000000000002
230
-1.0
 50
90.0000000000013358
 51
151.6449939715884057
  0
LINE
  5
41DB
  8
0
  6
VERDECKT
 62
     1
 10
39.3836461788298919
 20
-70.0000000000001137
 30
0.0000000000000155
 11
-39.3836461788299488
 21
-70.0000000000001137
 31
0.0000000000000155
210
0.0
220
1.0
230
-0.0000000000000002
  0
ARC
  5
41DC
  8
0
  6
VERDECKT
 62
     1
 10
34.5000000000001776
 20
-70.5000000000001847
 30
0.0
 40
3.999999999999837
210
0.0
220
-0.0000000000000002
230
-1.0
 50
337.9756871629576835
 51
355.3175831377308214
  0
ARC
  5
41DD
  8
0
  6
VERDECKT
 62
     1
 10
-34.5000000000001208
 20
-70.5000000000001847
 30
0.0
 40
3.999999999999837
210
0.0
220
-0.0000000000000002
230
-1.0
 50
184.6824168622690934
 51
202.0243128370422028
  0
LINE
  5
41DE
  8
0
  6
VERDECKT
 62
     1
 10
31.9999999999999716
 20
-73.0000000000001279
 30
0.0000000000000162
 11
31.9999999999999716
 21
-74.5000000000001279
 31
0.0000000000000165
210
0.0
220
1.0
230
-0.0000000000000002
  0
LINE
  5
41DF
  8
0
  6
VERDECKT
 62
     1
 10
-32.0000000000000284
 20
-73.0000000000001279
 30
0.0000000000000162
 11
-32.0000000000000284
 21
-74.5000000000001279
 31
0.0000000000000165
210
0.0
220
1.0
230
-0.0000000000000002
  0
ARC
  5
41E0
  8
0
  6
VERDECKT
 62
     1
 10
32.0000000000000284
 20
-68.0000000000001279
 30
0.0
 40
5.0
210
0.0
220
-0.0000000000000002
230
-1.0
 50
270.0
 51
0.0
  0
ARC
  5
41E1
  8
0
  6
VERDECKT
 62
     1
 10
-31.9999999999999716
 20
-68.0000000000001279
 30
0.0
 40
5.0
210
0.0
220
-0.0000000000000002
230
-1.0
 50
180.0
 51
270.0
  0
ENDBLK
  5
41E3
  8
0
  0
BLOCK
  8
0
  2
A$CB79D7C45
 70
     0
 10
0.0
 20
0.0
 30
0.0
  3
A$CB79D7C45
  1

  0
CIRCLE
  5
41E7
  8
0
  6
CONTINUOUS
 62
     3
 10
0.0000000000000278
 20
-0.0000000000000142
 30
0.0
 40
35.3000000000000114
  0
CIRCLE
  5
41E8
  8
0
  6
CONTINUOUS
 62
     3
 10
0.0000000000000285
 20
-0.0000000000000711
 30
0.0
 40
34.3092665479436008
  0
CIRCLE
  5
41E9
  8
0
  6
CONTINUOUS
 62
     3
 10
0.0000000000000032
 20
0.0
 30
0.0
 40
122.5
  0
CIRCLE
  5
41EA
  8
0
  6
CONTINUOUS
 62
     3
 10
0.0000000000000597
 20
-0.0000000000000284
 30
0.0
 40
50.2000000000000313
  0
CIRCLE
  5
41EB
  8
0
  6
CONTINUOUS
 62
     3
 10
0.0000000000000597
 20
-0.0000000000000284
 30
0.0
 40
49.0000000000000213
  0
CIRCLE
  5
41EC
  8
0
  6
CONTINUOUS
 62
     3
 10
0.0000000000000561
 20
-0.0000000000000284
 30
0.0
 40
39.5000000000000071
  0
CIRCLE
  5
41ED
  8
0
  6
CONTINUOUS
 62
     3
 10
-0.0000000000000446
 20
-0.0016575748095115
 30
0.0
 40
32.0
  0
CIRCLE
  5
41EE
  8
0
  6
VERDECKT
 62
     1
 10
0.0000000000000278
 20
-0.0000000000000142
 30
0.0
 40
36.5
  0
CIRCLE
  5
41EF
  8
0
  6
VERDECKT
 62
     1
 10
0.0000000000000303
 20
-0.0000000000000142
 30
0.0
 40
40.7499999999999929
  0
CIRCLE
  5
41F0
  8
0
  6
VERDECKT
 62
     1
 10
0.0000000000000306
 20
-0.0000000000000142
 30
0.0
 40
39.9347703342132974
  0
CIRCLE
  5
41F1
  8
0
  6
VERDECKT
 62
     1
 10
0.0000000000000284
 20
-0.0000000000000711
 30
0.0
 40
35.5
  0
CIRCLE
  5
41F2
  8
0
  6
VERDECKT
 62
     1
 10
-0.0000000000000193
 20
0.0000000000000355
 30
0.0
 40
51.6235332713359725
  0
CIRCLE
  5
41F3
  8
0
  6
VERDECKT
 62
     1
 10
-0.0000000000000198
 20
0.0000000000000355
 30
0.0
 40
49.75
  0
CIRCLE
  5
41F4
  8
0
  6
VERDECKT
 62
     1
 10
0.000000000000056
 20
-0.0000000000000284
 30
0.0
 40
40.4663561740293289
  0
CIRCLE
  5
41F5
  8
0
  6
VERDECKT
 62
     1
 10
-0.0000000000000413
 20
-0.0016575748095106
 30
0.0
 40
37.0
  0
CIRCLE
  5
41F6
  8
0
  6
VERDECKT
 62
     1
 10
-0.0000000000000411
 20
-0.0016575748095105
 30
0.0
 40
42.3000000000000114
  0
CIRCLE
  5
41F7
  8
0
  6
VERDECKT
 62
     1
 10
-0.0000000000000423
 20
-0.0016575748095108
 30
0.0
 40
40.4999999999999929
  0
CIRCLE
  5
41F8
  8
0
  6
VERDECKT
 62
     1
 10
-0.0000000000000429
 20
-0.001657574809511
 30
0.0
 40
41.900000000000027
  0
CIRCLE
  5
41F9
  8
0
  6
VERDECKT
 62
     1
 10
-0.0000000000000444
 20
-0.0016575748095114
 30
0.0
 40
42.8000000000000114
  0
CIRCLE
  5
41FA
  8
0
  6
VERDECKT
 62
     1
 10
-0.0000000000000444
 20
-0.0016575748095114
 30
0.0
 40
41.0
  0
CIRCLE
  5
41FB
  8
0
  6
VERDECKT
 62
     1
 10
-0.0000000000000412
 20
-0.0016575748095105
 30
0.0
 40
38.7140740033711026
  0
ENDBLK
  5
41FD
  8
0
  0
ENDSEC
  0
SECTION
  2
ENTITIES
  0
TEXT
  5
3D7
  8
VOLL
 10
78.076754716981128
 20
31.025947764705851
 30
0.0
 40
1.8
  1

  7
GREEKS
  0
INSERT
  5
AD0
  8
ADSK_ASSOC_ENTITY_BACKUPS
  2
*S0
 10
0.0
 20
0.0
 30
0.0
  0
INSERT
  5
41E4
  8
STEMPEL
  2
A$C9FC5635F
 10
0.0
 20
0.0
 30
0.0
  0
INSERT
  5
41FE
  8
STEMPEL
  2
A$CB79D7C45
 10
0.0
 20
-250.0
 30
0.0
  0
VIEWPORT
  5
AAD
 67
     1
  8
0
 10
148.2552490234375
 20
209.75
 30
0.0
 40
795.6883637233959234
 41
422.1649484536083037
 68
     1
 69
     1
1001
ACAD
1000
MVIEW
1002
{
1070
    16
1010
0.0
1020
0.0
1030
0.0
1010
0.0
1020
0.0
1030
1.0
1040
0.0
1040
422.1649484536083037
1040
148.2552490234375
1040
209.75
1040
50.0
1040
0.0
1040
0.0
1070
     0
1070
  1500
1070
     1
1070
     1
1070
     0
1070
     0
1070
     0
1070
     0
1040
0.0
1040
0.0
1040
0.0
1040
10.0
1040
10.0
1040
10.0
1040
10.0
1070
     0
1002
{
1002
}
1002
}
  0
TEXT
  5
CB0
 67
     1
  8
VOLL
 10
625.5592565604117681
 20
227.4217200880700887
 30
0.0
 40
3.6000000000000001
  1

  7
GREEKS
  0
TEXT
  5
13FD
 67
     1
  8
VOLL
 10
1136.2020779486761057
 20
544.3446897115051115
 30
0.0
 40
1.8
  1

  7
GREEKS
  0
TEXT
  5
13FE
 67
     1
  8
VOLL
 10
1257.6048466178569925
 20
751.6650977567676364
 30
0.0
 40
1.8
  1

  7
GREEKS
  0
TEXT
  5
13FF
 67
     1
  8
VOLL
 10
1587.438057582276997
 20
568.0756737226744235
 30
0.0
 40
1.8
  1

  7
GREEKS
  0
TEXT
  5
1400
 67
     1
  8
VOLL
 10
1583.6057810679399154
 20
556.8718499942134486
 30
0.0
 40
1.8
  1

  7
GREEKS
  0
TEXT
  5
147D
 67
     1
  8
VOLL
 10
541.8878355258799502
 20
83.5838184280439549
 30
0.0
 40
3.6000000000000001
  1

  7
GREEKS
  0
ENDSEC
  0
EOF
