  0
SECTION
  2
HEADER
  9
$ACADVER
  1
AC1009
  9
$INSBASE
 10
0.0
 20
0.0
 30
0.0
  9
$EXTMIN
 10
1262.7955741608800508
 20
91.4634919738492584
 30
-62.4893219429152609
  9
$EXTMAX
 10
1578.7955741608800508
 20
548.7342754083562113
 30
-62.4893219429151898
  9
$LIMMIN
 10
0.0
 20
0.0
  9
$LIMMAX
 10
594.0
 20
840.0
  9
$ORTHOMODE
 70
     1
  9
$REGENMODE
 70
     1
  9
$FILLMODE
 70
     1
  9
$QTEXTMODE
 70
     0
  9
$MIRRTEXT
 70
     1
  9
$DRAGMODE
 70
     2
  9
$LTSCALE
 40
20.0
  9
$OSMODE
 70
  2495
  9
$ATTMODE
 70
     1
  9
$TEXTSIZE
 40
3.5
  9
$TRACEWID
 40
1.0
  9
$TEXTSTYLE
  7
STANDARD
  9
$CLAYER
  8
STEMPEL
  9
$CELTYPE
  6
BYLAYER
  9
$CECOLOR
 62
   256
  9
$DIMSCALE
 40
2.0
  9
$DIMASZ
 40
3.5
  9
$DIMEXO
 40
1.0
  9
$DIMDLI
 40
7.0
  9
$DIMRND
 40
0.0
  9
$DIMDLE
 40
0.0
  9
$DIMEXE
 40
1.0
  9
$DIMTP
 40
0.0
  9
$DIMTM
 40
0.0
  9
$DIMTXT
 40
3.5
  9
$DIMCEN
 40
1.5
  9
$DIMTSZ
 40
0.0
  9
$DIMTOL
 70
     0
  9
$DIMLIM
 70
     0
  9
$DIMTIH
 70
     0
  9
$DIMTOH
 70
     0
  9
$DIMSE1
 70
     0
  9
$DIMSE2
 70
     0
  9
$DIMTAD
 70
     1
  9
$DIMZIN
 70
     8
  9
$DIMBLK
  1

  9
$DIMASO
 70
     1
  9
$DIMSHO
 70
     0
  9
$DIMPOST
  1

  9
$DIMAPOST
  1

  9
$DIMALT
 70
     0
  9
$DIMALTD
 70
     2
  9
$DIMALTF
 40
25.3999999999999986
  9
$DIMLFAC
 40
1.0
  9
$DIMTOFL
 70
     1
  9
$DIMTVP
 40
0.0
  9
$DIMTIX
 70
     0
  9
$DIMSOXD
 70
     0
  9
$DIMSAH
 70
     0
  9
$DIMBLK1
  1

  9
$DIMBLK2
  1

  9
$DIMSTYLE
  2
STANDARD
  9
$DIMCLRD
 70
     0
  9
$DIMCLRE
 70
     0
  9
$DIMCLRT
 70
     1
  9
$DIMTFAC
 40
0.5142857142857143
  9
$DIMGAP
 40
1.5
  9
$LUNITS
 70
     2
  9
$LUPREC
 70
     2
  9
$SKETCHINC
 40
1.0
  9
$FILLETRAD
 40
30.0
  9
$AUNITS
 70
     0
  9
$AUPREC
 70
     0
  9
$MENU
  1
ACAD
  9
$ELEVATION
 40
0.0
  9
$PELEVATION
 40
0.0
  9
$THICKNESS
 40
0.0
  9
$LIMCHECK
 70
     0
  9
$BLIPMODE
 70
     0
  9
$CHAMFERA
 40
0.0
  9
$CHAMFERB
 40
0.0
  9
$SKPOLY
 70
     0
  9
$TDCREATE
 40
2455397.867048610933125
  9
$TDUPDATE
 40
2459684.3657870371825993
  9
$TDINDWG
 40
0.5723536921
  9
$TDUSRTIMER
 40
0.5723536921
  9
$USRTIMER
 70
     1
  9
$ANGBASE
 50
0.0
  9
$ANGDIR
 70
     0
  9
$PDMODE
 70
     0
  9
$PDSIZE
 40
0.0
  9
$PLINEWID
 40
0.0
  9
$COORDS
 70
     1
  9
$SPLFRAME
 70
     0
  9
$SPLINETYPE
 70
     6
  9
$SPLINESEGS
 70
     8
  9
$ATTDIA
 70
     1
  9
$ATTREQ
 70
     1
  9
$HANDLING
 70
     1
  9
$HANDSEED
  5
2AD7
  9
$SURFTAB1
 70
     6
  9
$SURFTAB2
 70
     6
  9
$SURFTYPE
 70
     6
  9
$SURFU
 70
     6
  9
$SURFV
 70
     6
  9
$UCSNAME
  2

  9
$UCSORG
 10
0.0
 20
0.0
 30
0.0
  9
$UCSXDIR
 10
1.0
 20
0.0
 30
0.0
  9
$UCSYDIR
 10
0.0
 20
1.0
 30
0.0
  9
$PUCSNAME
  2

  9
$PUCSORG
 10
0.0
 20
0.0
 30
0.0
  9
$PUCSXDIR
 10
1.0
 20
0.0
 30
0.0
  9
$PUCSYDIR
 10
0.0
 20
1.0
 30
0.0
  9
$USERI1
 70
     0
  9
$USERI2
 70
     0
  9
$USERI3
 70
     0
  9
$USERI4
 70
     0
  9
$USERI5
 70
     0
  9
$USERR1
 40
0.0
  9
$USERR2
 40
0.0
  9
$USERR3
 40
0.0
  9
$USERR4
 40
0.0
  9
$USERR5
 40
0.0
  9
$WORLDVIEW
 70
     1
  9
$SHADEDGE
 70
     3
  9
$SHADEDIF
 70
    70
  9
$TILEMODE
 70
     1
  9
$MAXACTVP
 70
    16
  9
$PLIMCHECK
 70
     0
  9
$PEXTMIN
 10
1.0000000000000000E+20
 20
1.0000000000000000E+20
 30
1.0000000000000000E+20
  9
$PEXTMAX
 10
-1.0000000000000000E+20
 20
-1.0000000000000000E+20
 30
-1.0000000000000000E+20
  9
$PLIMMIN
 10
-238.5602845992476091
 20
-581.3346768712735866
  9
$PLIMMAX
 10
355.4397154007525046
 20
258.6653231287264134
  9
$UNITMODE
 70
     0
  9
$VISRETAIN
 70
     0
  9
$PLINEGEN
 70
     0
  9
$PSLTSCALE
 70
     0
  0
ENDSEC
  0
SECTION
  2
TABLES
  0
TABLE
  2
VPORT
 70
     1
  0
VPORT
  2
*ACTIVE
 70
     0
 10
0.0
 20
0.0
 11
1.0
 21
1.0
 12
-1.0435390749693729
 22
-141.9259720572503056
 13
0.0
 23
0.0
 14
1.0
 24
1.0
 15
10.0
 25
10.0
 16
-0.0000000000002274
 26
0.0
 36
1125.3014274825100074
 17
1421.8391132358499362
 27
462.0248557483529908
 37
-31.2446609714575096
 40
460.5408963076977216
 41
1.7852028639618129
 42
50.0
 43
0.0
 44
0.0
 50
0.0
 51
0.0
 71
     0
 72
  1500
 73
     1
 74
     0
 75
     0
 76
     0
 77
     0
 78
     0
  0
ENDTAB
  0
TABLE
  2
LTYPE
 70
     6
  0
LTYPE
  2
CONTINUOUS
 70
     0
  3
Solid line
 72
    65
 73
     0
 40
0.0
  0
LTYPE
  2
PHANTOM2
 70
     0
  3
Phantom (.5x) ___ _ _ ___ _ _ ___ _ _ ___ _ _
 72
    65
 73
     6
 40
1.25
 49
0.625
 49
-0.125
 49
0.125
 49
-0.125
 49
0.125
 49
-0.125
  0
LTYPE
  2
VERDECKT
 70
     0
  3
Verdeckt __ __ __ __ __ __ __ __ __ __ __ __ __
 72
    65
 73
     2
 40
0.375
 49
0.25
 49
-0.125
  0
ENDTAB
  0
TABLE
  2
LAYER
 70
    14
  0
LAYER
  2
0
 70
     0
 62
     7
  6
CONTINUOUS
  0
LAYER
  2
VOLL
 70
     0
 62
     1
  6
CONTINUOUS
  0
LAYER
  2
STEMPEL
 70
     0
 62
     3
  6
CONTINUOUS
  0
LAYER
  2
DEFPOINTS
 70
     0
 62
     7
  6
CONTINUOUS
  0
LAYER
  2
ADSK_ASSOC_ENTITY_BACKUPS
 70
     1
 62
    -7
  6
CONTINUOUS
  0
ENDTAB
  0
TABLE
  2
STYLE
 70
     4
  0
STYLE
  2
STANDARD
 70
     0
 40
0.0
 41
0.8
 50
0.0
 71
     0
 42
3.5
  3
simplex.shx
  4

  0
STYLE
  2
GREEKS
 70
     0
 40
0.0
 41
0.8
 50
0.0
 71
     0
 42
2.5
  3
SIMPLEX.shx
  4

  0
ENDTAB
  0
TABLE
  2
VIEW
 70
     1
  0
ENDTAB
  0
TABLE
  2
UCS
 70
     0
  0
ENDTAB
  0
TABLE
  2
APPID
 70
    23
  0
APPID
  2
ACAD
 70
     0
  0
APPID
  2
ACAD_NAV_VCDISPLAY
 70
     0
  0
APPID
  2
ACAD_MLEADERVER
 70
     0
  0
APPID
  2
ACAECLAYERSTANDARD
 70
     0
  0
APPID
  2
ACCMTRANSPARENCY
 70
     0
  0
APPID
  2
GRADIENTCOLOR1ACI
 70
     0
  0
APPID
  2
GRADIENTCOLOR2ACI
 70
     0
  0
APPID
  2
ACAD_PSEXT
 70
     0
  0
APPID
  2
ACADANNOMONITORALERTICONDI
 70
     0
  0
APPID
  2
ACAD_EXEMPT_FROM_CAD_STANDARDS
 70
     0
  0
APPID
  2
ACAD_DSTYLE_DIMRADIAL_EXTENSION
 70
     0
  0
APPID
  2
ACAD_OBJECT_CHANGE_GUID
 70
     0
  0
APPID
  2
ACSYNERGY
 70
     0
  0
APPID
  2
SYNERGY_BODY_TBR_ID
 70
     0
  0
APPID
  2
ACAD_VIEW_EDGE_ID
 70
     0
  0
APPID
  2
ACAD_DSTYLE_DIMJAG
 70
     0
  0
APPID
  2
ACAD_DSTYLE_DIMTALN
 70
     0
  0
APPID
  2
ACSYNERGYSKETCH
 70
     0
  0
APPID
  2
ACAD_MODELDOC_XFORM
 70
     0
  0
APPID
  2
ACAD_DIMASSOC_CALC_DIMLFAC
 70
     0
  0
APPID
  2
ACAD_DIMASSOC_DIMLFAC
 70
     0
  0
APPID
  2
ACAD_DIMASSOC_OVERRIDDEN_D
 70
     0
  0
APPID
  2
AcDbAttr
 70
     0
  0
ENDTAB
  0
TABLE
  2
DIMSTYLE
 70
     2
  0
DIMSTYLE
  2
STANDARD
 70
     0
  3

  4

  5

  6

  7

 40
1.0
 41
0.18
 42
0.0625
 43
0.38
 44
0.18
 45
0.0
 46
0.0
 47
0.0
 48
0.0
140
0.18
141
0.09
142
0.0
143
25.3999999999999986
144
1.0
145
0.0
146
1.0
147
0.09
 71
     0
 72
     0
 73
     1
 74
     1
 75
     0
 76
     0
 77
     0
 78
     0
170
     0
171
     2
172
     0
173
     0
174
     0
175
     0
176
     0
177
     0
178
     0
  0
ENDTAB
  0
ENDSEC
  0
SECTION
  2
BLOCKS
  0
BLOCK
  8
0
  2
$MODEL_SPACE
 70
     0
 10
0.0
 20
0.0
 30
0.0
  3
$MODEL_SPACE
  1

  0
ENDBLK
  5
38
  8
0
  0
BLOCK
 67
     1
  8
0
  2
$PAPER_SPACE
 70
     0
 10
0.0
 20
0.0
 30
0.0
  3
$PAPER_SPACE
  1

  0
ENDBLK
  5
36
 67
     1
  8
0
  0
BLOCK
  8
0
  2
*S0
 70
     1
 10
0.0
 20
0.0
 30
0.0
  3
*S0
  1

  0
ENDBLK
  5
1E39
  8
0
  0
BLOCK
  8
0
  2
A$C48D6E363
 70
     0
 10
0.0
 20
0.0
 30
0.0
  3
A$C48D6E363
  1

  0
CIRCLE
  5
28A8
  8
0
 10
1017.3317416053389479
 20
485.312611949302493
 30
0.000000000000199
 40
158.0
  0
CIRCLE
  5
28A9
  8
0
 10
1017.3317416053389479
 20
485.312611949302493
 30
0.000000000000199
 40
156.5
  0
CIRCLE
  5
28AA
  8
0
 10
895.3317416053391753
 20
485.312611949302493
 30
0.0000000000001803
 40
4.0
  0
CIRCLE
  5
28AB
  8
0
 10
1078.3317416053389479
 20
590.9677112110040298
 30
0.0000000000002172
 40
4.0
  0
ARC
  5
28AC
  8
0
 10
1099.9368457930011118
 20
548.4980276885797821
 30
0.0000000000002215
 40
30.0000000000008491
 50
37.4127117004098722
 51
92.1816660868368558
  0
ARC
  5
28AD
  8
0
 10
1097.0817416053389479
 20
623.443663852920281
 30
0.000000000000221
 40
44.9999999999997513
 50
207.8183339131620926
 51
272.1816660868382201
  0
ARC
  5
28AE
  8
0
 10
1030.7493646904019897
 20
588.443438527715216
 30
0.0000000000002076
 40
30.0000000000027214
 50
27.8183339131649809
 51
82.5872882995883515
  0
ARC
  5
28AF
  8
0
 10
1017.3317416053389479
 20
485.3126119493028909
 30
0.0000000000002049
 40
133.9999999999996874
 50
82.5872882995905968
 51
157.4127117004092895
  0
ARC
  5
28B0
  8
0
 10
921.3090143326128327
 20
525.2580227884398028
 30
0.0000000000001856
 40
30.0000000000008313
 50
157.4127117004105116
 51
212.1816660868375095
  0
ARC
  5
28B1
  8
0
 10
857.83174160533963
 20
485.312611949302493
 30
0.0000000000001728
 40
44.9999999999997726
 50
327.8183339131618936
 51
32.1816660868380566
  0
ARC
  5
28B2
  8
0
 10
921.3090143326120369
 20
445.3672011101655244
 30
0.0000000000001856
 40
29.9999999999998792
 50
147.8183339131620073
 51
202.5872882995907958
  0
ARC
  5
28B3
  8
0
 10
1017.3317416053389479
 20
485.3126119493022088
 30
0.0000000000002049
 40
133.9999999999996021
 50
202.5872882995907105
 51
277.4127117004093748
  0
ARC
  5
28B4
  8
0
 10
1030.7493646904040361
 20
382.18178537088761
 30
0.0000000000002076
 40
30.0000000000000711
 50
277.4127117004097158
 51
332.1816660868370263
  0
ARC
  5
28B5
  8
0
 10
1097.0817416053389479
 20
347.1815600456836819
 30
0.000000000000221
 40
45.0000000000007105
 50
87.8183339131626752
 51
152.1816660868369979
  0
ARC
  5
28B6
  8
0
 10
1099.9368457930020213
 20
422.1271962100237829
 30
0.0000000000002215
 40
29.99999999999946
 50
267.8183339131613252
 51
322.5872882995910231
  0
ARC
  5
28B7
  8
0
 10
1017.3317416053370152
 20
485.312611949302493
 30
0.0000000000002049
 40
134.0000000000013927
 50
322.58728829959108
 51
37.4127117004087424
  0
CIRCLE
  5
28B8
  8
0
 10
1078.3317416053389479
 20
379.6575126876008994
 30
0.0000000000002172
 40
4.0
  0
LINE
  5
28B9
  8
0
  6
VERDECKT
 62
     1
 10
1066.2712304154599678
 20
336.6614214562425786
 30
0.0000000000002132
 11
1066.7402989983049792
 21
335.2366496623794205
 31
0.0000000000002133
  0
LINE
  5
28BA
  8
0
  6
VERDECKT
 62
     1
 10
1133.3201568744420911
 20
378.0247397392428184
 30
0.0000000000002274
 11
1132.219001033279028
 21
379.0432954880724878
 31
0.0000000000002272
  0
LINE
  5
28BB
  8
0
  6
VERDECKT
 62
     1
 10
1172.8798190057279953
 20
468.0776005758629026
 30
0.0000000000002416
 11
1174.3706951469459909
 21
467.9124087735615944
 31
0.0000000000002419
  0
LINE
  5
28BC
  8
0
  6
VERDECKT
 62
     1
 10
1163.1075519181990785
 20
546.2503927394581069
 30
0.0000000000002274
 11
1161.7236043519380928
 21
545.671869504108372
 31
0.0000000000002271
  0
LINE
  5
28BD
  8
0
  6
VERDECKT
 62
     1
 10
1012.2545259348739819
 20
641.7302320598117831
 30
0.000000000000199
 11
1012.2058625258930533
 21
643.2294424762064864
 31
0.0000000000001989
  0
LINE
  5
28BE
  8
0
  6
VERDECKT
 62
     1
 10
936.2681586897710986
 20
620.9322842866549763
 30
0.0000000000001847
 11
937.0377496668176036
 21
619.644755751806656
 31
0.0000000000001849
  0
LINE
  5
28BF
  8
0
  6
VERDECKT
 62
     1
 10
872.9401181018522493
 20
545.672441820064023
 30
0.0000000000001705
 11
871.5561728286559173
 21
546.2509705408700711
 31
0.0000000000001703
  0
LINE
  5
28C0
  8
0
  6
VERDECKT
 62
     1
 10
860.2927190969370486
 20
467.9130312185606044
 30
0.0000000000001705
 11
861.7835958929028948
 21
468.0782171115740198
 31
0.0000000000001708
  0
LINE
  5
28C1
  8
0
  6
VERDECKT
 62
     1
 10
902.4440609656745664
 20
379.0437508599014222
 30
0.0000000000001847
 11
901.3429010873393281
 21
378.0251994756579279
 31
0.0000000000001845
  0
LINE
  5
28C2
  8
0
  6
VERDECKT
 62
     1
 10
967.9225893666441607
 20
335.2368455009732884
 30
0.000000000000199
 11
968.3916635967583488
 21
336.6616154356094057
 31
0.000000000000199
  0
LINE
  5
28C3
  8
0
  6
VERDECKT
 62
     1
 10
863.2287904589917389
 20
458.026526704503226
 30
0.0000000000001705
 11
861.7517653681320553
 21
457.7649987309109179
 31
0.0000000000001702
  0
LINE
  5
28C4
  8
0
  6
VERDECKT
 62
     1
 10
894.6290326774435471
 20
385.7734476884140804
 30
0.0000000000001847
 11
895.793931812835126
 21
386.7184397541819862
 31
0.000000000000185
  0
LINE
  5
28C5
  8
0
  6
VERDECKT
 62
     1
 10
928.4947659846103534
 20
614.1545374338359125
 30
0.0000000000001847
 11
927.6432933748270671
 21
615.3894440678730007
 31
0.0000000000001846
  0
LINE
  5
28C6
  8
0
  6
VERDECKT
 62
     1
 10
875.8151855781377435
 20
555.5768586911552802
 30
0.0000000000001705
 11
877.1586971859909454
 21
554.9097930575302371
 31
0.0000000000001708
  0
LINE
  5
28C7
  8
0
  6
VERDECKT
 62
     1
 10
1157.5050618813070287
 20
554.9092374624036665
 30
0.0000000000002274
 11
1158.8485761331530739
 21
555.5762977708360495
 31
0.0000000000002276
  0
LINE
  5
28C8
  8
0
  6
VERDECKT
 62
     1
 10
1107.0207054120410248
 20
615.3890885747100583
 30
0.0000000000002274
 11
1106.1692279075471106
 21
614.1541853156080606
 31
0.0000000000002272
  0
LINE
  5
28C9
  8
0
  6
VERDECKT
 62
     1
 10
1138.8691606057209356
 20
386.7179580236182233
 30
0.0000000000002274
 11
1140.0340559955009212
 21
385.7729613406244198
 31
0.0000000000002276
  0
LINE
  5
28CA
  8
0
  6
VERDECKT
 62
     1
 10
1172.9116086526798881
 20
457.7643820691163796
 30
0.0000000000002416
 11
1171.4345845984339576
 21
458.0259158970927729
 31
0.0000000000002413
  0
LINE
  5
28CB
  8
0
  6
VERDECKT
 62
     1
 10
978.1353583178903364
 20
333.8005875512918124
 30
0.000000000000199
 11
977.7596741330264649
 21
332.3483956241544206
 31
0.0000000000001989
  0
LINE
  5
28CC
  8
0
  6
VERDECKT
 62
     1
 10
1056.903202783244069
 20
332.3482387761823134
 30
0.0000000000002132
 11
1056.5275243543389934
 21
333.8004321923828002
 31
0.0000000000002131
  0
LINE
  5
28CD
  8
0
  6
VERDECKT
 62
     1
 10
1097.6262659866199556
 20
619.6444374947924416
 30
0.0000000000002274
 11
1098.3958620669520769
 21
620.9319629792538535
 31
0.0000000000002275
  0
LINE
  5
28CE
  8
0
  6
VERDECKT
 62
     1
 10
1022.4582466091900415
 20
643.2294221578597444
 30
0.000000000000199
 11
1022.4095772578880315
 21
641.7302119343607956
 31
0.0000000000001989
  0
ENDBLK
  5
28D0
  8
0
  0
BLOCK
  8
0
  2
A$CE7340A23
 70
     0
 10
0.0
 20
0.0
 30
0.0
  3
A$CE7340A23
  1

  0
LINE
  5
28D4
  8
0
 10
1133.3201568744420911
 20
0.0
 30
0.0
 11
1066.7402989983049792
 21
0.0
 31
0.0
210
0.0
220
1.0
230
-0.0000000000000002
  0
LINE
  5
28D5
  8
0
 10
1172.9116086526798881
 20
0.0
 30
0.0
 11
1140.0340559955009212
 21
0.0
 31
0.0
210
0.0
220
1.0
230
-0.0000000000000002
  0
LINE
  5
28D6
  8
0
 10
1175.3317416053389479
 20
0.0
 30
0.0
 11
1174.3706951469459909
 21
0.0
 31
0.0
210
0.0
220
1.0
230
-0.0000000000000002
  0
LINE
  5
28D7
  8
0
 10
860.2927190969370486
 20
0.0
 30
0.0
 11
859.3317416053390616
 21
0.0
 31
0.0
210
0.0
220
1.0
230
-0.0000000000000002
  0
LINE
  5
28D8
  8
0
 10
894.6290326774435471
 20
0.0
 30
0.0
 11
861.7517653681320553
 21
0.0
 31
0.0
210
0.0
220
1.0
230
-0.0000000000000002
  0
LINE
  5
28D9
  8
0
 10
1056.903202783244069
 20
0.0
 30
0.0
 11
977.7596741330266923
 21
0.0
 31
0.0
210
0.0
220
1.0
230
-0.0000000000000002
  0
LINE
  5
28DA
  8
0
 10
967.9225893666441607
 20
0.0
 30
0.0
 11
901.3429010873391007
 21
0.0
 31
0.0
210
0.0
220
1.0
230
-0.0000000000000002
  0
LINE
  5
28DB
  8
0
 10
1175.3317416053389479
 20
-5.0
 30
0.0000000000000011
 11
859.3317416053390616
 21
-5.0
 31
0.0000000000000011
210
0.0
220
1.0
230
-0.0000000000000002
  0
LINE
  5
28DC
  8
0
 10
1066.7402989983049792
 20
0.0
 30
0.0
 11
1066.7402989983049792
 21
9.9999999999999982
 31
-0.0000000000000022
210
0.0
220
1.0
230
-0.0000000000000002
  0
LINE
  5
28DD
  8
0
 10
1132.219001033279028
 20
0.0
 30
0.0
 11
1132.219001033279028
 21
10.0
 31
-0.0000000000000022
210
0.0
220
1.0
230
-0.0000000000000002
  0
LINE
  5
28DE
  8
0
 10
1133.3201568744420911
 20
9.9999999999999982
 30
-0.0000000000000022
 11
1133.3201568744420911
 21
0.0
 31
0.0
210
0.0
220
1.0
230
-0.0000000000000002
  0
LINE
  5
28DF
  8
0
 10
1133.3201568744420911
 20
10.0
 30
-0.0000000000000022
 11
1066.7402989983049792
 21
10.0
 31
-0.0000000000000022
210
0.0
220
1.0
230
-0.0000000000000002
  0
LINE
  5
28E0
  8
0
 10
1174.3706951469459909
 20
0.0
 30
0.0
 11
1174.3706951469459909
 21
9.9999999999999982
 31
-0.0000000000000022
210
0.0
220
1.0
230
-0.0000000000000002
  0
LINE
  5
28E1
  8
0
 10
1161.7236043519380928
 20
0.0
 30
0.0
 11
1161.7236043519380928
 21
10.0
 31
-0.0000000000000022
210
0.0
220
1.0
230
-0.0000000000000002
  0
LINE
  5
28E2
  8
0
 10
1163.1075519181990785
 20
9.9999999999999982
 30
-0.0000000000000022
 11
1163.1075519181990785
 21
0.0
 31
0.0
210
0.0
220
1.0
230
-0.0000000000000002
  0
LINE
  5
28E3
  8
0
 10
1175.3317416053389479
 20
10.0
 30
-0.0000000000000022
 11
1174.3706951469459909
 21
10.0
 31
-0.0000000000000022
210
0.0
220
1.0
230
-0.0000000000000002
  0
LINE
  5
28E4
  8
0
 10
1097.6262659866199556
 20
10.0
 30
-0.0000000000000022
 11
1097.6262659866199556
 21
0.0
 31
0.0
210
0.0
220
1.0
230
-0.0000000000000002
  0
LINE
  5
28E5
  8
0
 10
1022.4095772578880315
 20
0.0
 30
0.0
 11
1022.4095772578880315
 21
10.0
 31
-0.0000000000000022
210
0.0
220
1.0
230
-0.0000000000000002
  0
LINE
  5
28E6
  8
0
 10
1022.4582466091909509
 20
9.9999999999999982
 30
-0.0000000000000022
 11
1022.4582466091909509
 21
0.0
 31
0.0
210
0.0
220
1.0
230
-0.0000000000000002
  0
LINE
  5
28E7
  8
0
 10
928.4947659846103534
 20
10.0
 30
-0.0000000000000022
 11
928.4947659846103534
 21
0.0
 31
0.0
210
0.0
220
1.0
230
-0.0000000000000002
  0
LINE
  5
28E8
  8
0
 10
927.6432933748269534
 20
0.0
 30
0.0
 11
927.6432933748269534
 21
9.9999999999999982
 31
-0.0000000000000022
210
0.0
220
1.0
230
-0.0000000000000002
  0
LINE
  5
28E9
  8
0
 10
877.1586971859909454
 20
0.0
 30
0.0
 11
877.1586971859909454
 21
10.0
 31
-0.0000000000000022
210
0.0
220
1.0
230
-0.0000000000000002
  0
LINE
  5
28EA
  8
0
 10
863.2287904589917389
 20
10.0
 30
-0.0000000000000022
 11
863.2287904589917389
 21
0.0
 31
0.0
210
0.0
220
1.0
230
-0.0000000000000002
  0
LINE
  5
28EB
  8
0
 10
861.7517653681320553
 20
0.0
 30
0.0
 11
861.7517653681320553
 21
9.9999999999999982
 31
-0.0000000000000022
210
0.0
220
1.0
230
-0.0000000000000002
  0
LINE
  5
28EC
  8
0
 10
894.6290326774435471
 20
10.0
 30
-0.0000000000000022
 11
894.6290326774435471
 21
0.0
 31
0.0
210
0.0
220
1.0
230
-0.0000000000000002
  0
LINE
  5
28ED
  8
0
 10
894.6290326774435471
 20
10.0
 30
-0.0000000000000022
 11
861.7517653681320553
 21
10.0
 31
-0.0000000000000022
210
0.0
220
1.0
230
-0.0000000000000002
  0
LINE
  5
28EE
  8
0
 10
978.1353583178903364
 20
25.0000000000000107
 30
-0.0000000000000056
 11
978.1353583178903364
 21
15.0
 31
-0.0000000000000033
210
0.0
220
1.0
230
-0.0000000000000002
  0
LINE
  5
28EF
  8
0
 10
977.7596741330264649
 20
15.0
 30
-0.0000000000000033
 11
977.7596741330264649
 21
25.0000000000000107
 31
-0.0000000000000056
210
0.0
220
1.0
230
-0.0000000000000002
  0
LINE
  5
28F0
  8
0
 10
977.7596741330264649
 20
15.0
 30
-0.0000000000000033
 11
1056.903202783244069
 21
15.0
 31
-0.0000000000000033
210
0.0
220
1.0
230
-0.0000000000000002
  0
LINE
  5
28F1
  8
0
 10
1056.5275243543389934
 20
15.0
 30
-0.0000000000000033
 11
1056.5275243543389934
 21
25.0000000000000107
 31
-0.0000000000000056
210
0.0
220
1.0
230
-0.0000000000000002
  0
LINE
  5
28F2
  8
0
 10
1056.903202783244069
 20
25.0000000000000107
 30
-0.0000000000000056
 11
1056.903202783244069
 21
15.0
 31
-0.0000000000000033
210
0.0
220
1.0
230
-0.0000000000000002
  0
LINE
  5
28F3
  8
0
 10
1056.903202783244069
 20
25.0000000000000107
 30
-0.0000000000000056
 11
977.7596741330264649
 21
25.0000000000000107
 31
-0.0000000000000056
210
0.0
220
1.0
230
-0.0000000000000002
  0
LINE
  5
28F4
  8
0
 10
1140.0340559955009212
 20
15.0
 30
-0.0000000000000033
 11
1140.0340559955009212
 21
25.0000000000000107
 31
-0.0000000000000056
210
0.0
220
1.0
230
-0.0000000000000002
  0
LINE
  5
28F5
  8
0
 10
1140.0340559955009212
 20
15.0
 30
-0.0000000000000033
 11
1172.9116086526798881
 21
15.0
 31
-0.0000000000000033
210
0.0
220
1.0
230
-0.0000000000000002
  0
LINE
  5
28F6
  8
0
 10
1171.4345845984330481
 20
15.0
 30
-0.0000000000000033
 11
1171.4345845984330481
 21
25.0000000000000107
 31
-0.0000000000000056
210
0.0
220
1.0
230
-0.0000000000000002
  0
LINE
  5
28F7
  8
0
 10
1172.9116086526798881
 20
25.0000000000000107
 30
-0.0000000000000056
 11
1172.9116086526798881
 21
15.0
 31
-0.0000000000000033
210
0.0
220
1.0
230
-0.0000000000000002
  0
LINE
  5
28F8
  8
0
 10
1172.9116086526798881
 20
25.0000000000000107
 30
-0.0000000000000056
 11
1140.0340559955009212
 21
25.0000000000000107
 31
-0.0000000000000056
210
0.0
220
1.0
230
-0.0000000000000002
  0
LINE
  5
28F9
  8
0
 10
1157.5050618813070287
 20
25.0000000000000107
 30
-0.0000000000000056
 11
1157.5050618813070287
 21
15.0
 31
-0.0000000000000033
210
0.0
220
1.0
230
-0.0000000000000002
  0
LINE
  5
28FA
  8
0
 10
1106.1692279075471106
 20
15.0
 30
-0.0000000000000033
 11
1106.1692279075471106
 21
25.0000000000000107
 31
-0.0000000000000056
210
0.0
220
1.0
230
-0.0000000000000002
  0
LINE
  5
28FB
  8
0
 10
1107.0207054120410248
 20
25.0000000000000107
 30
-0.0000000000000056
 11
1107.0207054120410248
 21
15.0
 31
-0.0000000000000033
210
0.0
220
1.0
230
-0.0000000000000002
  0
LINE
  5
28FC
  8
0
 10
1012.2545259348739819
 20
25.0000000000000107
 30
-0.0000000000000056
 11
1012.2545259348739819
 21
15.0
 31
-0.0000000000000033
210
0.0
220
1.0
230
-0.0000000000000002
  0
LINE
  5
28FD
  8
0
 10
1012.2058625258930533
 20
15.0
 30
-0.0000000000000033
 11
1012.2058625258930533
 21
25.0000000000000107
 31
-0.0000000000000056
210
0.0
220
1.0
230
-0.0000000000000002
  0
LINE
  5
28FE
  8
0
 10
937.037749666817831
 20
15.0
 30
-0.0000000000000033
 11
937.037749666817831
 21
25.0000000000000107
 31
-0.0000000000000056
210
0.0
220
1.0
230
-0.0000000000000002
  0
LINE
  5
28FF
  8
0
 10
872.9401181018522493
 20
25.0000000000000107
 30
-0.0000000000000056
 11
872.9401181018522493
 21
15.0
 31
-0.0000000000000033
210
0.0
220
1.0
230
-0.0000000000000002
  0
LINE
  5
2900
  8
0
 10
871.5561728286559173
 20
15.0
 30
-0.0000000000000033
 11
871.5561728286559173
 21
25.0000000000000107
 31
-0.0000000000000056
210
0.0
220
1.0
230
-0.0000000000000002
  0
LINE
  5
2901
  8
0
 10
859.3317416053390616
 20
15.0
 30
-0.0000000000000033
 11
860.2927190969370486
 21
15.0
 31
-0.0000000000000033
210
0.0
220
1.0
230
-0.0000000000000002
  0
LINE
  5
2902
  8
0
 10
860.2927190969370486
 20
25.0000000000000107
 30
-0.0000000000000056
 11
860.2927190969370486
 21
15.0
 31
-0.0000000000000033
210
0.0
220
1.0
230
-0.0000000000000002
  0
LINE
  5
2903
  8
0
 10
860.2927190969370486
 20
25.0000000000000107
 30
-0.0000000000000056
 11
859.3317416053390616
 21
25.0000000000000107
 31
-0.0000000000000056
210
0.0
220
1.0
230
-0.0000000000000002
  0
LINE
  5
2904
  8
0
 10
902.4440609656745664
 20
25.0000000000000107
 30
-0.0000000000000056
 11
902.4440609656745664
 21
15.0
 31
-0.0000000000000033
210
0.0
220
1.0
230
-0.0000000000000002
  0
LINE
  5
2905
  8
0
 10
901.3429010873393281
 20
15.0
 30
-0.0000000000000033
 11
901.3429010873393281
 21
25.0000000000000107
 31
-0.0000000000000056
210
0.0
220
1.0
230
-0.0000000000000002
  0
LINE
  5
2906
  8
0
 10
901.3429010873391007
 20
15.0
 30
-0.0000000000000033
 11
967.9225893666441607
 21
15.0
 31
-0.0000000000000033
210
0.0
220
1.0
230
-0.0000000000000002
  0
LINE
  5
2907
  8
0
 10
967.9225893666441607
 20
25.0000000000000107
 30
-0.0000000000000056
 11
967.9225893666441607
 21
15.0
 31
-0.0000000000000033
210
0.0
220
1.0
230
-0.0000000000000002
  0
LINE
  5
2908
  8
0
 10
967.922589366644047
 20
25.0000000000000107
 30
-0.0000000000000056
 11
901.3429010873391007
 21
25.0000000000000107
 31
-0.0000000000000056
210
0.0
220
1.0
230
-0.0000000000000002
  0
LINE
  5
2909
  8
0
 10
1066.7402989983049792
 20
30.0000000000000107
 30
-0.0000000000000067
 11
1066.7402989983049792
 21
40.0
 31
-0.0000000000000089
210
0.0
220
1.0
230
-0.0000000000000002
  0
LINE
  5
290A
  8
0
 10
1066.7402989983049792
 20
30.0000000000000107
 30
-0.0000000000000067
 11
1133.3201568744420911
 21
30.0000000000000107
 31
-0.0000000000000067
210
0.0
220
1.0
230
-0.0000000000000002
  0
LINE
  5
290B
  8
0
 10
1132.219001033279028
 20
30.0000000000000107
 30
-0.0000000000000067
 11
1132.219001033279028
 21
40.0
 31
-0.0000000000000089
210
0.0
220
1.0
230
-0.0000000000000002
  0
LINE
  5
290C
  8
0
 10
1133.3201568744420911
 20
40.0
 30
-0.0000000000000089
 11
1133.3201568744420911
 21
30.0000000000000107
 31
-0.0000000000000067
210
0.0
220
1.0
230
-0.0000000000000002
  0
LINE
  5
290D
  8
0
 10
1133.3201568744420911
 20
40.0
 30
-0.0000000000000089
 11
1066.7402989983049792
 21
40.0
 31
-0.0000000000000089
210
0.0
220
1.0
230
-0.0000000000000002
  0
LINE
  5
290E
  8
0
 10
1174.3706951469459909
 20
30.0000000000000107
 30
-0.0000000000000067
 11
1174.3706951469459909
 21
40.0
 31
-0.0000000000000089
210
0.0
220
1.0
230
-0.0000000000000002
  0
LINE
  5
290F
  8
0
 10
1174.3706951469450814
 20
30.0000000000000107
 30
-0.0000000000000067
 11
1175.3317416053389479
 21
30.0000000000000107
 31
-0.0000000000000067
210
0.0
220
1.0
230
-0.0000000000000002
  0
LINE
  5
2910
  8
0
 10
1161.7236043519380928
 20
30.0000000000000107
 30
-0.0000000000000067
 11
1161.7236043519380928
 21
40.0
 31
-0.0000000000000089
210
0.0
220
1.0
230
-0.0000000000000002
  0
LINE
  5
2911
  8
0
 10
1163.1075519181990785
 20
40.0
 30
-0.0000000000000089
 11
1163.1075519181990785
 21
30.0000000000000107
 31
-0.0000000000000067
210
0.0
220
1.0
230
-0.0000000000000002
  0
LINE
  5
2912
  8
0
 10
1175.3317416053389479
 20
40.0
 30
-0.0000000000000089
 11
1174.3706951469459909
 21
40.0
 31
-0.0000000000000089
210
0.0
220
1.0
230
-0.0000000000000002
  0
LINE
  5
2913
  8
0
 10
1097.6262659866199556
 20
40.0
 30
-0.0000000000000089
 11
1097.6262659866199556
 21
30.0000000000000107
 31
-0.0000000000000067
210
0.0
220
1.0
230
-0.0000000000000002
  0
LINE
  5
2914
  8
0
 10
1022.4095772578880315
 20
30.0000000000000107
 30
-0.0000000000000067
 11
1022.4095772578880315
 21
40.0
 31
-0.0000000000000089
210
0.0
220
1.0
230
-0.0000000000000002
  0
LINE
  5
2915
  8
0
 10
1022.4582466091909509
 20
40.0
 30
-0.0000000000000089
 11
1022.4582466091909509
 21
30.0000000000000107
 31
-0.0000000000000067
210
0.0
220
1.0
230
-0.0000000000000002
  0
LINE
  5
2916
  8
0
 10
928.4947659846103534
 20
40.0
 30
-0.0000000000000089
 11
928.4947659846103534
 21
30.0000000000000107
 31
-0.0000000000000067
210
0.0
220
1.0
230
-0.0000000000000002
  0
LINE
  5
2917
  8
0
 10
927.6432933748269534
 20
30.0000000000000107
 30
-0.0000000000000067
 11
927.6432933748269534
 21
40.0
 31
-0.0000000000000089
210
0.0
220
1.0
230
-0.0000000000000002
  0
LINE
  5
2918
  8
0
 10
877.1586971859909454
 20
30.0000000000000107
 30
-0.0000000000000067
 11
877.1586971859909454
 21
40.0
 31
-0.0000000000000089
210
0.0
220
1.0
230
-0.0000000000000002
  0
LINE
  5
2919
  8
0
 10
863.2287904589917389
 20
40.0
 30
-0.0000000000000089
 11
863.2287904589917389
 21
30.0000000000000107
 31
-0.0000000000000067
210
0.0
220
1.0
230
-0.0000000000000002
  0
LINE
  5
291A
  8
0
 10
861.7517653681320553
 20
30.0000000000000107
 30
-0.0000000000000067
 11
861.7517653681320553
 21
40.0
 31
-0.0000000000000089
210
0.0
220
1.0
230
-0.0000000000000002
  0
LINE
  5
291B
  8
0
 10
861.7517653681320553
 20
30.0000000000000107
 30
-0.0000000000000067
 11
894.6290326774435471
 21
30.0000000000000107
 31
-0.0000000000000067
210
0.0
220
1.0
230
-0.0000000000000002
  0
LINE
  5
291C
  8
0
 10
894.6290326774435471
 20
40.0
 30
-0.0000000000000089
 11
894.6290326774435471
 21
30.0000000000000107
 31
-0.0000000000000067
210
0.0
220
1.0
230
-0.0000000000000002
  0
LINE
  5
291D
  8
0
 10
894.6290326774435471
 20
40.0
 30
-0.0000000000000089
 11
861.7517653681320553
 21
40.0
 31
-0.0000000000000089
210
0.0
220
1.0
230
-0.0000000000000002
  0
LINE
  5
291E
  8
0
 10
978.1353583178903364
 20
55.0000000000000071
 30
-0.0000000000000122
 11
978.1353583178903364
 21
45.0
 31
-0.00000000000001
210
0.0
220
1.0
230
-0.0000000000000002
  0
LINE
  5
291F
  8
0
 10
977.7596741330264649
 20
45.0
 30
-0.00000000000001
 11
977.7596741330264649
 21
55.0000000000000071
 31
-0.0000000000000122
210
0.0
220
1.0
230
-0.0000000000000002
  0
LINE
  5
2920
  8
0
 10
977.7596741330264649
 20
45.0
 30
-0.00000000000001
 11
1056.903202783244069
 21
45.0
 31
-0.00000000000001
210
0.0
220
1.0
230
-0.0000000000000002
  0
LINE
  5
2921
  8
0
 10
1056.5275243543389934
 20
45.0
 30
-0.00000000000001
 11
1056.5275243543389934
 21
55.0000000000000071
 31
-0.0000000000000122
210
0.0
220
1.0
230
-0.0000000000000002
  0
LINE
  5
2922
  8
0
 10
1056.903202783244069
 20
55.0000000000000071
 30
-0.0000000000000122
 11
1056.903202783244069
 21
45.0
 31
-0.00000000000001
210
0.0
220
1.0
230
-0.0000000000000002
  0
LINE
  5
2923
  8
0
 10
1056.903202783244069
 20
55.0000000000000071
 30
-0.0000000000000122
 11
977.7596741330264649
 21
55.0000000000000071
 31
-0.0000000000000122
210
0.0
220
1.0
230
-0.0000000000000002
  0
LINE
  5
2924
  8
0
 10
1140.0340559955009212
 20
45.0
 30
-0.00000000000001
 11
1140.0340559955009212
 21
55.0000000000000071
 31
-0.0000000000000122
210
0.0
220
1.0
230
-0.0000000000000002
  0
LINE
  5
2925
  8
0
 10
1140.0340559955009212
 20
45.0
 30
-0.00000000000001
 11
1172.9116086526798881
 21
45.0
 31
-0.00000000000001
210
0.0
220
1.0
230
-0.0000000000000002
  0
LINE
  5
2926
  8
0
 10
1171.4345845984330481
 20
45.0
 30
-0.00000000000001
 11
1171.4345845984330481
 21
55.0000000000000071
 31
-0.0000000000000122
210
0.0
220
1.0
230
-0.0000000000000002
  0
LINE
  5
2927
  8
0
 10
1172.9116086526798881
 20
55.0000000000000071
 30
-0.0000000000000122
 11
1172.9116086526798881
 21
45.0
 31
-0.00000000000001
210
0.0
220
1.0
230
-0.0000000000000002
  0
LINE
  5
2928
  8
0
 10
1172.9116086526798881
 20
55.0000000000000071
 30
-0.0000000000000122
 11
1140.0340559955009212
 21
55.0000000000000071
 31
-0.0000000000000122
210
0.0
220
1.0
230
-0.0000000000000002
  0
LINE
  5
2929
  8
0
 10
1157.5050618813070287
 20
55.0000000000000071
 30
-0.0000000000000122
 11
1157.5050618813070287
 21
45.0
 31
-0.00000000000001
210
0.0
220
1.0
230
-0.0000000000000002
  0
LINE
  5
292A
  8
0
 10
1106.1692279075471106
 20
45.0
 30
-0.00000000000001
 11
1106.1692279075471106
 21
55.0000000000000071
 31
-0.0000000000000122
210
0.0
220
1.0
230
-0.0000000000000002
  0
LINE
  5
292B
  8
0
 10
1107.0207054120410248
 20
55.0000000000000071
 30
-0.0000000000000122
 11
1107.0207054120410248
 21
45.0
 31
-0.00000000000001
210
0.0
220
1.0
230
-0.0000000000000002
  0
LINE
  5
292C
  8
0
 10
1012.2545259348739819
 20
55.0000000000000071
 30
-0.0000000000000122
 11
1012.2545259348739819
 21
45.0
 31
-0.00000000000001
210
0.0
220
1.0
230
-0.0000000000000002
  0
LINE
  5
292D
  8
0
 10
1012.2058625258930533
 20
45.0
 30
-0.00000000000001
 11
1012.2058625258930533
 21
55.0000000000000071
 31
-0.0000000000000122
210
0.0
220
1.0
230
-0.0000000000000002
  0
LINE
  5
292E
  8
0
 10
937.037749666817831
 20
45.0
 30
-0.00000000000001
 11
937.037749666817831
 21
55.0000000000000071
 31
-0.0000000000000122
210
0.0
220
1.0
230
-0.0000000000000002
  0
LINE
  5
292F
  8
0
 10
872.9401181018522493
 20
55.0000000000000071
 30
-0.0000000000000122
 11
872.9401181018522493
 21
45.0
 31
-0.00000000000001
210
0.0
220
1.0
230
-0.0000000000000002
  0
LINE
  5
2930
  8
0
 10
871.5561728286559173
 20
45.0
 30
-0.00000000000001
 11
871.5561728286559173
 21
55.0000000000000071
 31
-0.0000000000000122
210
0.0
220
1.0
230
-0.0000000000000002
  0
LINE
  5
2931
  8
0
 10
859.3317416053390616
 20
45.0
 30
-0.00000000000001
 11
860.2927190969370486
 21
45.0
 31
-0.00000000000001
210
0.0
220
1.0
230
-0.0000000000000002
  0
LINE
  5
2932
  8
0
 10
860.2927190969370486
 20
55.0000000000000071
 30
-0.0000000000000122
 11
860.2927190969370486
 21
45.0
 31
-0.00000000000001
210
0.0
220
1.0
230
-0.0000000000000002
  0
LINE
  5
2933
  8
0
 10
860.2927190969370486
 20
55.0000000000000071
 30
-0.0000000000000122
 11
859.3317416053390616
 21
55.0000000000000071
 31
-0.0000000000000122
210
0.0
220
1.0
230
-0.0000000000000002
  0
LINE
  5
2934
  8
0
 10
902.4440609656745664
 20
55.0000000000000071
 30
-0.0000000000000122
 11
902.4440609656745664
 21
45.0
 31
-0.00000000000001
210
0.0
220
1.0
230
-0.0000000000000002
  0
LINE
  5
2935
  8
0
 10
901.3429010873393281
 20
45.0
 30
-0.00000000000001
 11
901.3429010873393281
 21
55.0000000000000071
 31
-0.0000000000000122
210
0.0
220
1.0
230
-0.0000000000000002
  0
LINE
  5
2936
  8
0
 10
901.3429010873391007
 20
45.0
 30
-0.00000000000001
 11
967.9225893666441607
 21
45.0
 31
-0.00000000000001
210
0.0
220
1.0
230
-0.0000000000000002
  0
LINE
  5
2937
  8
0
 10
967.9225893666441607
 20
55.0000000000000071
 30
-0.0000000000000122
 11
967.9225893666441607
 21
45.0
 31
-0.00000000000001
210
0.0
220
1.0
230
-0.0000000000000002
  0
LINE
  5
2938
  8
0
 10
967.922589366644047
 20
55.0000000000000071
 30
-0.0000000000000122
 11
901.3429010873391007
 21
55.0000000000000071
 31
-0.0000000000000122
210
0.0
220
1.0
230
-0.0000000000000002
  0
LINE
  5
2939
  8
0
 10
1066.7402989983049792
 20
60.0000000000000071
 30
-0.0000000000000133
 11
1066.7402989983049792
 21
70.0000000000000142
 31
-0.0000000000000155
210
0.0
220
1.0
230
-0.0000000000000002
  0
LINE
  5
293A
  8
0
 10
1066.7402989983049792
 20
60.0000000000000071
 30
-0.0000000000000133
 11
1133.3201568744420911
 21
60.0000000000000071
 31
-0.0000000000000133
210
0.0
220
1.0
230
-0.0000000000000002
  0
LINE
  5
293B
  8
0
 10
1132.219001033279028
 20
60.0000000000000071
 30
-0.0000000000000133
 11
1132.219001033279028
 21
70.0000000000000142
 31
-0.0000000000000155
210
0.0
220
1.0
230
-0.0000000000000002
  0
LINE
  5
293C
  8
0
 10
1133.3201568744420911
 20
70.0000000000000142
 30
-0.0000000000000155
 11
1133.3201568744420911
 21
60.0000000000000071
 31
-0.0000000000000133
210
0.0
220
1.0
230
-0.0000000000000002
  0
LINE
  5
293D
  8
0
 10
1133.3201568744420911
 20
70.0000000000000142
 30
-0.0000000000000155
 11
1066.7402989983049792
 21
70.0000000000000142
 31
-0.0000000000000155
210
0.0
220
1.0
230
-0.0000000000000002
  0
LINE
  5
293E
  8
0
 10
1174.3706951469459909
 20
60.0000000000000071
 30
-0.0000000000000133
 11
1174.3706951469459909
 21
70.0000000000000142
 31
-0.0000000000000155
210
0.0
220
1.0
230
-0.0000000000000002
  0
LINE
  5
293F
  8
0
 10
1174.3706951469450814
 20
60.0000000000000071
 30
-0.0000000000000133
 11
1175.3317416053389479
 21
60.0000000000000071
 31
-0.0000000000000133
210
0.0
220
1.0
230
-0.0000000000000002
  0
LINE
  5
2940
  8
0
 10
1161.7236043519380928
 20
60.0000000000000071
 30
-0.0000000000000133
 11
1161.7236043519380928
 21
70.0000000000000142
 31
-0.0000000000000155
210
0.0
220
1.0
230
-0.0000000000000002
  0
LINE
  5
2941
  8
0
 10
1163.1075519181990785
 20
70.0000000000000142
 30
-0.0000000000000155
 11
1163.1075519181990785
 21
60.0000000000000071
 31
-0.0000000000000133
210
0.0
220
1.0
230
-0.0000000000000002
  0
LINE
  5
2942
  8
0
 10
1175.3317416053389479
 20
70.0000000000000142
 30
-0.0000000000000155
 11
1174.3706951469459909
 21
70.0000000000000142
 31
-0.0000000000000155
210
0.0
220
1.0
230
-0.0000000000000002
  0
LINE
  5
2943
  8
0
 10
1012.2545259348739819
 20
70.0000000000000142
 30
-0.0000000000000155
 11
1012.2545259348739819
 21
60.0000000000000071
 31
-0.0000000000000133
210
0.0
220
1.0
230
-0.0000000000000002
  0
LINE
  5
2944
  8
0
 10
1012.2058625258930533
 20
60.0000000000000071
 30
-0.0000000000000133
 11
1012.2058625258930533
 21
70.0000000000000142
 31
-0.0000000000000155
210
0.0
220
1.0
230
-0.0000000000000002
  0
LINE
  5
2945
  8
0
 10
937.037749666817831
 20
60.0000000000000071
 30
-0.0000000000000133
 11
937.037749666817831
 21
70.0000000000000142
 31
-0.0000000000000155
210
0.0
220
1.0
230
-0.0000000000000002
  0
LINE
  5
2946
  8
0
 10
872.9401181018522493
 20
70.0000000000000142
 30
-0.0000000000000155
 11
872.9401181018522493
 21
60.0000000000000071
 31
-0.0000000000000133
210
0.0
220
1.0
230
-0.0000000000000002
  0
LINE
  5
2947
  8
0
 10
871.5561728286559173
 20
60.0000000000000071
 30
-0.0000000000000133
 11
871.5561728286559173
 21
70.0000000000000142
 31
-0.0000000000000155
210
0.0
220
1.0
230
-0.0000000000000002
  0
LINE
  5
2948
  8
0
 10
859.3317416053390616
 20
60.0000000000000071
 30
-0.0000000000000133
 11
860.2927190969370486
 21
60.0000000000000071
 31
-0.0000000000000133
210
0.0
220
1.0
230
-0.0000000000000002
  0
LINE
  5
2949
  8
0
 10
860.2927190969370486
 20
70.0000000000000142
 30
-0.0000000000000155
 11
860.2927190969370486
 21
60.0000000000000071
 31
-0.0000000000000133
210
0.0
220
1.0
230
-0.0000000000000002
  0
LINE
  5
294A
  8
0
 10
860.2927190969370486
 20
70.0000000000000142
 30
-0.0000000000000155
 11
859.3317416053390616
 21
70.0000000000000142
 31
-0.0000000000000155
210
0.0
220
1.0
230
-0.0000000000000002
  0
LINE
  5
294B
  8
0
 10
902.4440609656745664
 20
70.0000000000000142
 30
-0.0000000000000155
 11
902.4440609656745664
 21
60.0000000000000071
 31
-0.0000000000000133
210
0.0
220
1.0
230
-0.0000000000000002
  0
LINE
  5
294C
  8
0
 10
901.3429010873393281
 20
60.0000000000000071
 30
-0.0000000000000133
 11
901.3429010873393281
 21
70.0000000000000142
 31
-0.0000000000000155
210
0.0
220
1.0
230
-0.0000000000000002
  0
LINE
  5
294D
  8
0
 10
901.3429010873391007
 20
60.0000000000000071
 30
-0.0000000000000133
 11
967.9225893666441607
 21
60.0000000000000071
 31
-0.0000000000000133
210
0.0
220
1.0
230
-0.0000000000000002
  0
LINE
  5
294E
  8
0
 10
967.9225893666441607
 20
70.0000000000000142
 30
-0.0000000000000155
 11
967.9225893666441607
 21
60.0000000000000071
 31
-0.0000000000000133
210
0.0
220
1.0
230
-0.0000000000000002
  0
LINE
  5
294F
  8
0
 10
967.922589366644047
 20
70.0000000000000142
 30
-0.0000000000000155
 11
901.3429010873391007
 21
70.0000000000000142
 31
-0.0000000000000155
210
0.0
220
1.0
230
-0.0000000000000002
  0
LINE
  5
2950
  8
0
 10
863.2287904589917389
 20
70.0000000000000142
 30
-0.0000000000000155
 11
863.2287904589917389
 21
60.0000000000000071
 31
-0.0000000000000133
210
0.0
220
1.0
230
-0.0000000000000002
  0
LINE
  5
2951
  8
0
 10
861.7517653681320553
 20
60.0000000000000071
 30
-0.0000000000000133
 11
861.7517653681320553
 21
70.0000000000000142
 31
-0.0000000000000155
210
0.0
220
1.0
230
-0.0000000000000002
  0
LINE
  5
2952
  8
0
 10
861.7517653681320553
 20
60.0000000000000071
 30
-0.0000000000000133
 11
894.6290326774435471
 21
60.0000000000000071
 31
-0.0000000000000133
210
0.0
220
1.0
230
-0.0000000000000002
  0
LINE
  5
2953
  8
0
 10
894.6290326774435471
 20
70.0000000000000142
 30
-0.0000000000000155
 11
894.6290326774435471
 21
60.0000000000000071
 31
-0.0000000000000133
210
0.0
220
1.0
230
-0.0000000000000002
  0
LINE
  5
2954
  8
0
 10
894.6290326774435471
 20
70.0000000000000142
 30
-0.0000000000000155
 11
861.7517653681320553
 21
70.0000000000000142
 31
-0.0000000000000155
210
0.0
220
1.0
230
-0.0000000000000002
  0
LINE
  5
2955
  8
0
 10
928.4947659846103534
 20
70.0000000000000142
 30
-0.0000000000000155
 11
928.4947659846103534
 21
60.0000000000000071
 31
-0.0000000000000133
210
0.0
220
1.0
230
-0.0000000000000002
  0
LINE
  5
2956
  8
0
 10
927.6432933748269534
 20
60.0000000000000071
 30
-0.0000000000000133
 11
927.6432933748269534
 21
70.0000000000000142
 31
-0.0000000000000155
210
0.0
220
1.0
230
-0.0000000000000002
  0
LINE
  5
2957
  8
0
 10
877.1586971859909454
 20
60.0000000000000071
 30
-0.0000000000000133
 11
877.1586971859909454
 21
70.0000000000000142
 31
-0.0000000000000155
210
0.0
220
1.0
230
-0.0000000000000002
  0
LINE
  5
2958
  8
0
 10
1157.5050618813070287
 20
70.0000000000000142
 30
-0.0000000000000155
 11
1157.5050618813070287
 21
60.0000000000000071
 31
-0.0000000000000133
210
0.0
220
1.0
230
-0.0000000000000002
  0
LINE
  5
2959
  8
0
 10
1106.1692279075471106
 20
60.0000000000000071
 30
-0.0000000000000133
 11
1106.1692279075471106
 21
70.0000000000000142
 31
-0.0000000000000155
210
0.0
220
1.0
230
-0.0000000000000002
  0
LINE
  5
295A
  8
0
 10
1107.0207054120410248
 20
70.0000000000000142
 30
-0.0000000000000155
 11
1107.0207054120410248
 21
60.0000000000000071
 31
-0.0000000000000133
210
0.0
220
1.0
230
-0.0000000000000002
  0
LINE
  5
295B
  8
0
 10
1140.0340559955009212
 20
60.0000000000000071
 30
-0.0000000000000133
 11
1140.0340559955009212
 21
70.0000000000000142
 31
-0.0000000000000155
210
0.0
220
1.0
230
-0.0000000000000002
  0
LINE
  5
295C
  8
0
 10
1140.0340559955009212
 20
60.0000000000000071
 30
-0.0000000000000133
 11
1172.9116086526798881
 21
60.0000000000000071
 31
-0.0000000000000133
210
0.0
220
1.0
230
-0.0000000000000002
  0
LINE
  5
295D
  8
0
 10
1171.4345845984330481
 20
60.0000000000000071
 30
-0.0000000000000133
 11
1171.4345845984330481
 21
70.0000000000000142
 31
-0.0000000000000155
210
0.0
220
1.0
230
-0.0000000000000002
  0
LINE
  5
295E
  8
0
 10
1172.9116086526798881
 20
70.0000000000000142
 30
-0.0000000000000155
 11
1172.9116086526798881
 21
60.0000000000000071
 31
-0.0000000000000133
210
0.0
220
1.0
230
-0.0000000000000002
  0
LINE
  5
295F
  8
0
 10
1172.9116086526798881
 20
70.0000000000000142
 30
-0.0000000000000155
 11
1140.0340559955009212
 21
70.0000000000000142
 31
-0.0000000000000155
210
0.0
220
1.0
230
-0.0000000000000002
  0
LINE
  5
2960
  8
0
 10
978.1353583178903364
 20
70.0000000000000142
 30
-0.0000000000000155
 11
978.1353583178903364
 21
60.0000000000000071
 31
-0.0000000000000133
210
0.0
220
1.0
230
-0.0000000000000002
  0
LINE
  5
2961
  8
0
 10
977.7596741330264649
 20
60.0000000000000071
 30
-0.0000000000000133
 11
977.7596741330264649
 21
70.0000000000000142
 31
-0.0000000000000155
210
0.0
220
1.0
230
-0.0000000000000002
  0
LINE
  5
2962
  8
0
 10
977.7596741330264649
 20
60.0000000000000071
 30
-0.0000000000000133
 11
1056.903202783244069
 21
60.0000000000000071
 31
-0.0000000000000133
210
0.0
220
1.0
230
-0.0000000000000002
  0
LINE
  5
2963
  8
0
 10
1056.5275243543389934
 20
60.0000000000000071
 30
-0.0000000000000133
 11
1056.5275243543389934
 21
70.0000000000000142
 31
-0.0000000000000155
210
0.0
220
1.0
230
-0.0000000000000002
  0
LINE
  5
2964
  8
0
 10
1056.903202783244069
 20
70.0000000000000142
 30
-0.0000000000000155
 11
1056.903202783244069
 21
60.0000000000000071
 31
-0.0000000000000133
210
0.0
220
1.0
230
-0.0000000000000002
  0
LINE
  5
2965
  8
0
 10
1056.903202783244069
 20
70.0000000000000142
 30
-0.0000000000000155
 11
977.7596741330264649
 21
70.0000000000000142
 31
-0.0000000000000155
210
0.0
220
1.0
230
-0.0000000000000002
  0
LINE
  5
2966
  8
0
 10
863.2287904589917389
 20
55.0000000000000071
 30
-0.0000000000000122
 11
863.2287904589917389
 21
45.0
 31
-0.00000000000001
210
0.0
220
1.0
230
-0.0000000000000002
  0
LINE
  5
2967
  8
0
 10
861.7517653681320553
 20
45.0
 30
-0.00000000000001
 11
861.7517653681320553
 21
55.0000000000000071
 31
-0.0000000000000122
210
0.0
220
1.0
230
-0.0000000000000002
  0
LINE
  5
2968
  8
0
 10
861.7517653681320553
 20
45.0
 30
-0.00000000000001
 11
894.6290326774435471
 21
45.0
 31
-0.00000000000001
210
0.0
220
1.0
230
-0.0000000000000002
  0
LINE
  5
2969
  8
0
 10
894.6290326774435471
 20
55.0000000000000071
 30
-0.0000000000000122
 11
894.6290326774435471
 21
45.0
 31
-0.00000000000001
210
0.0
220
1.0
230
-0.0000000000000002
  0
LINE
  5
296A
  8
0
 10
894.6290326774435471
 20
55.0000000000000071
 30
-0.0000000000000122
 11
861.7517653681320553
 21
55.0000000000000071
 31
-0.0000000000000122
210
0.0
220
1.0
230
-0.0000000000000002
  0
LINE
  5
296B
  8
0
 10
928.4947659846103534
 20
55.0000000000000071
 30
-0.0000000000000122
 11
928.4947659846103534
 21
45.0
 31
-0.00000000000001
210
0.0
220
1.0
230
-0.0000000000000002
  0
LINE
  5
296C
  8
0
 10
927.6432933748269534
 20
45.0
 30
-0.00000000000001
 11
927.6432933748269534
 21
55.0000000000000071
 31
-0.0000000000000122
210
0.0
220
1.0
230
-0.0000000000000002
  0
LINE
  5
296D
  8
0
 10
877.1586971859909454
 20
45.0
 30
-0.00000000000001
 11
877.1586971859909454
 21
55.0000000000000071
 31
-0.0000000000000122
210
0.0
220
1.0
230
-0.0000000000000002
  0
LINE
  5
296E
  8
0
 10
1097.6262659866199556
 20
55.0000000000000071
 30
-0.0000000000000122
 11
1097.6262659866199556
 21
45.0
 31
-0.00000000000001
210
0.0
220
1.0
230
-0.0000000000000002
  0
LINE
  5
296F
  8
0
 10
1022.4095772578880315
 20
45.0
 30
-0.00000000000001
 11
1022.4095772578880315
 21
55.0000000000000071
 31
-0.0000000000000122
210
0.0
220
1.0
230
-0.0000000000000002
  0
LINE
  5
2970
  8
0
 10
1022.4582466091909509
 20
55.0000000000000071
 30
-0.0000000000000122
 11
1022.4582466091909509
 21
45.0
 31
-0.00000000000001
210
0.0
220
1.0
230
-0.0000000000000002
  0
LINE
  5
2971
  8
0
 10
1174.3706951469459909
 20
45.0
 30
-0.00000000000001
 11
1174.3706951469459909
 21
55.0000000000000071
 31
-0.0000000000000122
210
0.0
220
1.0
230
-0.0000000000000002
  0
LINE
  5
2972
  8
0
 10
1174.3706951469450814
 20
45.0
 30
-0.00000000000001
 11
1175.3317416053389479
 21
45.0
 31
-0.00000000000001
210
0.0
220
1.0
230
-0.0000000000000002
  0
LINE
  5
2973
  8
0
 10
1161.7236043519380928
 20
45.0
 30
-0.00000000000001
 11
1161.7236043519380928
 21
55.0000000000000071
 31
-0.0000000000000122
210
0.0
220
1.0
230
-0.0000000000000002
  0
LINE
  5
2974
  8
0
 10
1163.1075519181990785
 20
55.0000000000000071
 30
-0.0000000000000122
 11
1163.1075519181990785
 21
45.0
 31
-0.00000000000001
210
0.0
220
1.0
230
-0.0000000000000002
  0
LINE
  5
2975
  8
0
 10
1175.3317416053389479
 20
55.0000000000000071
 30
-0.0000000000000122
 11
1174.3706951469459909
 21
55.0000000000000071
 31
-0.0000000000000122
210
0.0
220
1.0
230
-0.0000000000000002
  0
LINE
  5
2976
  8
0
 10
1066.7402989983049792
 20
45.0
 30
-0.00000000000001
 11
1066.7402989983049792
 21
55.0000000000000071
 31
-0.0000000000000122
210
0.0
220
1.0
230
-0.0000000000000002
  0
LINE
  5
2977
  8
0
 10
1066.7402989983049792
 20
45.0
 30
-0.00000000000001
 11
1133.3201568744420911
 21
45.0
 31
-0.00000000000001
210
0.0
220
1.0
230
-0.0000000000000002
  0
LINE
  5
2978
  8
0
 10
1132.219001033279028
 20
45.0
 30
-0.00000000000001
 11
1132.219001033279028
 21
55.0000000000000071
 31
-0.0000000000000122
210
0.0
220
1.0
230
-0.0000000000000002
  0
LINE
  5
2979
  8
0
 10
1133.3201568744420911
 20
55.0000000000000071
 30
-0.0000000000000122
 11
1133.3201568744420911
 21
45.0
 31
-0.00000000000001
210
0.0
220
1.0
230
-0.0000000000000002
  0
LINE
  5
297A
  8
0
 10
1133.3201568744420911
 20
55.0000000000000071
 30
-0.0000000000000122
 11
1066.7402989983049792
 21
55.0000000000000071
 31
-0.0000000000000122
210
0.0
220
1.0
230
-0.0000000000000002
  0
LINE
  5
297B
  8
0
 10
902.4440609656745664
 20
40.0
 30
-0.0000000000000089
 11
902.4440609656745664
 21
30.0000000000000107
 31
-0.0000000000000067
210
0.0
220
1.0
230
-0.0000000000000002
  0
LINE
  5
297C
  8
0
 10
901.3429010873393281
 20
30.0000000000000107
 30
-0.0000000000000067
 11
901.3429010873393281
 21
40.0
 31
-0.0000000000000089
210
0.0
220
1.0
230
-0.0000000000000002
  0
LINE
  5
297D
  8
0
 10
901.3429010873391007
 20
30.0000000000000107
 30
-0.0000000000000067
 11
967.9225893666441607
 21
30.0000000000000107
 31
-0.0000000000000067
210
0.0
220
1.0
230
-0.0000000000000002
  0
LINE
  5
297E
  8
0
 10
967.9225893666441607
 20
40.0
 30
-0.0000000000000089
 11
967.9225893666441607
 21
30.0000000000000107
 31
-0.0000000000000067
210
0.0
220
1.0
230
-0.0000000000000002
  0
LINE
  5
297F
  8
0
 10
967.922589366644047
 20
40.0
 30
-0.0000000000000089
 11
901.3429010873391007
 21
40.0
 31
-0.0000000000000089
210
0.0
220
1.0
230
-0.0000000000000002
  0
LINE
  5
2980
  8
0
 10
872.9401181018522493
 20
40.0
 30
-0.0000000000000089
 11
872.9401181018522493
 21
30.0000000000000107
 31
-0.0000000000000067
210
0.0
220
1.0
230
-0.0000000000000002
  0
LINE
  5
2981
  8
0
 10
871.5561728286559173
 20
30.0000000000000107
 30
-0.0000000000000067
 11
871.5561728286559173
 21
40.0
 31
-0.0000000000000089
210
0.0
220
1.0
230
-0.0000000000000002
  0
LINE
  5
2982
  8
0
 10
859.3317416053390616
 20
30.0000000000000107
 30
-0.0000000000000067
 11
860.2927190969370486
 21
30.0000000000000107
 31
-0.0000000000000067
210
0.0
220
1.0
230
-0.0000000000000002
  0
LINE
  5
2983
  8
0
 10
860.2927190969370486
 20
40.0
 30
-0.0000000000000089
 11
860.2927190969370486
 21
30.0000000000000107
 31
-0.0000000000000067
210
0.0
220
1.0
230
-0.0000000000000002
  0
LINE
  5
2984
  8
0
 10
860.2927190969370486
 20
40.0
 30
-0.0000000000000089
 11
859.3317416053390616
 21
40.0
 31
-0.0000000000000089
210
0.0
220
1.0
230
-0.0000000000000002
  0
LINE
  5
2985
  8
0
 10
1012.2545259348739819
 20
40.0
 30
-0.0000000000000089
 11
1012.2545259348739819
 21
30.0000000000000107
 31
-0.0000000000000067
210
0.0
220
1.0
230
-0.0000000000000002
  0
LINE
  5
2986
  8
0
 10
1012.2058625258930533
 20
30.0000000000000107
 30
-0.0000000000000067
 11
1012.2058625258930533
 21
40.0
 31
-0.0000000000000089
210
0.0
220
1.0
230
-0.0000000000000002
  0
LINE
  5
2987
  8
0
 10
937.037749666817831
 20
30.0000000000000107
 30
-0.0000000000000067
 11
937.037749666817831
 21
40.0
 31
-0.0000000000000089
210
0.0
220
1.0
230
-0.0000000000000002
  0
LINE
  5
2988
  8
0
 10
1157.5050618813070287
 20
40.0
 30
-0.0000000000000089
 11
1157.5050618813070287
 21
30.0000000000000107
 31
-0.0000000000000067
210
0.0
220
1.0
230
-0.0000000000000002
  0
LINE
  5
2989
  8
0
 10
1106.1692279075471106
 20
30.0000000000000107
 30
-0.0000000000000067
 11
1106.1692279075471106
 21
40.0
 31
-0.0000000000000089
210
0.0
220
1.0
230
-0.0000000000000002
  0
LINE
  5
298A
  8
0
 10
1107.0207054120410248
 20
40.0
 30
-0.0000000000000089
 11
1107.0207054120410248
 21
30.0000000000000107
 31
-0.0000000000000067
210
0.0
220
1.0
230
-0.0000000000000002
  0
LINE
  5
298B
  8
0
 10
1140.0340559955009212
 20
30.0000000000000107
 30
-0.0000000000000067
 11
1140.0340559955009212
 21
40.0
 31
-0.0000000000000089
210
0.0
220
1.0
230
-0.0000000000000002
  0
LINE
  5
298C
  8
0
 10
1140.0340559955009212
 20
30.0000000000000107
 30
-0.0000000000000067
 11
1172.9116086526798881
 21
30.0000000000000107
 31
-0.0000000000000067
210
0.0
220
1.0
230
-0.0000000000000002
  0
LINE
  5
298D
  8
0
 10
1171.4345845984330481
 20
30.0000000000000107
 30
-0.0000000000000067
 11
1171.4345845984330481
 21
40.0
 31
-0.0000000000000089
210
0.0
220
1.0
230
-0.0000000000000002
  0
LINE
  5
298E
  8
0
 10
1172.9116086526798881
 20
40.0
 30
-0.0000000000000089
 11
1172.9116086526798881
 21
30.0000000000000107
 31
-0.0000000000000067
210
0.0
220
1.0
230
-0.0000000000000002
  0
LINE
  5
298F
  8
0
 10
1172.9116086526798881
 20
40.0
 30
-0.0000000000000089
 11
1140.0340559955009212
 21
40.0
 31
-0.0000000000000089
210
0.0
220
1.0
230
-0.0000000000000002
  0
LINE
  5
2990
  8
0
 10
978.1353583178903364
 20
40.0
 30
-0.0000000000000089
 11
978.1353583178903364
 21
30.0000000000000107
 31
-0.0000000000000067
210
0.0
220
1.0
230
-0.0000000000000002
  0
LINE
  5
2991
  8
0
 10
977.7596741330264649
 20
30.0000000000000107
 30
-0.0000000000000067
 11
977.7596741330264649
 21
40.0
 31
-0.0000000000000089
210
0.0
220
1.0
230
-0.0000000000000002
  0
LINE
  5
2992
  8
0
 10
977.7596741330264649
 20
30.0000000000000107
 30
-0.0000000000000067
 11
1056.903202783244069
 21
30.0000000000000107
 31
-0.0000000000000067
210
0.0
220
1.0
230
-0.0000000000000002
  0
LINE
  5
2993
  8
0
 10
1056.5275243543389934
 20
30.0000000000000107
 30
-0.0000000000000067
 11
1056.5275243543389934
 21
40.0
 31
-0.0000000000000089
210
0.0
220
1.0
230
-0.0000000000000002
  0
LINE
  5
2994
  8
0
 10
1056.903202783244069
 20
40.0
 30
-0.0000000000000089
 11
1056.903202783244069
 21
30.0000000000000107
 31
-0.0000000000000067
210
0.0
220
1.0
230
-0.0000000000000002
  0
LINE
  5
2995
  8
0
 10
1056.903202783244069
 20
40.0
 30
-0.0000000000000089
 11
977.7596741330264649
 21
40.0
 31
-0.0000000000000089
210
0.0
220
1.0
230
-0.0000000000000002
  0
LINE
  5
2996
  8
0
 10
863.2287904589917389
 20
25.0000000000000107
 30
-0.0000000000000056
 11
863.2287904589917389
 21
15.0
 31
-0.0000000000000033
210
0.0
220
1.0
230
-0.0000000000000002
  0
LINE
  5
2997
  8
0
 10
861.7517653681320553
 20
15.0
 30
-0.0000000000000033
 11
861.7517653681320553
 21
25.0000000000000107
 31
-0.0000000000000056
210
0.0
220
1.0
230
-0.0000000000000002
  0
LINE
  5
2998
  8
0
 10
861.7517653681320553
 20
15.0
 30
-0.0000000000000033
 11
894.6290326774435471
 21
15.0
 31
-0.0000000000000033
210
0.0
220
1.0
230
-0.0000000000000002
  0
LINE
  5
2999
  8
0
 10
894.6290326774435471
 20
25.0000000000000107
 30
-0.0000000000000056
 11
894.6290326774435471
 21
15.0
 31
-0.0000000000000033
210
0.0
220
1.0
230
-0.0000000000000002
  0
LINE
  5
299A
  8
0
 10
894.6290326774435471
 20
25.0000000000000107
 30
-0.0000000000000056
 11
861.7517653681320553
 21
25.0000000000000107
 31
-0.0000000000000056
210
0.0
220
1.0
230
-0.0000000000000002
  0
LINE
  5
299B
  8
0
 10
928.4947659846103534
 20
25.0000000000000107
 30
-0.0000000000000056
 11
928.4947659846103534
 21
15.0
 31
-0.0000000000000033
210
0.0
220
1.0
230
-0.0000000000000002
  0
LINE
  5
299C
  8
0
 10
927.6432933748269534
 20
15.0
 30
-0.0000000000000033
 11
927.6432933748269534
 21
25.0000000000000107
 31
-0.0000000000000056
210
0.0
220
1.0
230
-0.0000000000000002
  0
LINE
  5
299D
  8
0
 10
877.1586971859909454
 20
15.0
 30
-0.0000000000000033
 11
877.1586971859909454
 21
25.0000000000000107
 31
-0.0000000000000056
210
0.0
220
1.0
230
-0.0000000000000002
  0
LINE
  5
299E
  8
0
 10
1097.6262659866199556
 20
25.0000000000000107
 30
-0.0000000000000056
 11
1097.6262659866199556
 21
15.0
 31
-0.0000000000000033
210
0.0
220
1.0
230
-0.0000000000000002
  0
LINE
  5
299F
  8
0
 10
1022.4095772578880315
 20
15.0
 30
-0.0000000000000033
 11
1022.4095772578880315
 21
25.0000000000000107
 31
-0.0000000000000056
210
0.0
220
1.0
230
-0.0000000000000002
  0
LINE
  5
29A0
  8
0
 10
1022.4582466091909509
 20
25.0000000000000107
 30
-0.0000000000000056
 11
1022.4582466091909509
 21
15.0
 31
-0.0000000000000033
210
0.0
220
1.0
230
-0.0000000000000002
  0
LINE
  5
29A1
  8
0
 10
1174.3706951469459909
 20
15.0
 30
-0.0000000000000033
 11
1174.3706951469459909
 21
25.0000000000000107
 31
-0.0000000000000056
210
0.0
220
1.0
230
-0.0000000000000002
  0
LINE
  5
29A2
  8
0
 10
1174.3706951469450814
 20
15.0
 30
-0.0000000000000033
 11
1175.3317416053389479
 21
15.0
 31
-0.0000000000000033
210
0.0
220
1.0
230
-0.0000000000000002
  0
LINE
  5
29A3
  8
0
 10
1161.7236043519380928
 20
15.0
 30
-0.0000000000000033
 11
1161.7236043519380928
 21
25.0000000000000107
 31
-0.0000000000000056
210
0.0
220
1.0
230
-0.0000000000000002
  0
LINE
  5
29A4
  8
0
 10
1163.1075519181990785
 20
25.0000000000000107
 30
-0.0000000000000056
 11
1163.1075519181990785
 21
15.0
 31
-0.0000000000000033
210
0.0
220
1.0
230
-0.0000000000000002
  0
LINE
  5
29A5
  8
0
 10
1175.3317416053389479
 20
25.0000000000000107
 30
-0.0000000000000056
 11
1174.3706951469459909
 21
25.0000000000000107
 31
-0.0000000000000056
210
0.0
220
1.0
230
-0.0000000000000002
  0
LINE
  5
29A6
  8
0
 10
1066.7402989983049792
 20
15.0
 30
-0.0000000000000033
 11
1066.7402989983049792
 21
25.0000000000000107
 31
-0.0000000000000056
210
0.0
220
1.0
230
-0.0000000000000002
  0
LINE
  5
29A7
  8
0
 10
1066.7402989983049792
 20
15.0
 30
-0.0000000000000033
 11
1133.3201568744420911
 21
15.0
 31
-0.0000000000000033
210
0.0
220
1.0
230
-0.0000000000000002
  0
LINE
  5
29A8
  8
0
 10
1132.219001033279028
 20
15.0
 30
-0.0000000000000033
 11
1132.219001033279028
 21
25.0000000000000107
 31
-0.0000000000000056
210
0.0
220
1.0
230
-0.0000000000000002
  0
LINE
  5
29A9
  8
0
 10
1133.3201568744420911
 20
25.0000000000000107
 30
-0.0000000000000056
 11
1133.3201568744420911
 21
15.0
 31
-0.0000000000000033
210
0.0
220
1.0
230
-0.0000000000000002
  0
LINE
  5
29AA
  8
0
 10
1133.3201568744420911
 20
25.0000000000000107
 30
-0.0000000000000056
 11
1066.7402989983049792
 21
25.0000000000000107
 31
-0.0000000000000056
210
0.0
220
1.0
230
-0.0000000000000002
  0
LINE
  5
29AB
  8
0
 10
902.4440609656745664
 20
10.0
 30
-0.0000000000000022
 11
902.4440609656745664
 21
0.0
 31
0.0
210
0.0
220
1.0
230
-0.0000000000000002
  0
LINE
  5
29AC
  8
0
 10
901.3429010873393281
 20
0.0
 30
0.0
 11
901.3429010873393281
 21
9.9999999999999982
 31
-0.0000000000000022
210
0.0
220
1.0
230
-0.0000000000000002
  0
LINE
  5
29AD
  8
0
 10
967.9225893666441607
 20
9.9999999999999982
 30
-0.0000000000000022
 11
967.9225893666441607
 21
0.0
 31
0.0
210
0.0
220
1.0
230
-0.0000000000000002
  0
LINE
  5
29AE
  8
0
 10
967.922589366644047
 20
10.0
 30
-0.0000000000000022
 11
901.3429010873391007
 21
10.0
 31
-0.0000000000000022
210
0.0
220
1.0
230
-0.0000000000000002
  0
LINE
  5
29AF
  8
0
 10
872.9401181018522493
 20
10.0
 30
-0.0000000000000022
 11
872.9401181018522493
 21
0.0
 31
0.0
210
0.0
220
1.0
230
-0.0000000000000002
  0
LINE
  5
29B0
  8
0
 10
871.5561728286559173
 20
0.0
 30
0.0
 11
871.5561728286559173
 21
9.9999999999999982
 31
-0.0000000000000022
210
0.0
220
1.0
230
-0.0000000000000002
  0
LINE
  5
29B1
  8
0
 10
860.2927190969370486
 20
9.9999999999999982
 30
-0.0000000000000022
 11
860.2927190969370486
 21
0.0
 31
0.0
210
0.0
220
1.0
230
-0.0000000000000002
  0
LINE
  5
29B2
  8
0
 10
860.2927190969370486
 20
10.0
 30
-0.0000000000000022
 11
859.3317416053390616
 21
10.0
 31
-0.0000000000000022
210
0.0
220
1.0
230
-0.0000000000000002
  0
LINE
  5
29B3
  8
0
 10
1012.2545259348739819
 20
10.0
 30
-0.0000000000000022
 11
1012.2545259348739819
 21
0.0
 31
0.0
210
0.0
220
1.0
230
-0.0000000000000002
  0
LINE
  5
29B4
  8
0
 10
1012.2058625258930533
 20
0.0
 30
0.0
 11
1012.2058625258930533
 21
9.9999999999999982
 31
-0.0000000000000022
210
0.0
220
1.0
230
-0.0000000000000002
  0
LINE
  5
29B5
  8
0
 10
937.037749666817831
 20
0.0
 30
0.0
 11
937.037749666817831
 21
10.0
 31
-0.0000000000000022
210
0.0
220
1.0
230
-0.0000000000000002
  0
LINE
  5
29B6
  8
0
 10
1157.5050618813070287
 20
10.0
 30
-0.0000000000000022
 11
1157.5050618813070287
 21
0.0
 31
0.0
210
0.0
220
1.0
230
-0.0000000000000002
  0
LINE
  5
29B7
  8
0
 10
1106.1692279075471106
 20
0.0
 30
0.0
 11
1106.1692279075471106
 21
10.0
 31
-0.0000000000000022
210
0.0
220
1.0
230
-0.0000000000000002
  0
LINE
  5
29B8
  8
0
 10
1107.0207054120410248
 20
10.0
 30
-0.0000000000000022
 11
1107.0207054120410248
 21
0.0
 31
0.0
210
0.0
220
1.0
230
-0.0000000000000002
  0
LINE
  5
29B9
  8
0
 10
1140.0340559955009212
 20
0.0
 30
0.0
 11
1140.0340559955009212
 21
9.9999999999999982
 31
-0.0000000000000022
210
0.0
220
1.0
230
-0.0000000000000002
  0
LINE
  5
29BA
  8
0
 10
1171.4345845984330481
 20
0.0
 30
0.0
 11
1171.4345845984330481
 21
10.0
 31
-0.0000000000000022
210
0.0
220
1.0
230
-0.0000000000000002
  0
LINE
  5
29BB
  8
0
 10
1172.9116086526798881
 20
9.9999999999999982
 30
-0.0000000000000022
 11
1172.9116086526798881
 21
0.0
 31
0.0
210
0.0
220
1.0
230
-0.0000000000000002
  0
LINE
  5
29BC
  8
0
 10
1172.9116086526798881
 20
10.0
 30
-0.0000000000000022
 11
1140.0340559955009212
 21
10.0
 31
-0.0000000000000022
210
0.0
220
1.0
230
-0.0000000000000002
  0
LINE
  5
29BD
  8
0
 10
978.1353583178903364
 20
10.0
 30
-0.0000000000000022
 11
978.1353583178903364
 21
0.0
 31
0.0
210
0.0
220
1.0
230
-0.0000000000000002
  0
LINE
  5
29BE
  8
0
 10
977.7596741330264649
 20
0.0
 30
0.0
 11
977.7596741330264649
 21
9.9999999999999982
 31
-0.0000000000000022
210
0.0
220
1.0
230
-0.0000000000000002
  0
LINE
  5
29BF
  8
0
 10
1056.5275243543389934
 20
0.0
 30
0.0
 11
1056.5275243543389934
 21
10.0
 31
-0.0000000000000022
210
0.0
220
1.0
230
-0.0000000000000002
  0
LINE
  5
29C0
  8
0
 10
1056.903202783244069
 20
9.9999999999999982
 30
-0.0000000000000022
 11
1056.903202783244069
 21
0.0
 31
0.0
210
0.0
220
1.0
230
-0.0000000000000002
  0
LINE
  5
29C1
  8
0
 10
1056.903202783244069
 20
10.0
 30
-0.0000000000000022
 11
977.7596741330264649
 21
10.0
 31
-0.0000000000000022
210
0.0
220
1.0
230
-0.0000000000000002
  0
LINE
  5
29C2
  8
0
 10
1175.3317416053389479
 20
75.0000000000000142
 30
-0.0000000000000167
 11
859.3317416053390616
 21
75.0000000000000142
 31
-0.0000000000000167
210
0.0
220
1.0
230
-0.0000000000000002
  0
LINE
  5
29C3
  8
0
 10
1022.4582466091900415
 20
70.0000000000000142
 30
-0.0000000000000155
 11
1022.4582466091900415
 21
60.0000000000000071
 31
-0.0000000000000133
210
0.0
220
1.0
230
-0.0000000000000002
  0
LINE
  5
29C4
  8
0
 10
1097.6262659866199556
 20
70.0000000000000142
 30
-0.0000000000000155
 11
1097.6262659866199556
 21
60.0000000000000071
 31
-0.0000000000000133
210
0.0
220
1.0
230
-0.0000000000000002
  0
LINE
  5
29C5
  8
0
 10
1022.4095772578880315
 20
60.0000000000000071
 30
-0.0000000000000133
 11
1022.4095772578880315
 21
70.0000000000000142
 31
-0.0000000000000155
210
0.0
220
1.0
230
-0.0000000000000002
  0
LINE
  5
29C6
  8
0
 10
859.3317416053390616
 20
-5.0
 30
0.0000000000000011
 11
859.3317416053390616
 21
0.0
 31
0.0
210
0.0
220
1.0
230
-0.0000000000000002
  0
LINE
  5
29C7
  8
0
 10
859.3317416053390616
 20
10.0
 30
-0.0000000000000022
 11
859.3317416053390616
 21
15.0
 31
-0.0000000000000033
210
0.0
220
1.0
230
-0.0000000000000002
  0
LINE
  5
29C8
  8
0
 10
859.3317416053390616
 20
25.0000000000000107
 30
-0.0000000000000056
 11
859.3317416053390616
 21
30.0000000000000107
 31
-0.0000000000000067
210
0.0
220
1.0
230
-0.0000000000000002
  0
LINE
  5
29C9
  8
0
 10
859.3317416053390616
 20
40.0
 30
-0.0000000000000089
 11
859.3317416053390616
 21
45.0
 31
-0.00000000000001
210
0.0
220
1.0
230
-0.0000000000000002
  0
LINE
  5
29CA
  8
0
 10
859.3317416053390616
 20
55.0000000000000071
 30
-0.0000000000000122
 11
859.3317416053390616
 21
60.0000000000000071
 31
-0.0000000000000133
210
0.0
220
1.0
230
-0.0000000000000002
  0
LINE
  5
29CB
  8
0
 10
859.3317416053390616
 20
70.0000000000000142
 30
-0.0000000000000155
 11
859.3317416053390616
 21
75.0000000000000142
 31
-0.0000000000000167
210
0.0
220
1.0
230
-0.0000000000000002
  0
LINE
  5
29CC
  8
0
 10
1175.3317416053389479
 20
-5.0
 30
0.0000000000000011
 11
1175.3317416053389479
 21
0.0
 31
0.0
210
0.0
220
1.0
230
-0.0000000000000002
  0
LINE
  5
29CD
  8
0
 10
1175.3317416053389479
 20
10.0
 30
-0.0000000000000022
 11
1175.3317416053389479
 21
15.0
 31
-0.0000000000000033
210
0.0
220
1.0
230
-0.0000000000000002
  0
LINE
  5
29CE
  8
0
 10
1175.3317416053389479
 20
25.0000000000000107
 30
-0.0000000000000056
 11
1175.3317416053389479
 21
30.0000000000000107
 31
-0.0000000000000067
210
0.0
220
1.0
230
-0.0000000000000002
  0
LINE
  5
29CF
  8
0
 10
1175.3317416053389479
 20
40.0
 30
-0.0000000000000089
 11
1175.3317416053389479
 21
45.0
 31
-0.00000000000001
210
0.0
220
1.0
230
-0.0000000000000002
  0
LINE
  5
29D0
  8
0
 10
1175.3317416053389479
 20
55.0000000000000071
 30
-0.0000000000000122
 11
1175.3317416053389479
 21
60.0000000000000071
 31
-0.0000000000000133
210
0.0
220
1.0
230
-0.0000000000000002
  0
LINE
  5
29D1
  8
0
 10
1175.3317416053389479
 20
70.0000000000000142
 30
-0.0000000000000155
 11
1175.3317416053389479
 21
75.0000000000000142
 31
-0.0000000000000167
210
0.0
220
1.0
230
-0.0000000000000002
  0
LINE
  5
29D2
  8
0
  6
VERDECKT
 62
     1
 10
1066.2712304154599678
 20
0.0
 30
0.0
 11
1066.7402989983049792
 21
0.0
 31
0.0
210
0.0
220
1.0
230
-0.0000000000000002
  0
LINE
  5
29D3
  8
0
  6
VERDECKT
 62
     1
 10
1138.8691606057209356
 20
0.0
 30
0.0
 11
1140.0340559955009212
 21
0.0
 31
0.0
210
0.0
220
1.0
230
-0.0000000000000002
  0
LINE
  5
29D4
  8
0
  6
VERDECKT
 62
     1
 10
1172.9116086526798881
 20
0.0
 30
0.0
 11
1174.3706951469459909
 21
0.0
 31
0.0
210
0.0
220
1.0
230
-0.0000000000000002
  0
LINE
  5
29D5
  8
0
  6
VERDECKT
 62
     1
 10
860.2927190969370486
 20
0.0
 30
0.0
 11
861.7517653681320553
 21
0.0
 31
0.0
210
0.0
220
1.0
230
-0.0000000000000002
  0
LINE
  5
29D6
  8
0
  6
VERDECKT
 62
     1
 10
894.6290326774435471
 20
0.0
 30
0.0
 11
895.793931812835126
 21
0.0
 31
0.0
210
0.0
220
1.0
230
-0.0000000000000002
  0
LINE
  5
29D7
  8
0
  6
VERDECKT
 62
     1
 10
967.9225893666441607
 20
0.0
 30
0.0
 11
968.3916635967583488
 21
0.0
 31
0.0
210
0.0
220
1.0
230
-0.0000000000000002
  0
LINE
  5
29D8
  8
0
  6
VERDECKT
 62
     1
 10
1066.2712304154599678
 20
10.0
 30
-0.0000000000000022
 11
1066.2712304154599678
 21
0.0
 31
0.0
210
0.0
220
1.0
230
-0.0000000000000002
  0
LINE
  5
29D9
  8
0
  6
VERDECKT
 62
     1
 10
1066.2712304154599678
 20
10.0
 30
-0.0000000000000022
 11
1066.7402989983049792
 21
10.0
 31
-0.0000000000000022
210
0.0
220
1.0
230
-0.0000000000000002
  0
LINE
  5
29DA
  8
0
  6
VERDECKT
 62
     1
 10
1172.8798190057279953
 20
10.0
 30
-0.0000000000000022
 11
1172.8798190057279953
 21
0.0
 31
0.0
210
0.0
220
1.0
230
-0.0000000000000002
  0
LINE
  5
29DB
  8
0
  6
VERDECKT
 62
     1
 10
1172.9116086526798881
 20
10.0
 30
-0.0000000000000022
 11
1174.3706951469459909
 21
10.0
 31
-0.0000000000000022
210
0.0
220
1.0
230
-0.0000000000000002
  0
LINE
  5
29DC
  8
0
  6
VERDECKT
 62
     1
 10
1098.3958620669520769
 20
0.0
 30
0.0
 11
1098.3958620669520769
 21
9.9999999999999982
 31
-0.0000000000000022
210
0.0
220
1.0
230
-0.0000000000000002
  0
LINE
  5
29DD
  8
0
  6
VERDECKT
 62
     1
 10
1056.903202783244069
 20
10.0
 30
-0.0000000000000022
 11
1066.2712304154599678
 21
10.0
 31
-0.0000000000000022
210
0.0
220
1.0
230
-0.0000000000000002
  0
LINE
  5
29DE
  8
0
  6
VERDECKT
 62
     1
 10
875.8151855781377435
 20
10.0
 30
-0.0000000000000022
 11
875.8151855781377435
 21
0.0
 31
0.0
210
0.0
220
1.0
230
-0.0000000000000002
  0
LINE
  5
29DF
  8
0
  6
VERDECKT
 62
     1
 10
895.793931812835126
 20
10.0
 30
-0.0000000000000022
 11
901.3429010873393281
 21
10.0
 31
-0.0000000000000022
210
0.0
220
1.0
230
-0.0000000000000002
  0
LINE
  5
29E0
  8
0
  6
VERDECKT
 62
     1
 10
895.7939318128348987
 20
0.0
 30
0.0
 11
895.7939318128348987
 21
10.0
 31
-0.0000000000000022
210
0.0
220
1.0
230
-0.0000000000000002
  0
LINE
  5
29E1
  8
0
  6
VERDECKT
 62
     1
 10
894.6290326774435471
 20
10.0
 30
-0.0000000000000022
 11
895.793931812835126
 21
10.0
 31
-0.0000000000000022
210
0.0
220
1.0
230
-0.0000000000000002
  0
LINE
  5
29E2
  8
0
  6
VERDECKT
 62
     1
 10
1138.8691606057209356
 20
25.0000000000000107
 30
-0.0000000000000056
 11
1138.8691606057209356
 21
15.0
 31
-0.0000000000000033
210
0.0
220
1.0
230
-0.0000000000000002
  0
LINE
  5
29E3
  8
0
  6
VERDECKT
 62
     1
 10
1138.8691606057209356
 20
25.0000000000000107
 30
-0.0000000000000056
 11
1140.0340559955009212
 21
25.0000000000000107
 31
-0.0000000000000056
210
0.0
220
1.0
230
-0.0000000000000002
  0
LINE
  5
29E4
  8
0
  6
VERDECKT
 62
     1
 10
1138.8691606057209356
 20
15.0
 30
-0.0000000000000033
 11
1140.0340559955009212
 21
15.0
 31
-0.0000000000000033
210
0.0
220
1.0
230
-0.0000000000000002
  0
LINE
  5
29E5
  8
0
  6
VERDECKT
 62
     1
 10
1158.8485761331539834
 20
15.0
 30
-0.0000000000000033
 11
1158.8485761331539834
 21
25.0000000000000107
 31
-0.0000000000000056
210
0.0
220
1.0
230
-0.0000000000000002
  0
LINE
  5
29E6
  8
0
  6
VERDECKT
 62
     1
 10
1138.8691606057209356
 20
15.0
 30
-0.0000000000000033
 11
1133.3201568744420911
 21
15.0
 31
-0.0000000000000033
210
0.0
220
1.0
230
-0.0000000000000002
  0
LINE
  5
29E7
  8
0
  6
VERDECKT
 62
     1
 10
1133.3201568744420911
 20
25.0000000000000107
 30
-0.0000000000000056
 11
1138.8691606057209356
 21
25.0000000000000107
 31
-0.0000000000000056
210
0.0
220
1.0
230
-0.0000000000000002
  0
LINE
  5
29E8
  8
0
  6
VERDECKT
 62
     1
 10
977.7596741330264649
 20
15.0
 30
-0.0000000000000033
 11
968.3916635967583488
 21
15.0
 31
-0.0000000000000033
210
0.0
220
1.0
230
-0.0000000000000002
  0
LINE
  5
29E9
  8
0
  6
VERDECKT
 62
     1
 10
936.2681586897712123
 20
25.0000000000000107
 30
-0.0000000000000056
 11
936.2681586897712123
 21
15.0
 31
-0.0000000000000033
210
0.0
220
1.0
230
-0.0000000000000002
  0
LINE
  5
29EA
  8
0
  6
VERDECKT
 62
     1
 10
968.3916635967583488
 20
25.0000000000000107
 30
-0.0000000000000056
 11
977.7596741330264649
 21
25.0000000000000107
 31
-0.0000000000000056
210
0.0
220
1.0
230
-0.0000000000000002
  0
LINE
  5
29EB
  8
0
  6
VERDECKT
 62
     1
 10
860.2927190969370486
 20
15.0
 30
-0.0000000000000033
 11
861.7517653681320553
 21
15.0
 31
-0.0000000000000033
210
0.0
220
1.0
230
-0.0000000000000002
  0
LINE
  5
29EC
  8
0
  6
VERDECKT
 62
     1
 10
861.7835958929028948
 20
15.0
 30
-0.0000000000000033
 11
861.7835958929028948
 21
25.0000000000000107
 31
-0.0000000000000056
210
0.0
220
1.0
230
-0.0000000000000002
  0
LINE
  5
29ED
  8
0
  6
VERDECKT
 62
     1
 10
860.2927190969370486
 20
25.0000000000000107
 30
-0.0000000000000056
 11
861.7517653681320553
 21
25.0000000000000107
 31
-0.0000000000000056
210
0.0
220
1.0
230
-0.0000000000000002
  0
LINE
  5
29EE
  8
0
  6
VERDECKT
 62
     1
 10
967.9225893666441607
 20
15.0
 30
-0.0000000000000033
 11
968.3916635967583488
 21
15.0
 31
-0.0000000000000033
210
0.0
220
1.0
230
-0.0000000000000002
  0
LINE
  5
29EF
  8
0
  6
VERDECKT
 62
     1
 10
968.3916635967583488
 20
15.0
 30
-0.0000000000000033
 11
968.3916635967583488
 21
25.0000000000000107
 31
-0.0000000000000056
210
0.0
220
1.0
230
-0.0000000000000002
  0
LINE
  5
29F0
  8
0
  6
VERDECKT
 62
     1
 10
967.9225893666441607
 20
25.0000000000000107
 30
-0.0000000000000056
 11
968.3916635967583488
 21
25.0000000000000107
 31
-0.0000000000000056
210
0.0
220
1.0
230
-0.0000000000000002
  0
LINE
  5
29F1
  8
0
  6
VERDECKT
 62
     1
 10
1066.2712304154599678
 20
40.0
 30
-0.0000000000000089
 11
1066.2712304154599678
 21
30.0000000000000107
 31
-0.0000000000000067
210
0.0
220
1.0
230
-0.0000000000000002
  0
LINE
  5
29F2
  8
0
  6
VERDECKT
 62
     1
 10
1066.2712304154599678
 20
40.0
 30
-0.0000000000000089
 11
1066.7402989983049792
 21
40.0
 31
-0.0000000000000089
210
0.0
220
1.0
230
-0.0000000000000002
  0
LINE
  5
29F3
  8
0
  6
VERDECKT
 62
     1
 10
1066.2712304154599678
 20
30.0000000000000107
 30
-0.0000000000000067
 11
1066.7402989983049792
 21
30.0000000000000107
 31
-0.0000000000000067
210
0.0
220
1.0
230
-0.0000000000000002
  0
LINE
  5
29F4
  8
0
  6
VERDECKT
 62
     1
 10
1172.8798190057279953
 20
40.0
 30
-0.0000000000000089
 11
1172.8798190057279953
 21
30.0000000000000107
 31
-0.0000000000000067
210
0.0
220
1.0
230
-0.0000000000000002
  0
LINE
  5
29F5
  8
0
  6
VERDECKT
 62
     1
 10
1172.9116086526798881
 20
40.0
 30
-0.0000000000000089
 11
1174.3706951469459909
 21
40.0
 31
-0.0000000000000089
210
0.0
220
1.0
230
-0.0000000000000002
  0
LINE
  5
29F6
  8
0
  6
VERDECKT
 62
     1
 10
1172.9116086526798881
 20
30.0000000000000107
 30
-0.0000000000000067
 11
1174.3706951469459909
 21
30.0000000000000107
 31
-0.0000000000000067
210
0.0
220
1.0
230
-0.0000000000000002
  0
LINE
  5
29F7
  8
0
  6
VERDECKT
 62
     1
 10
1098.3958620669520769
 20
30.0000000000000107
 30
-0.0000000000000067
 11
1098.3958620669520769
 21
40.0
 31
-0.0000000000000089
210
0.0
220
1.0
230
-0.0000000000000002
  0
LINE
  5
29F8
  8
0
  6
VERDECKT
 62
     1
 10
1066.2712304154599678
 20
30.0000000000000107
 30
-0.0000000000000067
 11
1056.903202783244069
 21
30.0000000000000107
 31
-0.0000000000000067
210
0.0
220
1.0
230
-0.0000000000000002
  0
LINE
  5
29F9
  8
0
  6
VERDECKT
 62
     1
 10
1056.903202783244069
 20
40.0
 30
-0.0000000000000089
 11
1066.2712304154599678
 21
40.0
 31
-0.0000000000000089
210
0.0
220
1.0
230
-0.0000000000000002
  0
LINE
  5
29FA
  8
0
  6
VERDECKT
 62
     1
 10
901.3429010873391007
 20
30.0000000000000107
 30
-0.0000000000000067
 11
895.7939318128348987
 21
30.0000000000000107
 31
-0.0000000000000067
210
0.0
220
1.0
230
-0.0000000000000002
  0
LINE
  5
29FB
  8
0
  6
VERDECKT
 62
     1
 10
875.8151855781377435
 20
40.0
 30
-0.0000000000000089
 11
875.8151855781377435
 21
30.0000000000000107
 31
-0.0000000000000067
210
0.0
220
1.0
230
-0.0000000000000002
  0
LINE
  5
29FC
  8
0
  6
VERDECKT
 62
     1
 10
895.793931812835126
 20
40.0
 30
-0.0000000000000089
 11
901.3429010873393281
 21
40.0
 31
-0.0000000000000089
210
0.0
220
1.0
230
-0.0000000000000002
  0
LINE
  5
29FD
  8
0
  6
VERDECKT
 62
     1
 10
894.6290326774435471
 20
30.0000000000000107
 30
-0.0000000000000067
 11
895.793931812835126
 21
30.0000000000000107
 31
-0.0000000000000067
210
0.0
220
1.0
230
-0.0000000000000002
  0
LINE
  5
29FE
  8
0
  6
VERDECKT
 62
     1
 10
895.7939318128348987
 20
30.0000000000000107
 30
-0.0000000000000067
 11
895.7939318128348987
 21
40.0
 31
-0.0000000000000089
210
0.0
220
1.0
230
-0.0000000000000002
  0
LINE
  5
29FF
  8
0
  6
VERDECKT
 62
     1
 10
894.6290326774435471
 20
40.0
 30
-0.0000000000000089
 11
895.793931812835126
 21
40.0
 31
-0.0000000000000089
210
0.0
220
1.0
230
-0.0000000000000002
  0
LINE
  5
2A00
  8
0
  6
VERDECKT
 62
     1
 10
1138.8691606057209356
 20
55.0000000000000071
 30
-0.0000000000000122
 11
1138.8691606057209356
 21
45.0
 31
-0.00000000000001
210
0.0
220
1.0
230
-0.0000000000000002
  0
LINE
  5
2A01
  8
0
  6
VERDECKT
 62
     1
 10
1138.8691606057209356
 20
55.0000000000000071
 30
-0.0000000000000122
 11
1140.0340559955009212
 21
55.0000000000000071
 31
-0.0000000000000122
210
0.0
220
1.0
230
-0.0000000000000002
  0
LINE
  5
2A02
  8
0
  6
VERDECKT
 62
     1
 10
1138.8691606057209356
 20
45.0
 30
-0.00000000000001
 11
1140.0340559955009212
 21
45.0
 31
-0.00000000000001
210
0.0
220
1.0
230
-0.0000000000000002
  0
LINE
  5
2A03
  8
0
  6
VERDECKT
 62
     1
 10
1158.8485761331539834
 20
45.0
 30
-0.00000000000001
 11
1158.8485761331539834
 21
55.0000000000000071
 31
-0.0000000000000122
210
0.0
220
1.0
230
-0.0000000000000002
  0
LINE
  5
2A04
  8
0
  6
VERDECKT
 62
     1
 10
1138.8691606057209356
 20
45.0
 30
-0.00000000000001
 11
1133.3201568744420911
 21
45.0
 31
-0.00000000000001
210
0.0
220
1.0
230
-0.0000000000000002
  0
LINE
  5
2A05
  8
0
  6
VERDECKT
 62
     1
 10
1133.3201568744420911
 20
55.0000000000000071
 30
-0.0000000000000122
 11
1138.8691606057209356
 21
55.0000000000000071
 31
-0.0000000000000122
210
0.0
220
1.0
230
-0.0000000000000002
  0
LINE
  5
2A06
  8
0
  6
VERDECKT
 62
     1
 10
977.7596741330264649
 20
45.0
 30
-0.00000000000001
 11
968.3916635967583488
 21
45.0
 31
-0.00000000000001
210
0.0
220
1.0
230
-0.0000000000000002
  0
LINE
  5
2A07
  8
0
  6
VERDECKT
 62
     1
 10
936.2681586897712123
 20
55.0000000000000071
 30
-0.0000000000000122
 11
936.2681586897712123
 21
45.0
 31
-0.00000000000001
210
0.0
220
1.0
230
-0.0000000000000002
  0
LINE
  5
2A08
  8
0
  6
VERDECKT
 62
     1
 10
968.3916635967583488
 20
55.0000000000000071
 30
-0.0000000000000122
 11
977.7596741330264649
 21
55.0000000000000071
 31
-0.0000000000000122
210
0.0
220
1.0
230
-0.0000000000000002
  0
LINE
  5
2A09
  8
0
  6
VERDECKT
 62
     1
 10
860.2927190969370486
 20
45.0
 30
-0.00000000000001
 11
861.7517653681320553
 21
45.0
 31
-0.00000000000001
210
0.0
220
1.0
230
-0.0000000000000002
  0
LINE
  5
2A0A
  8
0
  6
VERDECKT
 62
     1
 10
861.7835958929028948
 20
45.0
 30
-0.00000000000001
 11
861.7835958929028948
 21
55.0000000000000071
 31
-0.0000000000000122
210
0.0
220
1.0
230
-0.0000000000000002
  0
LINE
  5
2A0B
  8
0
  6
VERDECKT
 62
     1
 10
860.2927190969370486
 20
55.0000000000000071
 30
-0.0000000000000122
 11
861.7517653681320553
 21
55.0000000000000071
 31
-0.0000000000000122
210
0.0
220
1.0
230
-0.0000000000000002
  0
LINE
  5
2A0C
  8
0
  6
VERDECKT
 62
     1
 10
967.9225893666441607
 20
45.0
 30
-0.00000000000001
 11
968.3916635967583488
 21
45.0
 31
-0.00000000000001
210
0.0
220
1.0
230
-0.0000000000000002
  0
LINE
  5
2A0D
  8
0
  6
VERDECKT
 62
     1
 10
968.3916635967583488
 20
45.0
 30
-0.00000000000001
 11
968.3916635967583488
 21
55.0000000000000071
 31
-0.0000000000000122
210
0.0
220
1.0
230
-0.0000000000000002
  0
LINE
  5
2A0E
  8
0
  6
VERDECKT
 62
     1
 10
967.9225893666441607
 20
55.0000000000000071
 30
-0.0000000000000122
 11
968.3916635967583488
 21
55.0000000000000071
 31
-0.0000000000000122
210
0.0
220
1.0
230
-0.0000000000000002
  0
LINE
  5
2A0F
  8
0
  6
VERDECKT
 62
     1
 10
1066.2712304154599678
 20
70.0000000000000142
 30
-0.0000000000000155
 11
1066.2712304154599678
 21
60.0000000000000071
 31
-0.0000000000000133
210
0.0
220
1.0
230
-0.0000000000000002
  0
LINE
  5
2A10
  8
0
  6
VERDECKT
 62
     1
 10
1066.2712304154599678
 20
70.0000000000000142
 30
-0.0000000000000155
 11
1066.7402989983049792
 21
70.0000000000000142
 31
-0.0000000000000155
210
0.0
220
1.0
230
-0.0000000000000002
  0
LINE
  5
2A11
  8
0
  6
VERDECKT
 62
     1
 10
1066.2712304154599678
 20
60.0000000000000071
 30
-0.0000000000000133
 11
1066.7402989983049792
 21
60.0000000000000071
 31
-0.0000000000000133
210
0.0
220
1.0
230
-0.0000000000000002
  0
LINE
  5
2A12
  8
0
  6
VERDECKT
 62
     1
 10
1172.8798190057279953
 20
70.0000000000000142
 30
-0.0000000000000155
 11
1172.8798190057279953
 21
60.0000000000000071
 31
-0.0000000000000133
210
0.0
220
1.0
230
-0.0000000000000002
  0
LINE
  5
2A13
  8
0
  6
VERDECKT
 62
     1
 10
1172.9116086526798881
 20
70.0000000000000142
 30
-0.0000000000000155
 11
1174.3706951469459909
 21
70.0000000000000142
 31
-0.0000000000000155
210
0.0
220
1.0
230
-0.0000000000000002
  0
LINE
  5
2A14
  8
0
  6
VERDECKT
 62
     1
 10
1172.9116086526798881
 20
60.0000000000000071
 30
-0.0000000000000133
 11
1174.3706951469459909
 21
60.0000000000000071
 31
-0.0000000000000133
210
0.0
220
1.0
230
-0.0000000000000002
  0
LINE
  5
2A15
  8
0
  6
VERDECKT
 62
     1
 10
977.7596741330264649
 20
60.0000000000000071
 30
-0.0000000000000133
 11
968.3916635967583488
 21
60.0000000000000071
 31
-0.0000000000000133
210
0.0
220
1.0
230
-0.0000000000000002
  0
LINE
  5
2A16
  8
0
  6
VERDECKT
 62
     1
 10
936.2681586897712123
 20
70.0000000000000142
 30
-0.0000000000000155
 11
936.2681586897712123
 21
60.0000000000000071
 31
-0.0000000000000133
210
0.0
220
1.0
230
-0.0000000000000002
  0
LINE
  5
2A17
  8
0
  6
VERDECKT
 62
     1
 10
968.3916635967583488
 20
70.0000000000000142
 30
-0.0000000000000155
 11
977.7596741330264649
 21
70.0000000000000142
 31
-0.0000000000000155
210
0.0
220
1.0
230
-0.0000000000000002
  0
LINE
  5
2A18
  8
0
  6
VERDECKT
 62
     1
 10
860.2927190969370486
 20
60.0000000000000071
 30
-0.0000000000000133
 11
861.7517653681320553
 21
60.0000000000000071
 31
-0.0000000000000133
210
0.0
220
1.0
230
-0.0000000000000002
  0
LINE
  5
2A19
  8
0
  6
VERDECKT
 62
     1
 10
861.7835958929028948
 20
60.0000000000000071
 30
-0.0000000000000133
 11
861.7835958929028948
 21
70.0000000000000142
 31
-0.0000000000000155
210
0.0
220
1.0
230
-0.0000000000000002
  0
LINE
  5
2A1A
  8
0
  6
VERDECKT
 62
     1
 10
860.2927190969370486
 20
70.0000000000000142
 30
-0.0000000000000155
 11
861.7517653681320553
 21
70.0000000000000142
 31
-0.0000000000000155
210
0.0
220
1.0
230
-0.0000000000000002
  0
LINE
  5
2A1B
  8
0
  6
VERDECKT
 62
     1
 10
967.9225893666441607
 20
60.0000000000000071
 30
-0.0000000000000133
 11
968.3916635967583488
 21
60.0000000000000071
 31
-0.0000000000000133
210
0.0
220
1.0
230
-0.0000000000000002
  0
LINE
  5
2A1C
  8
0
  6
VERDECKT
 62
     1
 10
968.3916635967583488
 20
60.0000000000000071
 30
-0.0000000000000133
 11
968.3916635967583488
 21
70.0000000000000142
 31
-0.0000000000000155
210
0.0
220
1.0
230
-0.0000000000000002
  0
LINE
  5
2A1D
  8
0
  6
VERDECKT
 62
     1
 10
967.9225893666441607
 20
70.0000000000000142
 30
-0.0000000000000155
 11
968.3916635967583488
 21
70.0000000000000142
 31
-0.0000000000000155
210
0.0
220
1.0
230
-0.0000000000000002
  0
LINE
  5
2A1E
  8
0
  6
VERDECKT
 62
     1
 10
894.6290326774435471
 20
60.0000000000000071
 30
-0.0000000000000133
 11
895.793931812835126
 21
60.0000000000000071
 31
-0.0000000000000133
210
0.0
220
1.0
230
-0.0000000000000002
  0
LINE
  5
2A1F
  8
0
  6
VERDECKT
 62
     1
 10
895.7939318128348987
 20
60.0000000000000071
 30
-0.0000000000000133
 11
895.7939318128348987
 21
70.0000000000000142
 31
-0.0000000000000155
210
0.0
220
1.0
230
-0.0000000000000002
  0
LINE
  5
2A20
  8
0
  6
VERDECKT
 62
     1
 10
894.6290326774435471
 20
70.0000000000000142
 30
-0.0000000000000155
 11
895.793931812835126
 21
70.0000000000000142
 31
-0.0000000000000155
210
0.0
220
1.0
230
-0.0000000000000002
  0
LINE
  5
2A21
  8
0
  6
VERDECKT
 62
     1
 10
901.3429010873391007
 20
60.0000000000000071
 30
-0.0000000000000133
 11
895.7939318128348987
 21
60.0000000000000071
 31
-0.0000000000000133
210
0.0
220
1.0
230
-0.0000000000000002
  0
LINE
  5
2A22
  8
0
  6
VERDECKT
 62
     1
 10
875.8151855781377435
 20
70.0000000000000142
 30
-0.0000000000000155
 11
875.8151855781377435
 21
60.0000000000000071
 31
-0.0000000000000133
210
0.0
220
1.0
230
-0.0000000000000002
  0
LINE
  5
2A23
  8
0
  6
VERDECKT
 62
     1
 10
895.793931812835126
 20
70.0000000000000142
 30
-0.0000000000000155
 11
901.3429010873393281
 21
70.0000000000000142
 31
-0.0000000000000155
210
0.0
220
1.0
230
-0.0000000000000002
  0
LINE
  5
2A24
  8
0
  6
VERDECKT
 62
     1
 10
1158.8485761331539834
 20
60.0000000000000071
 30
-0.0000000000000133
 11
1158.8485761331539834
 21
70.0000000000000142
 31
-0.0000000000000155
210
0.0
220
1.0
230
-0.0000000000000002
  0
LINE
  5
2A25
  8
0
  6
VERDECKT
 62
     1
 10
1138.8691606057209356
 20
60.0000000000000071
 30
-0.0000000000000133
 11
1133.3201568744420911
 21
60.0000000000000071
 31
-0.0000000000000133
210
0.0
220
1.0
230
-0.0000000000000002
  0
LINE
  5
2A26
  8
0
  6
VERDECKT
 62
     1
 10
1133.3201568744420911
 20
70.0000000000000142
 30
-0.0000000000000155
 11
1138.8691606057209356
 21
70.0000000000000142
 31
-0.0000000000000155
210
0.0
220
1.0
230
-0.0000000000000002
  0
LINE
  5
2A27
  8
0
  6
VERDECKT
 62
     1
 10
1138.8691606057209356
 20
70.0000000000000142
 30
-0.0000000000000155
 11
1138.8691606057209356
 21
60.0000000000000071
 31
-0.0000000000000133
210
0.0
220
1.0
230
-0.0000000000000002
  0
LINE
  5
2A28
  8
0
  6
VERDECKT
 62
     1
 10
1138.8691606057209356
 20
70.0000000000000142
 30
-0.0000000000000155
 11
1140.0340559955009212
 21
70.0000000000000142
 31
-0.0000000000000155
210
0.0
220
1.0
230
-0.0000000000000002
  0
LINE
  5
2A29
  8
0
  6
VERDECKT
 62
     1
 10
1138.8691606057209356
 20
60.0000000000000071
 30
-0.0000000000000133
 11
1140.0340559955009212
 21
60.0000000000000071
 31
-0.0000000000000133
210
0.0
220
1.0
230
-0.0000000000000002
  0
LINE
  5
2A2A
  8
0
  6
VERDECKT
 62
     1
 10
894.6290326774435471
 20
45.0
 30
-0.00000000000001
 11
895.793931812835126
 21
45.0
 31
-0.00000000000001
210
0.0
220
1.0
230
-0.0000000000000002
  0
LINE
  5
2A2B
  8
0
  6
VERDECKT
 62
     1
 10
895.7939318128348987
 20
45.0
 30
-0.00000000000001
 11
895.7939318128348987
 21
55.0000000000000071
 31
-0.0000000000000122
210
0.0
220
1.0
230
-0.0000000000000002
  0
LINE
  5
2A2C
  8
0
  6
VERDECKT
 62
     1
 10
894.6290326774435471
 20
55.0000000000000071
 30
-0.0000000000000122
 11
895.793931812835126
 21
55.0000000000000071
 31
-0.0000000000000122
210
0.0
220
1.0
230
-0.0000000000000002
  0
LINE
  5
2A2D
  8
0
  6
VERDECKT
 62
     1
 10
901.3429010873391007
 20
45.0
 30
-0.00000000000001
 11
895.7939318128348987
 21
45.0
 31
-0.00000000000001
210
0.0
220
1.0
230
-0.0000000000000002
  0
LINE
  5
2A2E
  8
0
  6
VERDECKT
 62
     1
 10
875.8151855781377435
 20
55.0000000000000071
 30
-0.0000000000000122
 11
875.8151855781377435
 21
45.0
 31
-0.00000000000001
210
0.0
220
1.0
230
-0.0000000000000002
  0
LINE
  5
2A2F
  8
0
  6
VERDECKT
 62
     1
 10
895.793931812835126
 20
55.0000000000000071
 30
-0.0000000000000122
 11
901.3429010873393281
 21
55.0000000000000071
 31
-0.0000000000000122
210
0.0
220
1.0
230
-0.0000000000000002
  0
LINE
  5
2A30
  8
0
  6
VERDECKT
 62
     1
 10
1098.3958620669520769
 20
45.0
 30
-0.00000000000001
 11
1098.3958620669520769
 21
55.0000000000000071
 31
-0.0000000000000122
210
0.0
220
1.0
230
-0.0000000000000002
  0
LINE
  5
2A31
  8
0
  6
VERDECKT
 62
     1
 10
1066.2712304154599678
 20
45.0
 30
-0.00000000000001
 11
1056.903202783244069
 21
45.0
 31
-0.00000000000001
210
0.0
220
1.0
230
-0.0000000000000002
  0
LINE
  5
2A32
  8
0
  6
VERDECKT
 62
     1
 10
1056.903202783244069
 20
55.0000000000000071
 30
-0.0000000000000122
 11
1066.2712304154599678
 21
55.0000000000000071
 31
-0.0000000000000122
210
0.0
220
1.0
230
-0.0000000000000002
  0
LINE
  5
2A33
  8
0
  6
VERDECKT
 62
     1
 10
1172.8798190057279953
 20
55.0000000000000071
 30
-0.0000000000000122
 11
1172.8798190057279953
 21
45.0
 31
-0.00000000000001
210
0.0
220
1.0
230
-0.0000000000000002
  0
LINE
  5
2A34
  8
0
  6
VERDECKT
 62
     1
 10
1172.9116086526798881
 20
55.0000000000000071
 30
-0.0000000000000122
 11
1174.3706951469459909
 21
55.0000000000000071
 31
-0.0000000000000122
210
0.0
220
1.0
230
-0.0000000000000002
  0
LINE
  5
2A35
  8
0
  6
VERDECKT
 62
     1
 10
1172.9116086526798881
 20
45.0
 30
-0.00000000000001
 11
1174.3706951469459909
 21
45.0
 31
-0.00000000000001
210
0.0
220
1.0
230
-0.0000000000000002
  0
LINE
  5
2A36
  8
0
  6
VERDECKT
 62
     1
 10
1066.2712304154599678
 20
55.0000000000000071
 30
-0.0000000000000122
 11
1066.2712304154599678
 21
45.0
 31
-0.00000000000001
210
0.0
220
1.0
230
-0.0000000000000002
  0
LINE
  5
2A37
  8
0
  6
VERDECKT
 62
     1
 10
1066.2712304154599678
 20
55.0000000000000071
 30
-0.0000000000000122
 11
1066.7402989983049792
 21
55.0000000000000071
 31
-0.0000000000000122
210
0.0
220
1.0
230
-0.0000000000000002
  0
LINE
  5
2A38
  8
0
  6
VERDECKT
 62
     1
 10
1066.2712304154599678
 20
45.0
 30
-0.00000000000001
 11
1066.7402989983049792
 21
45.0
 31
-0.00000000000001
210
0.0
220
1.0
230
-0.0000000000000002
  0
LINE
  5
2A39
  8
0
  6
VERDECKT
 62
     1
 10
967.9225893666441607
 20
30.0000000000000107
 30
-0.0000000000000067
 11
968.3916635967583488
 21
30.0000000000000107
 31
-0.0000000000000067
210
0.0
220
1.0
230
-0.0000000000000002
  0
LINE
  5
2A3A
  8
0
  6
VERDECKT
 62
     1
 10
968.3916635967583488
 20
30.0000000000000107
 30
-0.0000000000000067
 11
968.3916635967583488
 21
40.0
 31
-0.0000000000000089
210
0.0
220
1.0
230
-0.0000000000000002
  0
LINE
  5
2A3B
  8
0
  6
VERDECKT
 62
     1
 10
967.9225893666441607
 20
40.0
 30
-0.0000000000000089
 11
968.3916635967583488
 21
40.0
 31
-0.0000000000000089
210
0.0
220
1.0
230
-0.0000000000000002
  0
LINE
  5
2A3C
  8
0
  6
VERDECKT
 62
     1
 10
860.2927190969370486
 20
30.0000000000000107
 30
-0.0000000000000067
 11
861.7517653681320553
 21
30.0000000000000107
 31
-0.0000000000000067
210
0.0
220
1.0
230
-0.0000000000000002
  0
LINE
  5
2A3D
  8
0
  6
VERDECKT
 62
     1
 10
861.7835958929028948
 20
30.0000000000000107
 30
-0.0000000000000067
 11
861.7835958929028948
 21
40.0
 31
-0.0000000000000089
210
0.0
220
1.0
230
-0.0000000000000002
  0
LINE
  5
2A3E
  8
0
  6
VERDECKT
 62
     1
 10
860.2927190969370486
 20
40.0
 30
-0.0000000000000089
 11
861.7517653681320553
 21
40.0
 31
-0.0000000000000089
210
0.0
220
1.0
230
-0.0000000000000002
  0
LINE
  5
2A3F
  8
0
  6
VERDECKT
 62
     1
 10
977.7596741330264649
 20
30.0000000000000107
 30
-0.0000000000000067
 11
968.3916635967583488
 21
30.0000000000000107
 31
-0.0000000000000067
210
0.0
220
1.0
230
-0.0000000000000002
  0
LINE
  5
2A40
  8
0
  6
VERDECKT
 62
     1
 10
936.2681586897712123
 20
40.0
 30
-0.0000000000000089
 11
936.2681586897712123
 21
30.0000000000000107
 31
-0.0000000000000067
210
0.0
220
1.0
230
-0.0000000000000002
  0
LINE
  5
2A41
  8
0
  6
VERDECKT
 62
     1
 10
968.3916635967583488
 20
40.0
 30
-0.0000000000000089
 11
977.7596741330264649
 21
40.0
 31
-0.0000000000000089
210
0.0
220
1.0
230
-0.0000000000000002
  0
LINE
  5
2A42
  8
0
  6
VERDECKT
 62
     1
 10
1158.8485761331539834
 20
30.0000000000000107
 30
-0.0000000000000067
 11
1158.8485761331539834
 21
40.0
 31
-0.0000000000000089
210
0.0
220
1.0
230
-0.0000000000000002
  0
LINE
  5
2A43
  8
0
  6
VERDECKT
 62
     1
 10
1138.8691606057209356
 20
30.0000000000000107
 30
-0.0000000000000067
 11
1133.3201568744420911
 21
30.0000000000000107
 31
-0.0000000000000067
210
0.0
220
1.0
230
-0.0000000000000002
  0
LINE
  5
2A44
  8
0
  6
VERDECKT
 62
     1
 10
1133.3201568744420911
 20
40.0
 30
-0.0000000000000089
 11
1138.8691606057209356
 21
40.0
 31
-0.0000000000000089
210
0.0
220
1.0
230
-0.0000000000000002
  0
LINE
  5
2A45
  8
0
  6
VERDECKT
 62
     1
 10
1138.8691606057209356
 20
40.0
 30
-0.0000000000000089
 11
1138.8691606057209356
 21
30.0000000000000107
 31
-0.0000000000000067
210
0.0
220
1.0
230
-0.0000000000000002
  0
LINE
  5
2A46
  8
0
  6
VERDECKT
 62
     1
 10
1138.8691606057209356
 20
40.0
 30
-0.0000000000000089
 11
1140.0340559955009212
 21
40.0
 31
-0.0000000000000089
210
0.0
220
1.0
230
-0.0000000000000002
  0
LINE
  5
2A47
  8
0
  6
VERDECKT
 62
     1
 10
1138.8691606057209356
 20
30.0000000000000107
 30
-0.0000000000000067
 11
1140.0340559955009212
 21
30.0000000000000107
 31
-0.0000000000000067
210
0.0
220
1.0
230
-0.0000000000000002
  0
LINE
  5
2A48
  8
0
  6
VERDECKT
 62
     1
 10
894.6290326774435471
 20
15.0
 30
-0.0000000000000033
 11
895.793931812835126
 21
15.0
 31
-0.0000000000000033
210
0.0
220
1.0
230
-0.0000000000000002
  0
LINE
  5
2A49
  8
0
  6
VERDECKT
 62
     1
 10
895.7939318128348987
 20
15.0
 30
-0.0000000000000033
 11
895.7939318128348987
 21
25.0000000000000107
 31
-0.0000000000000056
210
0.0
220
1.0
230
-0.0000000000000002
  0
LINE
  5
2A4A
  8
0
  6
VERDECKT
 62
     1
 10
894.6290326774435471
 20
25.0000000000000107
 30
-0.0000000000000056
 11
895.793931812835126
 21
25.0000000000000107
 31
-0.0000000000000056
210
0.0
220
1.0
230
-0.0000000000000002
  0
LINE
  5
2A4B
  8
0
  6
VERDECKT
 62
     1
 10
901.3429010873391007
 20
15.0
 30
-0.0000000000000033
 11
895.7939318128348987
 21
15.0
 31
-0.0000000000000033
210
0.0
220
1.0
230
-0.0000000000000002
  0
LINE
  5
2A4C
  8
0
  6
VERDECKT
 62
     1
 10
875.8151855781377435
 20
25.0000000000000107
 30
-0.0000000000000056
 11
875.8151855781377435
 21
15.0
 31
-0.0000000000000033
210
0.0
220
1.0
230
-0.0000000000000002
  0
LINE
  5
2A4D
  8
0
  6
VERDECKT
 62
     1
 10
895.793931812835126
 20
25.0000000000000107
 30
-0.0000000000000056
 11
901.3429010873393281
 21
25.0000000000000107
 31
-0.0000000000000056
210
0.0
220
1.0
230
-0.0000000000000002
  0
LINE
  5
2A4E
  8
0
  6
VERDECKT
 62
     1
 10
1098.3958620669520769
 20
15.0
 30
-0.0000000000000033
 11
1098.3958620669520769
 21
25.0000000000000107
 31
-0.0000000000000056
210
0.0
220
1.0
230
-0.0000000000000002
  0
LINE
  5
2A4F
  8
0
  6
VERDECKT
 62
     1
 10
1066.2712304154599678
 20
15.0
 30
-0.0000000000000033
 11
1056.903202783244069
 21
15.0
 31
-0.0000000000000033
210
0.0
220
1.0
230
-0.0000000000000002
  0
LINE
  5
2A50
  8
0
  6
VERDECKT
 62
     1
 10
1056.903202783244069
 20
25.0000000000000107
 30
-0.0000000000000056
 11
1066.2712304154599678
 21
25.0000000000000107
 31
-0.0000000000000056
210
0.0
220
1.0
230
-0.0000000000000002
  0
LINE
  5
2A51
  8
0
  6
VERDECKT
 62
     1
 10
1172.8798190057279953
 20
25.0000000000000107
 30
-0.0000000000000056
 11
1172.8798190057279953
 21
15.0
 31
-0.0000000000000033
210
0.0
220
1.0
230
-0.0000000000000002
  0
LINE
  5
2A52
  8
0
  6
VERDECKT
 62
     1
 10
1172.9116086526798881
 20
25.0000000000000107
 30
-0.0000000000000056
 11
1174.3706951469459909
 21
25.0000000000000107
 31
-0.0000000000000056
210
0.0
220
1.0
230
-0.0000000000000002
  0
LINE
  5
2A53
  8
0
  6
VERDECKT
 62
     1
 10
1172.9116086526798881
 20
15.0
 30
-0.0000000000000033
 11
1174.3706951469459909
 21
15.0
 31
-0.0000000000000033
210
0.0
220
1.0
230
-0.0000000000000002
  0
LINE
  5
2A54
  8
0
  6
VERDECKT
 62
     1
 10
1066.2712304154599678
 20
25.0000000000000107
 30
-0.0000000000000056
 11
1066.2712304154599678
 21
15.0
 31
-0.0000000000000033
210
0.0
220
1.0
230
-0.0000000000000002
  0
LINE
  5
2A55
  8
0
  6
VERDECKT
 62
     1
 10
1066.2712304154599678
 20
25.0000000000000107
 30
-0.0000000000000056
 11
1066.7402989983049792
 21
25.0000000000000107
 31
-0.0000000000000056
210
0.0
220
1.0
230
-0.0000000000000002
  0
LINE
  5
2A56
  8
0
  6
VERDECKT
 62
     1
 10
1066.2712304154599678
 20
15.0
 30
-0.0000000000000033
 11
1066.7402989983049792
 21
15.0
 31
-0.0000000000000033
210
0.0
220
1.0
230
-0.0000000000000002
  0
LINE
  5
2A57
  8
0
  6
VERDECKT
 62
     1
 10
968.3916635967583488
 20
0.0
 30
0.0
 11
968.3916635967583488
 21
10.0
 31
-0.0000000000000022
210
0.0
220
1.0
230
-0.0000000000000002
  0
LINE
  5
2A58
  8
0
  6
VERDECKT
 62
     1
 10
967.9225893666441607
 20
10.0
 30
-0.0000000000000022
 11
968.3916635967583488
 21
10.0
 31
-0.0000000000000022
210
0.0
220
1.0
230
-0.0000000000000002
  0
LINE
  5
2A59
  8
0
  6
VERDECKT
 62
     1
 10
861.7835958929028948
 20
0.0
 30
0.0
 11
861.7835958929028948
 21
10.0
 31
-0.0000000000000022
210
0.0
220
1.0
230
-0.0000000000000002
  0
LINE
  5
2A5A
  8
0
  6
VERDECKT
 62
     1
 10
860.2927190969370486
 20
10.0
 30
-0.0000000000000022
 11
861.7517653681320553
 21
10.0
 31
-0.0000000000000022
210
0.0
220
1.0
230
-0.0000000000000002
  0
LINE
  5
2A5B
  8
0
  6
VERDECKT
 62
     1
 10
936.2681586897712123
 20
9.9999999999999982
 30
-0.0000000000000022
 11
936.2681586897712123
 21
0.0
 31
0.0
210
0.0
220
1.0
230
-0.0000000000000002
  0
LINE
  5
2A5C
  8
0
  6
VERDECKT
 62
     1
 10
968.3916635967583488
 20
10.0
 30
-0.0000000000000022
 11
977.7596741330264649
 21
10.0
 31
-0.0000000000000022
210
0.0
220
1.0
230
-0.0000000000000002
  0
LINE
  5
2A5D
  8
0
  6
VERDECKT
 62
     1
 10
1158.8485761331539834
 20
0.0
 30
0.0
 11
1158.8485761331539834
 21
9.9999999999999982
 31
-0.0000000000000022
210
0.0
220
1.0
230
-0.0000000000000002
  0
LINE
  5
2A5E
  8
0
  6
VERDECKT
 62
     1
 10
1133.3201568744420911
 20
10.0
 30
-0.0000000000000022
 11
1138.8691606057209356
 21
10.0
 31
-0.0000000000000022
210
0.0
220
1.0
230
-0.0000000000000002
  0
LINE
  5
2A5F
  8
0
  6
VERDECKT
 62
     1
 10
1138.8691606057209356
 20
10.0
 30
-0.0000000000000022
 11
1138.8691606057209356
 21
0.0
 31
0.0
210
0.0
220
1.0
230
-0.0000000000000002
  0
LINE
  5
2A60
  8
0
  6
VERDECKT
 62
     1
 10
1138.8691606057209356
 20
10.0
 30
-0.0000000000000022
 11
1140.0340559955009212
 21
10.0
 31
-0.0000000000000022
210
0.0
220
1.0
230
-0.0000000000000002
  0
LINE
  5
2A61
  8
0
  6
VERDECKT
 62
     1
 10
1098.3958620669509401
 20
60.0000000000000071
 30
-0.0000000000000133
 11
1098.3958620669509401
 21
70.0000000000000142
 31
-0.0000000000000155
210
0.0
220
1.0
230
-0.0000000000000002
  0
LINE
  5
2A62
  8
0
  6
VERDECKT
 62
     1
 10
1066.2712304154599678
 20
60.0000000000000071
 30
-0.0000000000000133
 11
1056.903202783244069
 21
60.0000000000000071
 31
-0.0000000000000133
210
0.0
220
1.0
230
-0.0000000000000002
  0
LINE
  5
2A63
  8
0
  6
VERDECKT
 62
     1
 10
1056.903202783244069
 20
70.0000000000000142
 30
-0.0000000000000155
 11
1066.2712304154599678
 21
70.0000000000000142
 31
-0.0000000000000155
210
0.0
220
1.0
230
-0.0000000000000002
  0
LINE
  5
2A64
  8
0
  6
VERDECKT
 62
     1
 10
860.8317416053391753
 20
-5.0
 30
0.0000000000000011
 11
860.8317416053391753
 21
0.0
 31
0.0
210
0.0
220
1.0
230
-0.0000000000000002
  0
LINE
  5
2A65
  8
0
  6
VERDECKT
 62
     1
 10
860.8317416053391753
 20
10.0
 30
-0.0000000000000022
 11
860.8317416053391753
 21
15.0
 31
-0.0000000000000033
210
0.0
220
1.0
230
-0.0000000000000002
  0
LINE
  5
2A66
  8
0
  6
VERDECKT
 62
     1
 10
860.8317416053391753
 20
25.0000000000000107
 30
-0.0000000000000056
 11
860.8317416053391753
 21
30.0000000000000107
 31
-0.0000000000000067
210
0.0
220
1.0
230
-0.0000000000000002
  0
LINE
  5
2A67
  8
0
  6
VERDECKT
 62
     1
 10
860.8317416053391753
 20
40.0
 30
-0.0000000000000089
 11
860.8317416053391753
 21
45.0
 31
-0.00000000000001
210
0.0
220
1.0
230
-0.0000000000000002
  0
LINE
  5
2A68
  8
0
  6
VERDECKT
 62
     1
 10
860.8317416053391753
 20
55.0000000000000071
 30
-0.0000000000000122
 11
860.8317416053391753
 21
60.0000000000000071
 31
-0.0000000000000133
210
0.0
220
1.0
230
-0.0000000000000002
  0
LINE
  5
2A69
  8
0
  6
VERDECKT
 62
     1
 10
860.8317416053391753
 20
70.0000000000000142
 30
-0.0000000000000155
 11
860.8317416053391753
 21
75.0000000000000142
 31
-0.0000000000000167
210
0.0
220
1.0
230
-0.0000000000000002
  0
LINE
  5
2A6A
  8
0
  6
VERDECKT
 62
     1
 10
1173.8317416053389479
 20
-5.0
 30
0.0000000000000011
 11
1173.8317416053389479
 21
0.0
 31
0.0
210
0.0
220
1.0
230
-0.0000000000000002
  0
LINE
  5
2A6B
  8
0
  6
VERDECKT
 62
     1
 10
1173.8317416053389479
 20
10.0
 30
-0.0000000000000022
 11
1173.8317416053389479
 21
15.0
 31
-0.0000000000000033
210
0.0
220
1.0
230
-0.0000000000000002
  0
LINE
  5
2A6C
  8
0
  6
VERDECKT
 62
     1
 10
1173.8317416053389479
 20
25.0000000000000107
 30
-0.0000000000000056
 11
1173.8317416053389479
 21
30.0000000000000107
 31
-0.0000000000000067
210
0.0
220
1.0
230
-0.0000000000000002
  0
LINE
  5
2A6D
  8
0
  6
VERDECKT
 62
     1
 10
1173.8317416053389479
 20
40.0
 30
-0.0000000000000089
 11
1173.8317416053389479
 21
45.0
 31
-0.00000000000001
210
0.0
220
1.0
230
-0.0000000000000002
  0
LINE
  5
2A6E
  8
0
  6
VERDECKT
 62
     1
 10
1173.8317416053389479
 20
55.0000000000000071
 30
-0.0000000000000122
 11
1173.8317416053389479
 21
60.0000000000000071
 31
-0.0000000000000133
210
0.0
220
1.0
230
-0.0000000000000002
  0
LINE
  5
2A6F
  8
0
  6
VERDECKT
 62
     1
 10
1173.8317416053389479
 20
70.0000000000000142
 30
-0.0000000000000155
 11
1173.8317416053389479
 21
75.0000000000000142
 31
-0.0000000000000167
210
0.0
220
1.0
230
-0.0000000000000002
  0
LINE
  5
2A70
  8
0
  6
VERDECKT
 62
     1
 10
901.3429010873388734
 20
0.0
 30
0.0
 11
895.793931812835126
 21
0.0
 31
0.0
210
0.0
220
1.0
230
-0.0000000000000002
  0
LINE
  5
2A71
  8
0
  6
VERDECKT
 62
     1
 10
977.7596741330264649
 20
0.0
 30
0.0
 11
968.3916635967583488
 21
0.0
 31
0.0
210
0.0
220
1.0
230
-0.0000000000000002
  0
LINE
  5
2A72
  8
0
  6
VERDECKT
 62
     1
 10
1066.2712304154599678
 20
0.0
 30
0.0
 11
1056.903202783244069
 21
0.0
 31
0.0
210
0.0
220
1.0
230
-0.0000000000000002
  0
LINE
  5
2A73
  8
0
  6
VERDECKT
 62
     1
 10
1138.8691606057220724
 20
0.0
 30
0.0
 11
1133.3201568744420911
 21
0.0
 31
0.0
210
0.0
220
1.0
230
-0.0000000000000002
  0
LINE
  5
2A74
  8
0
  6
VERDECKT
 62
     1
 10
1173.8317416053389479
 20
-1.5
 30
0.0000000000000003
 11
860.8317416053391753
 21
-1.5
 31
0.0000000000000003
210
0.0
220
1.0
230
-0.0000000000000002
  0
LINE
  5
2A75
  8
0
  6
VERDECKT
 62
     1
 10
891.3317416053390616
 20
-1.5
 30
0.0000000000000003
 11
891.3317416053390616
 21
0.0
 31
0.0
210
0.0
220
1.0
230
-0.0000000000000002
  0
LINE
  5
2A76
  8
0
  6
VERDECKT
 62
     1
 10
899.3317416053390616
 20
-1.5
 30
0.0000000000000003
 11
899.3317416053390616
 21
0.0
 31
0.0
210
0.0
220
1.0
230
-0.0000000000000002
  0
LINE
  5
2A77
  8
0
  6
VERDECKT
 62
     1
 10
902.831741605339289
 20
-1.5
 30
0.0000000000000003
 11
902.831741605339289
 21
0.0
 31
0.0
210
0.0
220
1.0
230
-0.0000000000000002
  0
LINE
  5
2A78
  8
0
  6
VERDECKT
 62
     1
 10
891.3090143326121506
 20
-1.5
 30
0.0000000000000003
 11
891.3090143326121506
 21
0.0
 31
0.0
210
0.0
220
1.0
230
-0.0000000000000002
  0
LINE
  5
2A79
  8
0
  6
VERDECKT
 62
     1
 10
1151.3317416053389479
 20
-1.5
 30
0.0000000000000003
 11
1151.3317416053389479
 21
0.0
 31
0.0
210
0.0
220
1.0
230
-0.0000000000000002
  0
LINE
  5
2A7A
  8
0
  6
VERDECKT
 62
     1
 10
1074.3317416053389479
 20
-1.5
 30
0.0000000000000003
 11
1074.3317416053389479
 21
0.0
 31
0.0
210
0.0
220
1.0
230
-0.0000000000000002
  0
LINE
  5
2A7B
  8
0
  6
VERDECKT
 62
     1
 10
1082.3317416053389479
 20
-1.5
 30
0.0000000000000003
 11
1082.3317416053389479
 21
0.0
 31
0.0
210
0.0
220
1.0
230
-0.0000000000000002
  0
LINE
  5
2A7C
  8
0
  6
VERDECKT
 62
     1
 10
860.8317416053391753
 20
-1.5
 30
0.0000000000000003
 11
860.8317416053391753
 21
0.0
 31
0.0
210
0.0
220
1.0
230
-0.0000000000000002
  0
LINE
  5
2A7D
  8
0
  6
VERDECKT
 62
     1
 10
1173.8317416053389479
 20
-1.5
 30
0.0000000000000003
 11
1173.8317416053389479
 21
0.0
 31
0.0
210
0.0
220
1.0
230
-0.0000000000000002
  0
ENDBLK
  5
2A7F
  8
0
  0
ENDSEC
  0
SECTION
  2
ENTITIES
  0
TEXT
  5
990
  8
VOLL
 10
1816.1210302487891113
 20
390.0114665142126
 30
0.0
 40
3.6000000000000001
  1

  7
GREEKS
  0
TEXT
  5
991
  8
VOLL
 10
2058.9265675871511121
 20
804.6522826047374792
 30
0.0
 40
3.6000000000000001
  1

  7
GREEKS
  0
TEXT
  5
992
  8
VOLL
 10
2718.5929895159911212
 20
437.4734345365511103
 30
0.0
 40
3.6000000000000001
  1

  7
GREEKS
  0
TEXT
  5
993
  8
VOLL
 10
2710.9284364873160484
 20
415.0657870796293878
 30
0.0
 40
3.6000000000000001
  1

  7
GREEKS
  0
INSERT
  5
1E3B
  8
ADSK_ASSOC_ENTITY_BACKUPS
  2
*S0
 10
0.0
 20
0.0
 30
0.0
  0
INSERT
  5
28D1
  8
STEMPEL
  2
A$C48D6E363
 10
403.4638325555411029
 20
-235.8491199754533056
 30
-62.4893219429154385
  0
INSERT
  5
2A80
  8
STEMPEL
  2
A$CE7340A23
 10
403.4638325555411029
 20
473.7342754083562113
 30
-62.4893219429152396
  0
VIEWPORT
  5
151F
 67
     1
  8
0
 10
58.4397154007523909
 20
-161.3346768712735866
 30
0.0
 40
1510.2943895591120054
 41
846.007151370679253
 68
     1
 69
     1
1001
ACAD
1000
MVIEW
1002
{
1070
    16
1010
0.0
1020
0.0
1030
0.0
1010
0.0
1020
0.0
1030
1.0
1040
0.0
1040
846.007151370679253
1040
58.4397154007523909
1040
-161.3346768712735866
1040
50.0
1040
0.0
1040
0.0
1070
     0
1070
  1500
1070
     1
1070
     1
1070
     0
1070
     0
1070
     0
1070
     0
1040
0.0
1040
0.0
1040
0.0
1040
10.0
1040
10.0
1040
10.0
1040
10.0
1070
     0
1002
{
1002
}
1002
}
  0
TEXT
  5
259A
 67
     1
  8
VOLL
 10
1319.0624975009789068
 20
-37.2780446576861095
 30
0.0
 40
1.8
  1

  7
GREEKS
  0
TEXT
  5
259B
 67
     1
  8
VOLL
 10
1440.4652661701609304
 20
170.0423633875763869
 30
0.0
 40
1.8
  1

  7
GREEKS
  0
TEXT
  5
259C
 67
     1
  8
VOLL
 10
1770.2984771345800254
 20
-13.5470606465167904
 30
0.0
 40
1.8
  1

  7
GREEKS
  0
TEXT
  5
259D
 67
     1
  8
VOLL
 10
1766.4662006202429438
 20
-24.7508843749776588
 30
0.0
 40
1.8
  1

  7
GREEKS
  0
ENDSEC
  0
EOF
