  0
SECTION
  2
HEADER
  9
$ACADVER
  1
AC1009
  9
$INSBASE
 10
0.0
 20
0.0
 30
0.0
  9
$EXTMIN
 10
-130.0297854770408037
 20
-130.0163310738900861
 30
-0.0015258207003583
  9
$EXTMAX
 10
130.0917373420315926
 20
285.0410215785918808
 30
0.0000000349246037
  9
$LIMMIN
 10
0.0
 20
0.0
  9
$LIMMAX
 10
419.9999999999998863
 20
594.0
  9
$ORTHOMODE
 70
     1
  9
$REGENMODE
 70
     1
  9
$FILLMODE
 70
     1
  9
$QTEXTMODE
 70
     0
  9
$MIRRTEXT
 70
     1
  9
$DRAGMODE
 70
     2
  9
$LTSCALE
 40
20.0
  9
$OSMODE
 70
  2559
  9
$ATTMODE
 70
     1
  9
$TEXTSIZE
 40
3.5
  9
$TRACEWID
 40
0.5
  9
$TEXTSTYLE
  7
STANDARD
  9
$CLAYER
  8
STEMPEL
  9
$CELTYPE
  6
BYLAYER
  9
$CECOLOR
 62
   256
  9
$DIMSCALE
 40
1.0
  9
$DIMASZ
 40
3.5
  9
$DIMEXO
 40
1.0
  9
$DIMDLI
 40
7.0
  9
$DIMRND
 40
0.0
  9
$DIMDLE
 40
0.0
  9
$DIMEXE
 40
1.0
  9
$DIMTP
 40
0.0
  9
$DIMTM
 40
0.0
  9
$DIMTXT
 40
3.5
  9
$DIMCEN
 40
1.5
  9
$DIMTSZ
 40
0.0
  9
$DIMTOL
 70
     0
  9
$DIMLIM
 70
     0
  9
$DIMTIH
 70
     0
  9
$DIMTOH
 70
     0
  9
$DIMSE1
 70
     0
  9
$DIMSE2
 70
     0
  9
$DIMTAD
 70
     1
  9
$DIMZIN
 70
     8
  9
$DIMBLK
  1

  9
$DIMASO
 70
     1
  9
$DIMSHO
 70
     0
  9
$DIMPOST
  1

  9
$DIMAPOST
  1

  9
$DIMALT
 70
     0
  9
$DIMALTD
 70
     2
  9
$DIMALTF
 40
25.3999999999999986
  9
$DIMLFAC
 40
2.0
  9
$DIMTOFL
 70
     1
  9
$DIMTVP
 40
0.0
  9
$DIMTIX
 70
     0
  9
$DIMSOXD
 70
     0
  9
$DIMSAH
 70
     0
  9
$DIMBLK1
  1

  9
$DIMBLK2
  1

  9
$DIMSTYLE
  2
STANDARD
  9
$DIMCLRD
 70
     0
  9
$DIMCLRE
 70
     0
  9
$DIMCLRT
 70
     1
  9
$DIMTFAC
 40
0.5
  9
$DIMGAP
 40
1.5
  9
$LUNITS
 70
     2
  9
$LUPREC
 70
     2
  9
$SKETCHINC
 40
1.0
  9
$FILLETRAD
 40
0.0
  9
$AUNITS
 70
     0
  9
$AUPREC
 70
     0
  9
$MENU
  1
ACAD
  9
$ELEVATION
 40
0.0
  9
$PELEVATION
 40
0.0
  9
$THICKNESS
 40
0.0
  9
$LIMCHECK
 70
     0
  9
$BLIPMODE
 70
     0
  9
$CHAMFERA
 40
0.0
  9
$CHAMFERB
 40
0.0
  9
$SKPOLY
 70
     0
  9
$TDCREATE
 40
2455397.8646990740671754
  9
$TDUPDATE
 40
2458904.437789352145046
  9
$TDINDWG
 40
0.2024984375
  9
$TDUSRTIMER
 40
0.2024984375
  9
$USRTIMER
 70
     1
  9
$ANGBASE
 50
0.0
  9
$ANGDIR
 70
     0
  9
$PDMODE
 70
     0
  9
$PDSIZE
 40
0.0
  9
$PLINEWID
 40
0.0
  9
$COORDS
 70
     1
  9
$SPLFRAME
 70
     0
  9
$SPLINETYPE
 70
     6
  9
$SPLINESEGS
 70
     8
  9
$ATTDIA
 70
     1
  9
$ATTREQ
 70
     1
  9
$HANDLING
 70
     1
  9
$HANDSEED
  5
2EF0
  9
$SURFTAB1
 70
     6
  9
$SURFTAB2
 70
     6
  9
$SURFTYPE
 70
     6
  9
$SURFU
 70
     6
  9
$SURFV
 70
     6
  9
$UCSNAME
  2

  9
$UCSORG
 10
0.0
 20
0.0
 30
0.0
  9
$UCSXDIR
 10
1.0
 20
0.0
 30
0.0
  9
$UCSYDIR
 10
0.0
 20
1.0
 30
0.0
  9
$PUCSNAME
  2

  9
$PUCSORG
 10
0.0
 20
0.0
 30
0.0
  9
$PUCSXDIR
 10
1.0
 20
0.0
 30
0.0
  9
$PUCSYDIR
 10
0.0
 20
1.0
 30
0.0
  9
$USERI1
 70
     0
  9
$USERI2
 70
     0
  9
$USERI3
 70
     0
  9
$USERI4
 70
     0
  9
$USERI5
 70
     0
  9
$USERR1
 40
0.0
  9
$USERR2
 40
0.0
  9
$USERR3
 40
0.0
  9
$USERR4
 40
0.0
  9
$USERR5
 40
0.0
  9
$WORLDVIEW
 70
     1
  9
$SHADEDGE
 70
     3
  9
$SHADEDIF
 70
    70
  9
$TILEMODE
 70
     1
  9
$MAXACTVP
 70
    16
  9
$PLIMCHECK
 70
     0
  9
$PEXTMIN
 10
1.0000000000000000E+20
 20
1.0000000000000000E+20
 30
1.0000000000000000E+20
  9
$PEXTMAX
 10
-1.0000000000000000E+20
 20
-1.0000000000000000E+20
 30
-1.0000000000000000E+20
  9
$PLIMMIN
 10
-5.759838448366251
 20
-3.215045143869895
  9
$PLIMMAX
 10
204.4899812170841926
 20
294.1443242965438003
  9
$UNITMODE
 70
     0
  9
$VISRETAIN
 70
     0
  9
$PLINEGEN
 70
     0
  9
$PSLTSCALE
 70
     0
  0
ENDSEC
  0
SECTION
  2
TABLES
  0
TABLE
  2
VPORT
 70
     1
  0
VPORT
  2
*ACTIVE
 70
     0
 10
0.0
 20
0.0
 11
1.0
 21
1.0
 12
-715.9732965284421198
 22
-138.4118033072194009
 13
0.0
 23
0.0
 14
1.0
 24
1.0
 15
10.0
 25
10.0
 16
-0.0000000000003411
 26
0.0
 36
1340.6398751448650728
 17
716.0042724609373863
 27
215.9241485595703125
 37
0.0000000000001011
 40
417.1731930228428951
 41
1.868197278911564
 42
50.0
 43
0.0
 44
0.0
 50
0.0
 51
0.0
 71
     0
 72
  1500
 73
     1
 74
     0
 75
     0
 76
     0
 77
     0
 78
     0
  0
ENDTAB
  0
TABLE
  2
LTYPE
 70
     5
  0
LTYPE
  2
CONTINUOUS
 70
     0
  3
Solid line
 72
    65
 73
     0
 40
0.0
  0
LTYPE
  2
STRICHPUNKT
 70
     0
  3
__ . __ . __ . __ . __ . __ . __ . __ . __ . __
 72
    65
 73
     4
 40
1.0
 49
0.5
 49
-0.25
 49
0.0
 49
-0.25
  0
LTYPE
  2
VERDECKT
 70
     0
  3
Verdeckt __ __ __ __ __ __ __ __ __ __ __ __ __
 72
    65
 73
     2
 40
0.375
 49
0.25
 49
-0.125
  0
ENDTAB
  0
TABLE
  2
LAYER
 70
    17
  0
LAYER
  2
0
 70
     0
 62
     7
  6
CONTINUOUS
  0
LAYER
  2
VOLL
 70
     0
 62
     1
  6
CONTINUOUS
  0
LAYER
  2
STEMPEL
 70
     0
 62
     3
  6
CONTINUOUS
  0
LAYER
  2
DEFPOINTS
 70
     0
 62
     7
  6
CONTINUOUS
  0
LAYER
  2
ADSK_ASSOC_ENTITY_BACKUPS
 70
     1
 62
    -7
  6
CONTINUOUS
  0
ENDTAB
  0
TABLE
  2
STYLE
 70
     4
  0
STYLE
  2
STANDARD
 70
     0
 40
0.0
 41
0.8
 50
0.0
 71
     0
 42
3.5
  3
simplex.shx
  4

  0
STYLE
  2
GREEKS
 70
     0
 40
0.0
 41
0.8
 50
0.0
 71
     0
 42
2.5
  3
SIMPLEX.shx
  4

  0
ENDTAB
  0
TABLE
  2
VIEW
 70
     1
  0
ENDTAB
  0
TABLE
  2
UCS
 70
     0
  0
ENDTAB
  0
TABLE
  2
APPID
 70
    26
  0
APPID
  2
ACAD
 70
     0
  0
APPID
  2
ACAD_NAV_VCDISPLAY
 70
     0
  0
APPID
  2
ACAECLAYERSTANDARD
 70
     0
  0
APPID
  2
ACCMTRANSPARENCY
 70
     0
  0
APPID
  2
ACAD_STEPID
 70
     0
  0
APPID
  2
ACAD_PSEXT
 70
     0
  0
APPID
  2
ACAD_EXEMPT_FROM_CAD_STANDARDS
 70
     0
  0
APPID
  2
ACSYNERGY
 70
     0
  0
APPID
  2
SYNERGY_BODY_TBR_ID
 70
     0
  0
APPID
  2
ACAD_VIEW_EDGE_ID
 70
     0
  0
APPID
  2
ACSYNERGYSKETCH
 70
     0
  0
APPID
  2
ACAD_MODELDOC_XFORM
 70
     0
  0
APPID
  2
ACAD_MLEADERVER
 70
     0
  0
APPID
  2
ACAD_DSTYLE_DIMJAG
 70
     0
  0
APPID
  2
ACAD_DSTYLE_DIMTALN
 70
     0
  0
APPID
  2
ACAD_DIMASSOC_CALC_DIMLFAC
 70
     0
  0
APPID
  2
ACAD_DIMASSOC_DIMLFAC
 70
     0
  0
APPID
  2
ACAD_DIMASSOC_OVERRIDDEN_D
 70
     0
  0
APPID
  2
ACAD_DSTYLE_DIMRADIAL_EXTENSION
 70
     0
  0
APPID
  2
ACADANNOMONITORALERTICONDI
 70
     0
  0
APPID
  2
ACDBDYNAMICBLOCKGUID
 70
     0
  0
APPID
  2
ACADANNOPO
 70
     0
  0
APPID
  2
ACAD_DSTYLE_DIMBREAK
 70
     0
  0
APPID
  2
ACAUTHENVIRON
 70
     0
  0
APPID
  2
ACDBDYNAMICBLOCKTRUENAME
 70
     0
  0
APPID
  2
AcDbAttr
 70
     0
  0
ENDTAB
  0
TABLE
  2
DIMSTYLE
 70
     1
  0
DIMSTYLE
  2
STANDARD
 70
     0
  3

  4

  5

  6

  7

 40
1.0
 41
0.18
 42
0.0625
 43
0.38
 44
0.18
 45
0.0
 46
0.0
 47
0.0
 48
0.0
140
0.18
141
0.09
142
0.0
143
25.3999999999999986
144
1.0
145
0.0
146
1.0
147
0.09
 71
     0
 72
     0
 73
     1
 74
     1
 75
     0
 76
     0
 77
     0
 78
     0
170
     0
171
     2
172
     0
173
     0
174
     0
175
     0
176
     0
177
     0
178
     0
  0
ENDTAB
  0
ENDSEC
  0
SECTION
  2
BLOCKS
  0
BLOCK
  8
0
  2
$MODEL_SPACE
 70
     0
 10
0.0
 20
0.0
 30
0.0
  3
$MODEL_SPACE
  1

  0
ENDBLK
  5
36
  8
0
  0
BLOCK
 67
     1
  8
0
  2
$PAPER_SPACE
 70
     0
 10
0.0
 20
0.0
 30
0.0
  3
$PAPER_SPACE
  1

  0
ENDBLK
  5
34
 67
     1
  8
0
  0
BLOCK
  8
0
  2
*S0
 70
     1
 10
0.0
 20
0.0
 30
0.0
  3
*S0
  1

  0
ENDBLK
  5
D95
  8
0
  0
BLOCK
  8
0
  2
A$CD32E290A
 70
     0
 10
0.0
 20
0.0
 30
0.0
  3
A$CD32E290A
  1

  0
LINE
  5
29FF
  8
0
  6
CONTINUOUS
 62
     3
 10
-52.8484725225715692
 20
5.9999999999998801
 30
-0.0000000000000013
 11
126.4343818167405971
 21
5.999999999999825
 31
-0.0000000000000013
210
0.0
220
1.0
230
-0.0000000000000002
  0
LINE
  5
2A00
  8
0
  6
CONTINUOUS
 62
     3
 10
-126.999999999999801
 20
5.9999999999988578
 30
-0.0000000000000013
 11
-73.5859092941688004
 21
5.9999999999996598
 31
-0.0000000000000013
210
0.0
220
1.0
230
-0.0000000000000002
  0
LINE
  5
2A01
  8
0
  6
CONTINUOUS
 62
     3
 10
-126.999999999999801
 20
-0.0000000000009148
 30
0.0
 11
63.5
 21
0.0000000000004565
 31
0.0
210
0.0
220
1.0
230
-0.0000000000000002
  0
LINE
  5
2A02
  8
0
  6
CONTINUOUS
 62
     3
 10
63.5000000000001208
 20
0.0000000000004547
 30
0.0
 11
127.0
 21
-0.0000000000000053
 31
0.0
210
0.0
220
1.0
230
-0.0000000000000002
  0
LINE
  5
2A03
  8
0
  6
CONTINUOUS
 62
     3
 10
-68.4999999999998863
 20
19.9999999999993712
 30
-0.0000000000000044
 11
-64.75
 21
19.9999999999994316
 31
-0.0000000000000044
210
0.0
220
1.0
230
-0.0000000000000002
  0
LINE
  5
2A04
  8
0
  6
CONTINUOUS
 62
     3
 10
-64.75
 20
19.9999999999994316
 30
-0.0000000000000044
 11
-53.5
 21
19.9999999999993712
 31
-0.0000000000000044
210
0.0
220
1.0
230
-0.0000000000000002
  0
LINE
  5
2A05
  8
0
  6
CONTINUOUS
 62
     3
 10
114.5
 20
19.9999999999995417
 30
-0.0000000000000044
 11
129.5
 21
19.9999999999995417
 31
-0.0000000000000044
210
0.0
220
1.0
230
-0.0000000000000002
  0
LINE
  5
2A06
  8
0
  6
CONTINUOUS
 62
     3
 10
-67.9377979346426173
 20
55.0000000000005116
 30
-0.0000000000000122
 11
67.9377979346428447
 21
55.0000000000002771
 31
-0.0000000000000122
210
0.0
220
1.0
230
-0.0000000000000002
  0
ARC
  5
2A07
  8
0
  6
CONTINUOUS
 62
     3
 10
-109.2324302737246029
 20
11.00000000000054
 30
0.0
 40
5.0000000000000151
210
0.0
220
-0.0000000000000002
230
-1.0
 50
181.6890756744944895
 51
270.0
  0
ARC
  5
2A08
  8
0
  6
CONTINUOUS
 62
     3
 10
126.999999999999801
 20
2.999999999998967
 30
0.0
 40
2.9999999999998859
210
0.0
220
-0.0000000000000002
230
-1.0
 50
270.0
 51
90.0
  0
ARC
  5
2A09
  8
0
  6
CONTINUOUS
 62
     3
 10
-127.0
 20
2.9999999999998819
 30
0.0
 40
2.9999999999999418
210
0.0
220
-0.0000000000000002
230
-1.0
 50
178.310924325519693
 51
270.0
  0
ARC
  5
2A0A
  8
0
  6
CONTINUOUS
 62
     3
 10
48.2324302737246171
 20
11.0000000000006395
 30
0.0
 40
5.0000000000000302
210
0.0
220
-0.0000000000000002
230
-1.0
 50
270.0
 51
358.3109243255054253
  0
POLYLINE
  8
0
  5
2B6C
  62
3
  66
     1
 10
0.000000
 20
0.000000
 30
0.000000
  70
     8
  0
VERTEX
  8
0
  5
2B6D
 10
-68.7762
 20
10.6327
 30
-2.40000e-15
  70
    32
  0
VERTEX
  8
0
  5
2B6E
 10
-68.7765
 20
10.6242
 30
-2.39664e-15
  70
    32
  0
VERTEX
  8
0
  5
2B6F
 10
-68.7768
 20
10.6156
 30
-2.39329e-15
  70
    32
  0
VERTEX
  8
0
  5
2B70
 10
-68.7771
 20
10.6070
 30
-2.38993e-15
  70
    32
  0
VERTEX
  8
0
  5
2B71
 10
-68.7774
 20
10.5983
 30
-2.38658e-15
  70
    32
  0
VERTEX
  8
0
  5
2B72
 10
-68.7777
 20
10.5896
 30
-2.38323e-15
  70
    32
  0
VERTEX
  8
0
  5
2B73
 10
-68.7780
 20
10.5808
 30
-2.37988e-15
  70
    32
  0
VERTEX
  8
0
  5
2B74
 10
-68.7784
 20
10.5720
 30
-2.37653e-15
  70
    32
  0
VERTEX
  8
0
  5
2B75
 10
-68.7788
 20
10.5632
 30
-2.37319e-15
  70
    32
  0
VERTEX
  8
0
  5
2B76
 10
-68.7792
 20
10.5543
 30
-2.36985e-15
  70
    32
  0
VERTEX
  8
0
  5
2B77
 10
-68.7796
 20
10.5454
 30
-2.36651e-15
  70
    32
  0
VERTEX
  8
0
  5
2B78
 10
-68.7800
 20
10.5365
 30
-2.36318e-15
  70
    32
  0
VERTEX
  8
0
  5
2B79
 10
-68.7805
 20
10.5275
 30
-2.35985e-15
  70
    32
  0
VERTEX
  8
0
  5
2B7A
 10
-68.7809
 20
10.5184
 30
-2.35653e-15
  70
    32
  0
VERTEX
  8
0
  5
2B7B
 10
-68.7814
 20
10.5093
 30
-2.35321e-15
  70
    32
  0
VERTEX
  8
0
  5
2B7C
 10
-68.7819
 20
10.5002
 30
-2.34990e-15
  70
    32
  0
VERTEX
  8
0
  5
2B7D
 10
-68.7825
 20
10.4911
 30
-2.34660e-15
  70
    32
  0
VERTEX
  8
0
  5
2B7E
 10
-68.7830
 20
10.4819
 30
-2.34330e-15
  70
    32
  0
VERTEX
  8
0
  5
2B7F
 10
-68.7836
 20
10.4726
 30
-2.34001e-15
  70
    32
  0
VERTEX
  8
0
  5
2B80
 10
-68.7842
 20
10.4633
 30
-2.33672e-15
  70
    32
  0
VERTEX
  8
0
  5
2B81
 10
-68.7848
 20
10.4540
 30
-2.33345e-15
  70
    32
  0
VERTEX
  8
0
  5
2B82
 10
-68.7855
 20
10.4446
 30
-2.33018e-15
  70
    32
  0
VERTEX
  8
0
  5
2B83
 10
-68.7861
 20
10.4352
 30
-2.32692e-15
  70
    32
  0
VERTEX
  8
0
  5
2B84
 10
-68.7868
 20
10.4258
 30
-2.32367e-15
  70
    32
  0
VERTEX
  8
0
  5
2B85
 10
-68.7875
 20
10.4163
 30
-2.32043e-15
  70
    32
  0
VERTEX
  8
0
  5
2B86
 10
-68.7883
 20
10.4068
 30
-2.31720e-15
  70
    32
  0
VERTEX
  8
0
  5
2B87
 10
-68.7890
 20
10.3972
 30
-2.31398e-15
  70
    32
  0
VERTEX
  8
0
  5
2B88
 10
-68.7898
 20
10.3876
 30
-2.31077e-15
  70
    32
  0
VERTEX
  8
0
  5
2B89
 10
-68.7906
 20
10.3779
 30
-2.30758e-15
  70
    32
  0
VERTEX
  8
0
  5
2B8A
 10
-68.7914
 20
10.3682
 30
-2.30439e-15
  70
    32
  0
VERTEX
  8
0
  5
2B8B
 10
-68.7923
 20
10.3584
 30
-2.30122e-15
  70
    32
  0
VERTEX
  8
0
  5
2B8C
 10
-68.7932
 20
10.3487
 30
-2.29806e-15
  70
    32
  0
VERTEX
  8
0
  5
2B8D
 10
-68.7941
 20
10.3388
 30
-2.29491e-15
  70
    32
  0
VERTEX
  8
0
  5
2B8E
 10
-68.7950
 20
10.3290
 30
-2.29178e-15
  70
    32
  0
VERTEX
  8
0
  5
2B8F
 10
-68.7960
 20
10.3190
 30
-2.28866e-15
  70
    32
  0
VERTEX
  8
0
  5
2B90
 10
-68.7970
 20
10.3091
 30
-2.28555e-15
  70
    32
  0
VERTEX
  8
0
  5
2B91
 10
-68.7980
 20
10.2991
 30
-2.28246e-15
  70
    32
  0
VERTEX
  8
0
  5
2B92
 10
-68.7990
 20
10.2890
 30
-2.27938e-15
  70
    32
  0
VERTEX
  8
0
  5
2B93
 10
-68.8001
 20
10.2790
 30
-2.27632e-15
  70
    32
  0
VERTEX
  8
0
  5
2B94
 10
-68.8012
 20
10.2688
 30
-2.27328e-15
  70
    32
  0
VERTEX
  8
0
  5
2B95
 10
-68.8023
 20
10.2586
 30
-2.27025e-15
  70
    32
  0
VERTEX
  8
0
  5
2B96
 10
-68.8035
 20
10.2484
 30
-2.26724e-15
  70
    32
  0
VERTEX
  8
0
  5
2B97
 10
-68.8046
 20
10.2382
 30
-2.26424e-15
  70
    32
  0
VERTEX
  8
0
  5
2B98
 10
-68.8058
 20
10.2279
 30
-2.26127e-15
  70
    32
  0
VERTEX
  8
0
  5
2B99
 10
-68.8071
 20
10.2175
 30
-2.25831e-15
  70
    32
  0
VERTEX
  8
0
  5
2B9A
 10
-68.8084
 20
10.2071
 30
-2.25537e-15
  70
    32
  0
VERTEX
  8
0
  5
2B9B
 10
-68.8097
 20
10.1967
 30
-2.25245e-15
  70
    32
  0
VERTEX
  8
0
  5
2B9C
 10
-68.8110
 20
10.1862
 30
-2.24955e-15
  70
    32
  0
VERTEX
  8
0
  5
2B9D
 10
-68.8124
 20
10.1757
 30
-2.24667e-15
  70
    32
  0
VERTEX
  8
0
  5
2B9E
 10
-68.8137
 20
10.1651
 30
-2.24380e-15
  70
    32
  0
VERTEX
  8
0
  5
2B9F
 10
-68.8152
 20
10.1545
 30
-2.24096e-15
  70
    32
  0
VERTEX
  8
0
  5
2BA0
 10
-68.8166
 20
10.1439
 30
-2.23814e-15
  70
    32
  0
VERTEX
  8
0
  5
2BA1
 10
-68.8181
 20
10.1332
 30
-2.23534e-15
  70
    32
  0
VERTEX
  8
0
  5
2BA2
 10
-68.8196
 20
10.1224
 30
-2.23257e-15
  70
    32
  0
VERTEX
  8
0
  5
2BA3
 10
-68.8212
 20
10.1116
 30
-2.22981e-15
  70
    32
  0
VERTEX
  8
0
  5
2BA4
 10
-68.8228
 20
10.1008
 30
-2.22708e-15
  70
    32
  0
VERTEX
  8
0
  5
2BA5
 10
-68.8244
 20
10.0899
 30
-2.22437e-15
  70
    32
  0
VERTEX
  8
0
  5
2BA6
 10
-68.8261
 20
10.0790
 30
-2.22168e-15
  70
    32
  0
VERTEX
  8
0
  5
2BA7
 10
-68.8278
 20
10.0681
 30
-2.21902e-15
  70
    32
  0
VERTEX
  8
0
  5
2BA8
 10
-68.8295
 20
10.0570
 30
-2.21639e-15
  70
    32
  0
VERTEX
  8
0
  5
2BA9
 10
-68.8313
 20
10.0460
 30
-2.21377e-15
  70
    32
  0
VERTEX
  8
0
  5
2BAA
 10
-68.8330
 20
10.0349
 30
-2.21119e-15
  70
    32
  0
VERTEX
  8
0
  5
2BAB
 10
-68.8349
 20
10.0238
 30
-2.20862e-15
  70
    32
  0
VERTEX
  8
0
  5
2BAC
 10
-68.8367
 20
10.0126
 30
-2.20609e-15
  70
    32
  0
VERTEX
  8
0
  5
2BAD
 10
-68.8387
 20
10.0013
 30
-2.20358e-15
  70
    32
  0
VERTEX
  8
0
  5
2BAE
 10
-68.8406
 20
9.99005
 30
-2.20110e-15
  70
    32
  0
VERTEX
  8
0
  5
2BAF
 10
-68.8426
 20
9.97873
 30
-2.19864e-15
  70
    32
  0
VERTEX
  8
0
  5
2BB0
 10
-68.8446
 20
9.96736
 30
-2.19621e-15
  70
    32
  0
VERTEX
  8
0
  5
2BB1
 10
-68.8466
 20
9.95594
 30
-2.19382e-15
  70
    32
  0
VERTEX
  8
0
  5
2BB2
 10
-68.8487
 20
9.94448
 30
-2.19144e-15
  70
    32
  0
VERTEX
  8
0
  5
2BB3
 10
-68.8509
 20
9.93298
 30
-2.18910e-15
  70
    32
  0
VERTEX
  8
0
  5
2BB4
 10
-68.8530
 20
9.92142
 30
-2.18679e-15
  70
    32
  0
VERTEX
  8
0
  5
2BB5
 10
-68.8552
 20
9.90983
 30
-2.18451e-15
  70
    32
  0
VERTEX
  8
0
  5
2BB6
 10
-68.8575
 20
9.89818
 30
-2.18226e-15
  70
    32
  0
VERTEX
  8
0
  5
2BB7
 10
-68.8598
 20
9.88649
 30
-2.18003e-15
  70
    32
  0
VERTEX
  8
0
  5
2BB8
 10
-68.8621
 20
9.87476
 30
-2.17784e-15
  70
    32
  0
VERTEX
  8
0
  5
2BB9
 10
-68.8644
 20
9.86297
 30
-2.17568e-15
  70
    32
  0
VERTEX
  8
0
  5
2BBA
 10
-68.8668
 20
9.85115
 30
-2.17356e-15
  70
    32
  0
VERTEX
  8
0
  5
2BBB
 10
-68.8693
 20
9.83927
 30
-2.17146e-15
  70
    32
  0
VERTEX
  8
0
  5
2BBC
 10
-68.8718
 20
9.82735
 30
-2.16940e-15
  70
    32
  0
VERTEX
  8
0
  5
2BBD
 10
-68.8743
 20
9.81538
 30
-2.16737e-15
  70
    32
  0
VERTEX
  8
0
  5
2BBE
 10
-68.8769
 20
9.80337
 30
-2.16538e-15
  70
    32
  0
VERTEX
  8
0
  5
2BBF
 10
-68.8795
 20
9.79131
 30
-2.16342e-15
  70
    32
  0
VERTEX
  8
0
  5
2BC0
 10
-68.8821
 20
9.77920
 30
-2.16149e-15
  70
    32
  0
VERTEX
  8
0
  5
2BC1
 10
-68.8848
 20
9.76705
 30
-2.15960e-15
  70
    32
  0
VERTEX
  8
0
  5
2BC2
 10
-68.8876
 20
9.75484
 30
-2.15774e-15
  70
    32
  0
VERTEX
  8
0
  5
2BC3
 10
-68.8904
 20
9.74260
 30
-2.15592e-15
  70
    32
  0
VERTEX
  8
0
  5
2BC4
 10
-68.8932
 20
9.73030
 30
-2.15413e-15
  70
    32
  0
VERTEX
  8
0
  5
2BC5
 10
-68.8961
 20
9.71796
 30
-2.15239e-15
  70
    32
  0
VERTEX
  8
0
  5
2BC6
 10
-68.8990
 20
9.70557
 30
-2.15067e-15
  70
    32
  0
VERTEX
  8
0
  5
2BC7
 10
-68.9019
 20
9.69313
 30
-2.14899e-15
  70
    32
  0
VERTEX
  8
0
  5
2BC8
 10
-68.9049
 20
9.68064
 30
-2.14727e-15
  70
    32
  0
VERTEX
  8
0
  5
2BC9
 10
-68.9080
 20
9.66811
 30
-2.14551e-15
  70
    32
  0
VERTEX
  8
0
  5
2BCA
 10
-68.9111
 20
9.65552
 30
-2.14372e-15
  70
    32
  0
VERTEX
  8
0
  5
2BCB
 10
-68.9142
 20
9.64288
 30
-2.14189e-15
  70
    32
  0
VERTEX
  8
0
  5
2BCC
 10
-68.9174
 20
9.63020
 30
-2.14003e-15
  70
    32
  0
VERTEX
  8
0
  5
2BCD
 10
-68.9207
 20
9.61746
 30
-2.13813e-15
  70
    32
  0
VERTEX
  8
0
  5
2BCE
 10
-68.9240
 20
9.60468
 30
-2.13619e-15
  70
    32
  0
VERTEX
  8
0
  5
2BCF
 10
-68.9273
 20
9.59185
 30
-2.13423e-15
  70
    32
  0
VERTEX
  8
0
  5
2BD0
 10
-68.9307
 20
9.57897
 30
-2.13222e-15
  70
    32
  0
VERTEX
  8
0
  5
2BD1
 10
-68.9342
 20
9.56605
 30
-2.13019e-15
  70
    32
  0
VERTEX
  8
0
  5
2BD2
 10
-68.9377
 20
9.55307
 30
-2.12812e-15
  70
    32
  0
VERTEX
  8
0
  5
2BD3
 10
-68.9412
 20
9.54006
 30
-2.12602e-15
  70
    32
  0
VERTEX
  8
0
  5
2BD4
 10
-68.9449
 20
9.52699
 30
-2.12388e-15
  70
    32
  0
VERTEX
  8
0
  5
2BD5
 10
-68.9485
 20
9.51388
 30
-2.12171e-15
  70
    32
  0
VERTEX
  8
0
  5
2BD6
 10
-68.9522
 20
9.50072
 30
-2.11952e-15
  70
    32
  0
VERTEX
  8
0
  5
2BD7
 10
-68.9560
 20
9.48752
 30
-2.11729e-15
  70
    32
  0
VERTEX
  8
0
  5
2BD8
 10
-68.9598
 20
9.47427
 30
-2.11503e-15
  70
    32
  0
VERTEX
  8
0
  5
2BD9
 10
-68.9637
 20
9.46098
 30
-2.11274e-15
  70
    32
  0
VERTEX
  8
0
  5
2BDA
 10
-68.9676
 20
9.44765
 30
-2.11042e-15
  70
    32
  0
VERTEX
  8
0
  5
2BDB
 10
-68.9716
 20
9.43427
 30
-2.10807e-15
  70
    32
  0
VERTEX
  8
0
  5
2BDC
 10
-68.9757
 20
9.42085
 30
-2.10569e-15
  70
    32
  0
VERTEX
  8
0
  5
2BDD
 10
-68.9798
 20
9.40738
 30
-2.10328e-15
  70
    32
  0
VERTEX
  8
0
  5
2BDE
 10
-68.9839
 20
9.39387
 30
-2.10084e-15
  70
    32
  0
VERTEX
  8
0
  5
2BDF
 10
-68.9881
 20
9.38032
 30
-2.09838e-15
  70
    32
  0
VERTEX
  8
0
  5
2BE0
 10
-68.9924
 20
9.36673
 30
-2.09589e-15
  70
    32
  0
VERTEX
  8
0
  5
2BE1
 10
-68.9967
 20
9.35309
 30
-2.09337e-15
  70
    32
  0
VERTEX
  8
0
  5
2BE2
 10
-69.0011
 20
9.33942
 30
-2.09082e-15
  70
    32
  0
VERTEX
  8
0
  5
2BE3
 10
-69.0056
 20
9.32570
 30
-2.08825e-15
  70
    32
  0
VERTEX
  8
0
  5
2BE4
 10
-69.0101
 20
9.31194
 30
-2.08565e-15
  70
    32
  0
VERTEX
  8
0
  5
2BE5
 10
-69.0147
 20
9.29814
 30
-2.08303e-15
  70
    32
  0
VERTEX
  8
0
  5
2BE6
 10
-69.0193
 20
9.28430
 30
-2.08038e-15
  70
    32
  0
VERTEX
  8
0
  5
2BE7
 10
-69.0240
 20
9.27042
 30
-2.07771e-15
  70
    32
  0
VERTEX
  8
0
  5
2BE8
 10
-69.0287
 20
9.25651
 30
-2.07501e-15
  70
    32
  0
VERTEX
  8
0
  5
2BE9
 10
-69.0336
 20
9.24255
 30
-2.07229e-15
  70
    32
  0
VERTEX
  8
0
  5
2BEA
 10
-69.0384
 20
9.22855
 30
-2.06955e-15
  70
    32
  0
VERTEX
  8
0
  5
2BEB
 10
-69.0434
 20
9.21452
 30
-2.06678e-15
  70
    32
  0
VERTEX
  8
0
  5
2BEC
 10
-69.0484
 20
9.20045
 30
-2.06399e-15
  70
    32
  0
VERTEX
  8
0
  5
2BED
 10
-69.0534
 20
9.18634
 30
-2.06118e-15
  70
    32
  0
VERTEX
  8
0
  5
2BEE
 10
-69.0586
 20
9.17219
 30
-2.05835e-15
  70
    32
  0
VERTEX
  8
0
  5
2BEF
 10
-69.0638
 20
9.15801
 30
-2.05549e-15
  70
    32
  0
VERTEX
  8
0
  5
2BF0
 10
-69.0690
 20
9.14379
 30
-2.05262e-15
  70
    32
  0
VERTEX
  8
0
  5
2BF1
 10
-69.0744
 20
9.12953
 30
-2.04972e-15
  70
    32
  0
VERTEX
  8
0
  5
2BF2
 10
-69.0798
 20
9.11524
 30
-2.04680e-15
  70
    32
  0
VERTEX
  8
0
  5
2BF3
 10
-69.0852
 20
9.10091
 30
-2.04387e-15
  70
    32
  0
VERTEX
  8
0
  5
2BF4
 10
-69.0907
 20
9.08655
 30
-2.04091e-15
  70
    32
  0
VERTEX
  8
0
  5
2BF5
 10
-69.0963
 20
9.07215
 30
-2.03794e-15
  70
    32
  0
VERTEX
  8
0
  5
2BF6
 10
-69.1020
 20
9.05772
 30
-2.03494e-15
  70
    32
  0
VERTEX
  8
0
  5
2BF7
 10
-69.1077
 20
9.04325
 30
-2.03193e-15
  70
    32
  0
VERTEX
  8
0
  5
2BF8
 10
-69.1135
 20
9.02875
 30
-2.02890e-15
  70
    32
  0
VERTEX
  8
0
  5
2BF9
 10
-69.1194
 20
9.01422
 30
-2.02586e-15
  70
    32
  0
VERTEX
  8
0
  5
2BFA
 10
-69.1253
 20
8.99965
 30
-2.02279e-15
  70
    32
  0
VERTEX
  8
0
  5
2BFB
 10
-69.1314
 20
8.98505
 30
-2.01971e-15
  70
    32
  0
VERTEX
  8
0
  5
2BFC
 10
-69.1374
 20
8.97042
 30
-2.01662e-15
  70
    32
  0
VERTEX
  8
0
  5
2BFD
 10
-69.1436
 20
8.95576
 30
-2.01350e-15
  70
    32
  0
VERTEX
  8
0
  5
2BFE
 10
-69.1498
 20
8.94106
 30
-2.01038e-15
  70
    32
  0
VERTEX
  8
0
  5
2BFF
 10
-69.1561
 20
8.92633
 30
-2.00724e-15
  70
    32
  0
VERTEX
  8
0
  5
2C00
 10
-69.1625
 20
8.91157
 30
-2.00408e-15
  70
    32
  0
VERTEX
  8
0
  5
2C01
 10
-69.1689
 20
8.89678
 30
-2.00091e-15
  70
    32
  0
VERTEX
  8
0
  5
2C02
 10
-69.1754
 20
8.88196
 30
-1.99773e-15
  70
    32
  0
VERTEX
  8
0
  5
2C03
 10
-69.1820
 20
8.86711
 30
-1.99453e-15
  70
    32
  0
VERTEX
  8
0
  5
2C04
 10
-69.1887
 20
8.85223
 30
-1.99132e-15
  70
    32
  0
VERTEX
  8
0
  5
2C05
 10
-69.1954
 20
8.83732
 30
-1.98810e-15
  70
    32
  0
VERTEX
  8
0
  5
2C06
 10
-69.2022
 20
8.82239
 30
-1.98486e-15
  70
    32
  0
VERTEX
  8
0
  5
2C07
 10
-69.2091
 20
8.80742
 30
-1.98162e-15
  70
    32
  0
VERTEX
  8
0
  5
2C08
 10
-69.2161
 20
8.79242
 30
-1.97836e-15
  70
    32
  0
VERTEX
  8
0
  5
2C09
 10
-69.2231
 20
8.77740
 30
-1.97509e-15
  70
    32
  0
VERTEX
  8
0
  5
2C0A
 10
-69.2302
 20
8.76235
 30
-1.97181e-15
  70
    32
  0
VERTEX
  8
0
  5
2C0B
 10
-69.2374
 20
8.74727
 30
-1.96853e-15
  70
    32
  0
VERTEX
  8
0
  5
2C0C
 10
-69.2447
 20
8.73217
 30
-1.96523e-15
  70
    32
  0
VERTEX
  8
0
  5
2C0D
 10
-69.2520
 20
8.71704
 30
-1.96192e-15
  70
    32
  0
VERTEX
  8
0
  5
2C0E
 10
-69.2594
 20
8.70188
 30
-1.95861e-15
  70
    32
  0
VERTEX
  8
0
  5
2C0F
 10
-69.2669
 20
8.68669
 30
-1.95528e-15
  70
    32
  0
VERTEX
  8
0
  5
2C10
 10
-69.2745
 20
8.67149
 30
-1.95195e-15
  70
    32
  0
VERTEX
  8
0
  5
2C11
 10
-69.2822
 20
8.65625
 30
-1.94861e-15
  70
    32
  0
VERTEX
  8
0
  5
2C12
 10
-69.2899
 20
8.64099
 30
-1.94526e-15
  70
    32
  0
VERTEX
  8
0
  5
2C13
 10
-69.2978
 20
8.62571
 30
-1.94191e-15
  70
    32
  0
VERTEX
  8
0
  5
2C14
 10
-69.3057
 20
8.61040
 30
-1.93855e-15
  70
    32
  0
VERTEX
  8
0
  5
2C15
 10
-69.3137
 20
8.59507
 30
-1.93519e-15
  70
    32
  0
VERTEX
  8
0
  5
2C16
 10
-69.3217
 20
8.57971
 30
-1.93181e-15
  70
    32
  0
VERTEX
  8
0
  5
2C17
 10
-69.3299
 20
8.56433
 30
-1.92844e-15
  70
    32
  0
VERTEX
  8
0
  5
2C18
 10
-69.3381
 20
8.54893
 30
-1.92506e-15
  70
    32
  0
VERTEX
  8
0
  5
2C19
 10
-69.3465
 20
8.53351
 30
-1.92167e-15
  70
    32
  0
VERTEX
  8
0
  5
2C1A
 10
-69.3549
 20
8.51806
 30
-1.91828e-15
  70
    32
  0
VERTEX
  8
0
  5
2C1B
 10
-69.3634
 20
8.50259
 30
-1.91489e-15
  70
    32
  0
VERTEX
  8
0
  5
2C1C
 10
-69.3719
 20
8.48710
 30
-1.91150e-15
  70
    32
  0
VERTEX
  8
0
  5
2C1D
 10
-69.3806
 20
8.47159
 30
-1.90810e-15
  70
    32
  0
VERTEX
  8
0
  5
2C1E
 10
-69.3893
 20
8.45606
 30
-1.90470e-15
  70
    32
  0
VERTEX
  8
0
  5
2C1F
 10
-69.3982
 20
8.44051
 30
-1.90130e-15
  70
    32
  0
VERTEX
  8
0
  5
2C20
 10
-69.4071
 20
8.42494
 30
-1.89789e-15
  70
    32
  0
VERTEX
  8
0
  5
2C21
 10
-69.4161
 20
8.40935
 30
-1.89449e-15
  70
    32
  0
VERTEX
  8
0
  5
2C22
 10
-69.4252
 20
8.39375
 30
-1.89108e-15
  70
    32
  0
VERTEX
  8
0
  5
2C23
 10
-69.4344
 20
8.37813
 30
-1.88768e-15
  70
    32
  0
VERTEX
  8
0
  5
2C24
 10
-69.4437
 20
8.36249
 30
-1.88427e-15
  70
    32
  0
VERTEX
  8
0
  5
2C25
 10
-69.4531
 20
8.34685
 30
-1.88086e-15
  70
    32
  0
VERTEX
  8
0
  5
2C26
 10
-69.4626
 20
8.33119
 30
-1.87745e-15
  70
    32
  0
VERTEX
  8
0
  5
2C27
 10
-69.4721
 20
8.31553
 30
-1.87404e-15
  70
    32
  0
VERTEX
  8
0
  5
2C28
 10
-69.4818
 20
8.29985
 30
-1.87062e-15
  70
    32
  0
VERTEX
  8
0
  5
2C29
 10
-69.4915
 20
8.28417
 30
-1.86721e-15
  70
    32
  0
VERTEX
  8
0
  5
2C2A
 10
-69.5014
 20
8.26847
 30
-1.86379e-15
  70
    32
  0
VERTEX
  8
0
  5
2C2B
 10
-69.5113
 20
8.25277
 30
-1.86037e-15
  70
    32
  0
VERTEX
  8
0
  5
2C2C
 10
-69.5214
 20
8.23707
 30
-1.85695e-15
  70
    32
  0
VERTEX
  8
0
  5
2C2D
 10
-69.5315
 20
8.22136
 30
-1.85353e-15
  70
    32
  0
VERTEX
  8
0
  5
2C2E
 10
-69.5417
 20
8.20564
 30
-1.85011e-15
  70
    32
  0
VERTEX
  8
0
  5
2C2F
 10
-69.5520
 20
8.18993
 30
-1.84668e-15
  70
    32
  0
VERTEX
  8
0
  5
2C30
 10
-69.5624
 20
8.17421
 30
-1.84325e-15
  70
    32
  0
VERTEX
  8
0
  5
2C31
 10
-69.5728
 20
8.15849
 30
-1.83982e-15
  70
    32
  0
VERTEX
  8
0
  5
2C32
 10
-69.5834
 20
8.14277
 30
-1.83639e-15
  70
    32
  0
VERTEX
  8
0
  5
2C33
 10
-69.5941
 20
8.12705
 30
-1.83296e-15
  70
    32
  0
VERTEX
  8
0
  5
2C34
 10
-69.6048
 20
8.11133
 30
-1.82952e-15
  70
    32
  0
VERTEX
  8
0
  5
2C35
 10
-69.6156
 20
8.09561
 30
-1.82609e-15
  70
    32
  0
VERTEX
  8
0
  5
2C36
 10
-69.6266
 20
8.07990
 30
-1.82265e-15
  70
    32
  0
VERTEX
  8
0
  5
2C37
 10
-69.6376
 20
8.06419
 30
-1.81920e-15
  70
    32
  0
VERTEX
  8
0
  5
2C38
 10
-69.6487
 20
8.04849
 30
-1.81576e-15
  70
    32
  0
VERTEX
  8
0
  5
2C39
 10
-69.6599
 20
8.03279
 30
-1.81231e-15
  70
    32
  0
VERTEX
  8
0
  5
2C3A
 10
-69.6711
 20
8.01710
 30
-1.80886e-15
  70
    32
  0
VERTEX
  8
0
  5
2C3B
 10
-69.6825
 20
8.00142
 30
-1.80541e-15
  70
    32
  0
VERTEX
  8
0
  5
2C3C
 10
-69.6939
 20
7.98575
 30
-1.80196e-15
  70
    32
  0
VERTEX
  8
0
  5
2C3D
 10
-69.7055
 20
7.97009
 30
-1.79850e-15
  70
    32
  0
VERTEX
  8
0
  5
2C3E
 10
-69.7171
 20
7.95444
 30
-1.79504e-15
  70
    32
  0
VERTEX
  8
0
  5
2C3F
 10
-69.7288
 20
7.93880
 30
-1.79158e-15
  70
    32
  0
VERTEX
  8
0
  5
2C40
 10
-69.7406
 20
7.92318
 30
-1.78811e-15
  70
    32
  0
VERTEX
  8
0
  5
2C41
 10
-69.7525
 20
7.90757
 30
-1.78465e-15
  70
    32
  0
VERTEX
  8
0
  5
2C42
 10
-69.7644
 20
7.89197
 30
-1.78118e-15
  70
    32
  0
VERTEX
  8
0
  5
2C43
 10
-69.7765
 20
7.87639
 30
-1.77770e-15
  70
    32
  0
VERTEX
  8
0
  5
2C44
 10
-69.7886
 20
7.86082
 30
-1.77423e-15
  70
    32
  0
VERTEX
  8
0
  5
2C45
 10
-69.8009
 20
7.84528
 30
-1.77075e-15
  70
    32
  0
VERTEX
  8
0
  5
2C46
 10
-69.8132
 20
7.82975
 30
-1.76727e-15
  70
    32
  0
VERTEX
  8
0
  5
2C47
 10
-69.8256
 20
7.81424
 30
-1.76378e-15
  70
    32
  0
VERTEX
  8
0
  5
2C48
 10
-69.8380
 20
7.79875
 30
-1.76029e-15
  70
    32
  0
VERTEX
  8
0
  5
2C49
 10
-69.8506
 20
7.78329
 30
-1.75680e-15
  70
    32
  0
VERTEX
  8
0
  5
2C4A
 10
-69.8632
 20
7.76784
 30
-1.75331e-15
  70
    32
  0
VERTEX
  8
0
  5
2C4B
 10
-69.8760
 20
7.75242
 30
-1.74981e-15
  70
    32
  0
VERTEX
  8
0
  5
2C4C
 10
-69.8888
 20
7.73703
 30
-1.74631e-15
  70
    32
  0
VERTEX
  8
0
  5
2C4D
 10
-69.9017
 20
7.72165
 30
-1.74280e-15
  70
    32
  0
VERTEX
  8
0
  5
2C4E
 10
-69.9147
 20
7.70631
 30
-1.73930e-15
  70
    32
  0
VERTEX
  8
0
  5
2C4F
 10
-69.9277
 20
7.69099
 30
-1.73579e-15
  70
    32
  0
VERTEX
  8
0
  5
2C50
 10
-69.9409
 20
7.67570
 30
-1.73227e-15
  70
    32
  0
VERTEX
  8
0
  5
2C51
 10
-69.9541
 20
7.66044
 30
-1.72875e-15
  70
    32
  0
VERTEX
  8
0
  5
2C52
 10
-69.9674
 20
7.64521
 30
-1.72523e-15
  70
    32
  0
VERTEX
  8
0
  5
2C53
 10
-69.9808
 20
7.63001
 30
-1.72170e-15
  70
    32
  0
VERTEX
  8
0
  5
2C54
 10
-69.9943
 20
7.61484
 30
-1.71817e-15
  70
    32
  0
VERTEX
  8
0
  5
2C55
 10
-70.0078
 20
7.59970
 30
-1.71464e-15
  70
    32
  0
VERTEX
  8
0
  5
2C56
 10
-70.0215
 20
7.58460
 30
-1.71110e-15
  70
    32
  0
VERTEX
  8
0
  5
2C57
 10
-70.0352
 20
7.56953
 30
-1.70756e-15
  70
    32
  0
VERTEX
  8
0
  5
2C58
 10
-70.0490
 20
7.55450
 30
-1.70402e-15
  70
    32
  0
VERTEX
  8
0
  5
2C59
 10
-70.0628
 20
7.53951
 30
-1.70047e-15
  70
    32
  0
VERTEX
  8
0
  5
2C5A
 10
-70.0768
 20
7.52455
 30
-1.69692e-15
  70
    32
  0
VERTEX
  8
0
  5
2C5B
 10
-70.0908
 20
7.50963
 30
-1.69336e-15
  70
    32
  0
VERTEX
  8
0
  5
2C5C
 10
-70.1050
 20
7.49475
 30
-1.68980e-15
  70
    32
  0
VERTEX
  8
0
  5
2C5D
 10
-70.1192
 20
7.47991
 30
-1.68623e-15
  70
    32
  0
VERTEX
  8
0
  5
2C5E
 10
-70.1334
 20
7.46511
 30
-1.68267e-15
  70
    32
  0
VERTEX
  8
0
  5
2C5F
 10
-70.1478
 20
7.45035
 30
-1.67909e-15
  70
    32
  0
VERTEX
  8
0
  5
2C60
 10
-70.1622
 20
7.43564
 30
-1.67551e-15
  70
    32
  0
VERTEX
  8
0
  5
2C61
 10
-70.1767
 20
7.42097
 30
-1.67193e-15
  70
    32
  0
VERTEX
  8
0
  5
2C62
 10
-70.1913
 20
7.40634
 30
-1.66834e-15
  70
    32
  0
VERTEX
  8
0
  5
2C63
 10
-70.2060
 20
7.39176
 30
-1.66475e-15
  70
    32
  0
VERTEX
  8
0
  5
2C64
 10
-70.2207
 20
7.37723
 30
-1.66116e-15
  70
    32
  0
VERTEX
  8
0
  5
2C65
 10
-70.2356
 20
7.36275
 30
-1.65756e-15
  70
    32
  0
VERTEX
  8
0
  5
2C66
 10
-70.2505
 20
7.34831
 30
-1.65395e-15
  70
    32
  0
VERTEX
  8
0
  5
2C67
 10
-70.2655
 20
7.33393
 30
-1.65034e-15
  70
    32
  0
VERTEX
  8
0
  5
2C68
 10
-70.2805
 20
7.31959
 30
-1.64673e-15
  70
    32
  0
VERTEX
  8
0
  5
2C69
 10
-70.2956
 20
7.30531
 30
-1.64311e-15
  70
    32
  0
VERTEX
  8
0
  5
2C6A
 10
-70.3109
 20
7.29108
 30
-1.63949e-15
  70
    32
  0
VERTEX
  8
0
  5
2C6B
 10
-70.3261
 20
7.27690
 30
-1.63586e-15
  70
    32
  0
VERTEX
  8
0
  5
2C6C
 10
-70.3415
 20
7.26277
 30
-1.63222e-15
  70
    32
  0
VERTEX
  8
0
  5
2C6D
 10
-70.3569
 20
7.24871
 30
-1.62859e-15
  70
    32
  0
VERTEX
  8
0
  5
2C6E
 10
-70.3725
 20
7.23469
 30
-1.62494e-15
  70
    32
  0
VERTEX
  8
0
  5
2C6F
 10
-70.3880
 20
7.22074
 30
-1.62129e-15
  70
    32
  0
VERTEX
  8
0
  5
2C70
 10
-70.4037
 20
7.20684
 30
-1.61764e-15
  70
    32
  0
VERTEX
  8
0
  5
2C71
 10
-70.4194
 20
7.19301
 30
-1.61398e-15
  70
    32
  0
VERTEX
  8
0
  5
2C72
 10
-70.4353
 20
7.17923
 30
-1.61032e-15
  70
    32
  0
VERTEX
  8
0
  5
2C73
 10
-70.4512
 20
7.16551
 30
-1.60665e-15
  70
    32
  0
VERTEX
  8
0
  5
2C74
 10
-70.4671
 20
7.15186
 30
-1.60297e-15
  70
    32
  0
VERTEX
  8
0
  5
2C75
 10
-70.4832
 20
7.13826
 30
-1.59929e-15
  70
    32
  0
VERTEX
  8
0
  5
2C76
 10
-70.4993
 20
7.12474
 30
-1.59561e-15
  70
    32
  0
VERTEX
  8
0
  5
2C77
 10
-70.5154
 20
7.11127
 30
-1.59191e-15
  70
    32
  0
VERTEX
  8
0
  5
2C78
 10
-70.5317
 20
7.09788
 30
-1.58822e-15
  70
    32
  0
VERTEX
  8
0
  5
2C79
 10
-70.5480
 20
7.08456
 30
-1.58451e-15
  70
    32
  0
VERTEX
  8
0
  5
2C7A
 10
-70.5644
 20
7.07131
 30
-1.58081e-15
  70
    32
  0
VERTEX
  8
0
  5
2C7B
 10
-70.5808
 20
7.05813
 30
-1.57710e-15
  70
    32
  0
VERTEX
  8
0
  5
2C7C
 10
-70.5973
 20
7.04503
 30
-1.57339e-15
  70
    32
  0
VERTEX
  8
0
  5
2C7D
 10
-70.6139
 20
7.03200
 30
-1.56968e-15
  70
    32
  0
VERTEX
  8
0
  5
2C7E
 10
-70.6305
 20
7.01905
 30
-1.56597e-15
  70
    32
  0
VERTEX
  8
0
  5
2C7F
 10
-70.6472
 20
7.00616
 30
-1.56227e-15
  70
    32
  0
VERTEX
  8
0
  5
2C80
 10
-70.6640
 20
6.99336
 30
-1.55857e-15
  70
    32
  0
VERTEX
  8
0
  5
2C81
 10
-70.6808
 20
6.98062
 30
-1.55488e-15
  70
    32
  0
VERTEX
  8
0
  5
2C82
 10
-70.6976
 20
6.96796
 30
-1.55119e-15
  70
    32
  0
VERTEX
  8
0
  5
2C83
 10
-70.7145
 20
6.95538
 30
-1.54752e-15
  70
    32
  0
VERTEX
  8
0
  5
2C84
 10
-70.7315
 20
6.94287
 30
-1.54385e-15
  70
    32
  0
VERTEX
  8
0
  5
2C85
 10
-70.7485
 20
6.93044
 30
-1.54020e-15
  70
    32
  0
VERTEX
  8
0
  5
2C86
 10
-70.7656
 20
6.91809
 30
-1.53657e-15
  70
    32
  0
VERTEX
  8
0
  5
2C87
 10
-70.7827
 20
6.90581
 30
-1.53294e-15
  70
    32
  0
VERTEX
  8
0
  5
2C88
 10
-70.7999
 20
6.89360
 30
-1.52934e-15
  70
    32
  0
VERTEX
  8
0
  5
2C89
 10
-70.8171
 20
6.88148
 30
-1.52575e-15
  70
    32
  0
VERTEX
  8
0
  5
2C8A
 10
-70.8344
 20
6.86943
 30
-1.52219e-15
  70
    32
  0
VERTEX
  8
0
  5
2C8B
 10
-70.8517
 20
6.85746
 30
-1.51864e-15
  70
    32
  0
VERTEX
  8
0
  5
2C8C
 10
-70.8690
 20
6.84557
 30
-1.51512e-15
  70
    32
  0
VERTEX
  8
0
  5
2C8D
 10
-70.8864
 20
6.83376
 30
-1.51162e-15
  70
    32
  0
VERTEX
  8
0
  5
2C8E
 10
-70.9039
 20
6.82203
 30
-1.50815e-15
  70
    32
  0
VERTEX
  8
0
  5
2C8F
 10
-70.9214
 20
6.81037
 30
-1.50471e-15
  70
    32
  0
VERTEX
  8
0
  5
2C90
 10
-70.9389
 20
6.79880
 30
-1.50129e-15
  70
    32
  0
VERTEX
  8
0
  5
2C91
 10
-70.9565
 20
6.78730
 30
-1.49790e-15
  70
    32
  0
VERTEX
  8
0
  5
2C92
 10
-70.9741
 20
6.77589
 30
-1.49455e-15
  70
    32
  0
VERTEX
  8
0
  5
2C93
 10
-70.9917
 20
6.76455
 30
-1.49123e-15
  70
    32
  0
VERTEX
  8
0
  5
2C94
 10
-71.0094
 20
6.75330
 30
-1.48794e-15
  70
    32
  0
VERTEX
  8
0
  5
2C95
 10
-71.0271
 20
6.74213
 30
-1.48469e-15
  70
    32
  0
VERTEX
  8
0
  5
2C96
 10
-71.0449
 20
6.73104
 30
-1.48148e-15
  70
    32
  0
VERTEX
  8
0
  5
2C97
 10
-71.0627
 20
6.72003
 30
-1.47831e-15
  70
    32
  0
VERTEX
  8
0
  5
2C98
 10
-71.0805
 20
6.70910
 30
-1.47518e-15
  70
    32
  0
VERTEX
  8
0
  5
2C99
 10
-71.0984
 20
6.69825
 30
-1.47209e-15
  70
    32
  0
VERTEX
  8
0
  5
2C9A
 10
-71.1163
 20
6.68749
 30
-1.46904e-15
  70
    32
  0
VERTEX
  8
0
  5
2C9B
 10
-71.1342
 20
6.67681
 30
-1.46604e-15
  70
    32
  0
VERTEX
  8
0
  5
2C9C
 10
-71.1521
 20
6.66622
 30
-1.46308e-15
  70
    32
  0
VERTEX
  8
0
  5
2C9D
 10
-71.1701
 20
6.65571
 30
-1.46018e-15
  70
    32
  0
VERTEX
  8
0
  5
2C9E
 10
-71.1881
 20
6.64528
 30
-1.45732e-15
  70
    32
  0
VERTEX
  8
0
  5
2C9F
 10
-71.2061
 20
6.63494
 30
-1.45452e-15
  70
    32
  0
VERTEX
  8
0
  5
2CA0
 10
-71.2242
 20
6.62468
 30
-1.45176e-15
  70
    32
  0
VERTEX
  8
0
  5
2CA1
 10
-71.2422
 20
6.61451
 30
-1.44906e-15
  70
    32
  0
VERTEX
  8
0
  5
2CA2
 10
-71.2603
 20
6.60442
 30
-1.44642e-15
  70
    32
  0
VERTEX
  8
0
  5
2CA3
 10
-71.2785
 20
6.59442
 30
-1.44383e-15
  70
    32
  0
VERTEX
  8
0
  5
2CA4
 10
-71.2966
 20
6.58450
 30
-1.44130e-15
  70
    32
  0
VERTEX
  8
0
  5
2CA5
 10
-71.3148
 20
6.57467
 30
-1.43884e-15
  70
    32
  0
VERTEX
  8
0
  5
2CA6
 10
-71.3329
 20
6.56493
 30
-1.43643e-15
  70
    32
  0
VERTEX
  8
0
  5
2CA7
 10
-71.3511
 20
6.55528
 30
-1.43408e-15
  70
    32
  0
VERTEX
  8
0
  5
2CA8
 10
-71.3694
 20
6.54571
 30
-1.43180e-15
  70
    32
  0
VERTEX
  8
0
  5
2CA9
 10
-71.3876
 20
6.53623
 30
-1.42959e-15
  70
    32
  0
VERTEX
  8
0
  5
2CAA
 10
-71.4058
 20
6.52684
 30
-1.42744e-15
  70
    32
  0
VERTEX
  8
0
  5
2CAB
 10
-71.4241
 20
6.51753
 30
-1.42537e-15
  70
    32
  0
VERTEX
  8
0
  5
2CAC
 10
-71.4424
 20
6.50832
 30
-1.42336e-15
  70
    32
  0
VERTEX
  8
0
  5
2CAD
 10
-71.4606
 20
6.49919
 30
-1.42142e-15
  70
    32
  0
VERTEX
  8
0
  5
2CAE
 10
-71.4789
 20
6.49016
 30
-1.41956e-15
  70
    32
  0
VERTEX
  8
0
  5
2CAF
 10
-71.4972
 20
6.48121
 30
-1.41778e-15
  70
    32
  0
VERTEX
  8
0
  5
2CB0
 10
-71.5155
 20
6.47235
 30
-1.41606e-15
  70
    32
  0
VERTEX
  8
0
  5
2CB1
 10
-71.5339
 20
6.46359
 30
-1.41443e-15
  70
    32
  0
VERTEX
  8
0
  5
2CB2
 10
-71.5522
 20
6.45491
 30
-1.41288e-15
  70
    32
  0
VERTEX
  8
0
  5
2CB3
 10
-71.5705
 20
6.44633
 30
-1.41140e-15
  70
    32
  0
VERTEX
  8
0
  5
2CB4
 10
-71.5888
 20
6.43783
 30
-1.41001e-15
  70
    32
  0
VERTEX
  8
0
  5
2CB5
 10
-71.6072
 20
6.42943
 30
-1.40871e-15
  70
    32
  0
VERTEX
  8
0
  5
2CB6
 10
-71.6255
 20
6.42112
 30
-1.40748e-15
  70
    32
  0
VERTEX
  8
0
  5
2CB7
 10
-71.6439
 20
6.41290
 30
-1.40635e-15
  70
    32
  0
VERTEX
  8
0
  5
2CB8
 10
-71.6622
 20
6.40478
 30
-1.40530e-15
  70
    32
  0
VERTEX
  8
0
  5
2CB9
 10
-71.6805
 20
6.39675
 30
-1.40434e-15
  70
    32
  0
VERTEX
  8
0
  5
2CBA
 10
-71.6989
 20
6.38881
 30
-1.40348e-15
  70
    32
  0
VERTEX
  8
0
  5
2CBB
 10
-71.7172
 20
6.38096
 30
-1.40270e-15
  70
    32
  0
VERTEX
  8
0
  5
2CBC
 10
-71.7355
 20
6.37321
 30
-1.40202e-15
  70
    32
  0
VERTEX
  8
0
  5
2CBD
 10
-71.7539
 20
6.36556
 30
-1.40144e-15
  70
    32
  0
VERTEX
  8
0
  5
2CBE
 10
-71.7722
 20
6.35800
 30
-1.40095e-15
  70
    32
  0
VERTEX
  8
0
  5
2CBF
 10
-71.7905
 20
6.35053
 30
-1.40056e-15
  70
    32
  0
VERTEX
  8
0
  5
2CC0
 10
-71.8088
 20
6.34316
 30
-1.40028e-15
  70
    32
  0
VERTEX
  8
0
  5
2CC1
 10
-71.8271
 20
6.33588
 30
-1.40009e-15
  70
    32
  0
VERTEX
  8
0
  5
2CC2
 10
-71.8454
 20
6.32870
 30
-1.40000e-15
  70
    32
  0
VERTEX
  8
0
  5
2CC3
 10
-71.8637
 20
6.32162
 30
-1.39998e-15
  70
    32
  0
VERTEX
  8
0
  5
2CC4
 10
-71.8819
 20
6.31462
 30
-1.39987e-15
  70
    32
  0
VERTEX
  8
0
  5
2CC5
 10
-71.9002
 20
6.30772
 30
-1.39967e-15
  70
    32
  0
VERTEX
  8
0
  5
2CC6
 10
-71.9184
 20
6.30092
 30
-1.39939e-15
  70
    32
  0
VERTEX
  8
0
  5
2CC7
 10
-71.9366
 20
6.29420
 30
-1.39902e-15
  70
    32
  0
VERTEX
  8
0
  5
2CC8
 10
-71.9548
 20
6.28757
 30
-1.39857e-15
  70
    32
  0
VERTEX
  8
0
  5
2CC9
 10
-71.9729
 20
6.28103
 30
-1.39804e-15
  70
    32
  0
VERTEX
  8
0
  5
2CCA
 10
-71.9911
 20
6.27459
 30
-1.39744e-15
  70
    32
  0
VERTEX
  8
0
  5
2CCB
 10
-72.0092
 20
6.26823
 30
-1.39676e-15
  70
    32
  0
VERTEX
  8
0
  5
2CCC
 10
-72.0273
 20
6.26196
 30
-1.39601e-15
  70
    32
  0
VERTEX
  8
0
  5
2CCD
 10
-72.0454
 20
6.25577
 30
-1.39518e-15
  70
    32
  0
VERTEX
  8
0
  5
2CCE
 10
-72.0634
 20
6.24968
 30
-1.39429e-15
  70
    32
  0
VERTEX
  8
0
  5
2CCF
 10
-72.0815
 20
6.24367
 30
-1.39334e-15
  70
    32
  0
VERTEX
  8
0
  5
2CD0
 10
-72.0995
 20
6.23775
 30
-1.39232e-15
  70
    32
  0
VERTEX
  8
0
  5
2CD1
 10
-72.1175
 20
6.23192
 30
-1.39124e-15
  70
    32
  0
VERTEX
  8
0
  5
2CD2
 10
-72.1354
 20
6.22617
 30
-1.39010e-15
  70
    32
  0
VERTEX
  8
0
  5
2CD3
 10
-72.1534
 20
6.22051
 30
-1.38890e-15
  70
    32
  0
VERTEX
  8
0
  5
2CD4
 10
-72.1713
 20
6.21493
 30
-1.38765e-15
  70
    32
  0
VERTEX
  8
0
  5
2CD5
 10
-72.1891
 20
6.20943
 30
-1.38635e-15
  70
    32
  0
VERTEX
  8
0
  5
2CD6
 10
-72.2070
 20
6.20402
 30
-1.38500e-15
  70
    32
  0
VERTEX
  8
0
  5
2CD7
 10
-72.2248
 20
6.19870
 30
-1.38360e-15
  70
    32
  0
VERTEX
  8
0
  5
2CD8
 10
-72.2426
 20
6.19345
 30
-1.38216e-15
  70
    32
  0
VERTEX
  8
0
  5
2CD9
 10
-72.2604
 20
6.18829
 30
-1.38068e-15
  70
    32
  0
VERTEX
  8
0
  5
2CDA
 10
-72.2782
 20
6.18321
 30
-1.37915e-15
  70
    32
  0
VERTEX
  8
0
  5
2CDB
 10
-72.2959
 20
6.17822
 30
-1.37758e-15
  70
    32
  0
VERTEX
  8
0
  5
2CDC
 10
-72.3136
 20
6.17330
 30
-1.37598e-15
  70
    32
  0
VERTEX
  8
0
  5
2CDD
 10
-72.3312
 20
6.16846
 30
-1.37435e-15
  70
    32
  0
VERTEX
  8
0
  5
2CDE
 10
-72.3488
 20
6.16371
 30
-1.37269e-15
  70
    32
  0
VERTEX
  8
0
  5
2CDF
 10
-72.3664
 20
6.15903
 30
-1.37099e-15
  70
    32
  0
VERTEX
  8
0
  5
2CE0
 10
-72.3840
 20
6.15443
 30
-1.36927e-15
  70
    32
  0
VERTEX
  8
0
  5
2CE1
 10
-72.4015
 20
6.14991
 30
-1.36753e-15
  70
    32
  0
VERTEX
  8
0
  5
2CE2
 10
-72.4190
 20
6.14547
 30
-1.36576e-15
  70
    32
  0
VERTEX
  8
0
  5
2CE3
 10
-72.4365
 20
6.14111
 30
-1.36398e-15
  70
    32
  0
VERTEX
  8
0
  5
2CE4
 10
-72.4539
 20
6.13683
 30
-1.36217e-15
  70
    32
  0
VERTEX
  8
0
  5
2CE5
 10
-72.4713
 20
6.13262
 30
-1.36035e-15
  70
    32
  0
VERTEX
  8
0
  5
2CE6
 10
-72.4887
 20
6.12848
 30
-1.35852e-15
  70
    32
  0
VERTEX
  8
0
  5
2CE7
 10
-72.5060
 20
6.12443
 30
-1.35668e-15
  70
    32
  0
VERTEX
  8
0
  5
2CE8
 10
-72.5233
 20
6.12045
 30
-1.35483e-15
  70
    32
  0
VERTEX
  8
0
  5
2CE9
 10
-72.5405
 20
6.11654
 30
-1.35297e-15
  70
    32
  0
VERTEX
  8
0
  5
2CEA
 10
-72.5577
 20
6.11271
 30
-1.35111e-15
  70
    32
  0
VERTEX
  8
0
  5
2CEB
 10
-72.5749
 20
6.10895
 30
-1.34925e-15
  70
    32
  0
VERTEX
  8
0
  5
2CEC
 10
-72.5920
 20
6.10527
 30
-1.34739e-15
  70
    32
  0
VERTEX
  8
0
  5
2CED
 10
-72.6091
 20
6.10165
 30
-1.34554e-15
  70
    32
  0
VERTEX
  8
0
  5
2CEE
 10
-72.6262
 20
6.09812
 30
-1.34368e-15
  70
    32
  0
VERTEX
  8
0
  5
2CEF
 10
-72.6432
 20
6.09465
 30
-1.34184e-15
  70
    32
  0
VERTEX
  8
0
  5
2CF0
 10
-72.6601
 20
6.09125
 30
-1.34001e-15
  70
    32
  0
VERTEX
  8
0
  5
2CF1
 10
-72.6771
 20
6.08793
 30
-1.33819e-15
  70
    32
  0
VERTEX
  8
0
  5
2CF2
 10
-72.6940
 20
6.08467
 30
-1.33638e-15
  70
    32
  0
VERTEX
  8
0
  5
2CF3
 10
-72.7108
 20
6.08149
 30
-1.33459e-15
  70
    32
  0
VERTEX
  8
0
  5
2CF4
 10
-72.7276
 20
6.07838
 30
-1.33282e-15
  70
    32
  0
VERTEX
  8
0
  5
2CF5
 10
-72.7444
 20
6.07533
 30
-1.33107e-15
  70
    32
  0
VERTEX
  8
0
  5
2CF6
 10
-72.7611
 20
6.07236
 30
-1.32935e-15
  70
    32
  0
VERTEX
  8
0
  5
2CF7
 10
-72.7778
 20
6.06945
 30
-1.32765e-15
  70
    32
  0
VERTEX
  8
0
  5
2CF8
 10
-72.7944
 20
6.06661
 30
-1.32598e-15
  70
    32
  0
VERTEX
  8
0
  5
2CF9
 10
-72.8110
 20
6.06384
 30
-1.32434e-15
  70
    32
  0
VERTEX
  8
0
  5
2CFA
 10
-72.8275
 20
6.06113
 30
-1.32273e-15
  70
    32
  0
VERTEX
  8
0
  5
2CFB
 10
-72.8440
 20
6.05849
 30
-1.32116e-15
  70
    32
  0
VERTEX
  8
0
  5
2CFC
 10
-72.8604
 20
6.05592
 30
-1.31962e-15
  70
    32
  0
VERTEX
  8
0
  5
2CFD
 10
-72.8768
 20
6.05341
 30
-1.31813e-15
  70
    32
  0
VERTEX
  8
0
  5
2CFE
 10
-72.8932
 20
6.05097
 30
-1.31668e-15
  70
    32
  0
VERTEX
  8
0
  5
2CFF
 10
-72.9095
 20
6.04859
 30
-1.31527e-15
  70
    32
  0
VERTEX
  8
0
  5
2D00
 10
-72.9257
 20
6.04628
 30
-1.31391e-15
  70
    32
  0
VERTEX
  8
0
  5
2D01
 10
-72.9419
 20
6.04403
 30
-1.31260e-15
  70
    32
  0
VERTEX
  8
0
  5
2D02
 10
-72.9580
 20
6.04184
 30
-1.31134e-15
  70
    32
  0
VERTEX
  8
0
  5
2D03
 10
-72.9741
 20
6.03971
 30
-1.31013e-15
  70
    32
  0
VERTEX
  8
0
  5
2D04
 10
-72.9902
 20
6.03765
 30
-1.30898e-15
  70
    32
  0
VERTEX
  8
0
  5
2D05
 10
-73.0062
 20
6.03565
 30
-1.30789e-15
  70
    32
  0
VERTEX
  8
0
  5
2D06
 10
-73.0221
 20
6.03371
 30
-1.30686e-15
  70
    32
  0
VERTEX
  8
0
  5
2D07
 10
-73.0380
 20
6.03183
 30
-1.30589e-15
  70
    32
  0
VERTEX
  8
0
  5
2D08
 10
-73.0538
 20
6.03001
 30
-1.30499e-15
  70
    32
  0
VERTEX
  8
0
  5
2D09
 10
-73.0696
 20
6.02825
 30
-1.30415e-15
  70
    32
  0
VERTEX
  8
0
  5
2D0A
 10
-73.0853
 20
6.02655
 30
-1.30338e-15
  70
    32
  0
VERTEX
  8
0
  5
2D0B
 10
-73.1010
 20
6.02491
 30
-1.30269e-15
  70
    32
  0
VERTEX
  8
0
  5
2D0C
 10
-73.1166
 20
6.02332
 30
-1.30207e-15
  70
    32
  0
VERTEX
  8
0
  5
2D0D
 10
-73.1321
 20
6.02180
 30
-1.30153e-15
  70
    32
  0
VERTEX
  8
0
  5
2D0E
 10
-73.1476
 20
6.02033
 30
-1.30106e-15
  70
    32
  0
VERTEX
  8
0
  5
2D0F
 10
-73.1630
 20
6.01892
 30
-1.30068e-15
  70
    32
  0
VERTEX
  8
0
  5
2D10
 10
-73.1784
 20
6.01757
 30
-1.30038e-15
  70
    32
  0
VERTEX
  8
0
  5
2D11
 10
-73.1937
 20
6.01627
 30
-1.30016e-15
  70
    32
  0
VERTEX
  8
0
  5
2D12
 10
-73.2090
 20
6.01502
 30
-1.30004e-15
  70
    32
  0
VERTEX
  8
0
  5
2D13
 10
-73.2242
 20
6.01384
 30
-1.30000e-15
  70
    32
  0
VERTEX
  8
0
  5
2D14
 10
-73.2393
 20
6.01270
 30
-1.30000e-15
  70
    32
  0
VERTEX
  8
0
  5
2D15
 10
-73.2544
 20
6.01162
 30
-1.30000e-15
  70
    32
  0
VERTEX
  8
0
  5
2D16
 10
-73.2695
 20
6.01059
 30
-1.30000e-15
  70
    32
  0
VERTEX
  8
0
  5
2D17
 10
-73.2844
 20
6.00961
 30
-1.30000e-15
  70
    32
  0
VERTEX
  8
0
  5
2D18
 10
-73.2994
 20
6.00868
 30
-1.30000e-15
  70
    32
  0
VERTEX
  8
0
  5
2D19
 10
-73.3142
 20
6.00781
 30
-1.30000e-15
  70
    32
  0
VERTEX
  8
0
  5
2D1A
 10
-73.3290
 20
6.00698
 30
-1.30000e-15
  70
    32
  0
VERTEX
  8
0
  5
2D1B
 10
-73.3438
 20
6.00620
 30
-1.30000e-15
  70
    32
  0
VERTEX
  8
0
  5
2D1C
 10
-73.3585
 20
6.00547
 30
-1.30000e-15
  70
    32
  0
VERTEX
  8
0
  5
2D1D
 10
-73.3731
 20
6.00479
 30
-1.30000e-15
  70
    32
  0
VERTEX
  8
0
  5
2D1E
 10
-73.3877
 20
6.00415
 30
-1.30000e-15
  70
    32
  0
VERTEX
  8
0
  5
2D1F
 10
-73.4022
 20
6.00357
 30
-1.30000e-15
  70
    32
  0
VERTEX
  8
0
  5
2D20
 10
-73.4167
 20
6.00303
 30
-1.30000e-15
  70
    32
  0
VERTEX
  8
0
  5
2D21
 10
-73.4311
 20
6.00253
 30
-1.30000e-15
  70
    32
  0
VERTEX
  8
0
  5
2D22
 10
-73.4455
 20
6.00208
 30
-1.30000e-15
  70
    32
  0
VERTEX
  8
0
  5
2D23
 10
-73.4598
 20
6.00168
 30
-1.30000e-15
  70
    32
  0
VERTEX
  8
0
  5
2D24
 10
-73.4740
 20
6.00132
 30
-1.30000e-15
  70
    32
  0
VERTEX
  8
0
  5
2D25
 10
-73.4882
 20
6.00101
 30
-1.30000e-15
  70
    32
  0
VERTEX
  8
0
  5
2D26
 10
-73.5023
 20
6.00074
 30
-1.30000e-15
  70
    32
  0
VERTEX
  8
0
  5
2D27
 10
-73.5164
 20
6.00051
 30
-1.30000e-15
  70
    32
  0
VERTEX
  8
0
  5
2D28
 10
-73.5304
 20
6.00033
 30
-1.30000e-15
  70
    32
  0
VERTEX
  8
0
  5
2D29
 10
-73.5444
 20
6.00018
 30
-1.30000e-15
  70
    32
  0
VERTEX
  8
0
  5
2D2A
 10
-73.5583
 20
6.00008
 30
-1.30000e-15
  70
    32
  0
VERTEX
  8
0
  5
2D2B
 10
-73.5721
 20
6.00002
 30
-1.30000e-15
  70
    32
  0
VERTEX
  8
0
  5
2D2C
 10
-73.5859
 20
6.00000
 30
-1.30000e-15
  70
    32
  0
SEQEND
  8
0
  5
2D2D
  0
LINE
  5
2A0C
  8
0
  6
CONTINUOUS
 62
     3
 10
-53.4999999999998792
 20
19.9999999999993605
 30
-0.0000000000000044
 11
-53.2302577651167894
 21
10.8526216899112793
 31
-0.0000000000000024
210
0.0
220
1.0
230
-0.0000000000000002
  0
LINE
  5
2A0D
  8
0
  6
CONTINUOUS
 62
     3
 10
-68.5
 20
19.9999999999993889
 30
-0.0000000000000044
 11
-68.7762264331147435
 21
10.6327324527395
 31
-0.0000000000000024
210
0.0
220
1.0
230
-0.0000000000000002
  0
LINE
  5
2A0E
  8
0
  6
CONTINUOUS
 62
     3
 10
129.5
 20
19.9999999999994884
 30
-0.0000000000000044
 11
129.9986964948352011
 21
3.0884269860527449
 31
-0.0000000000000007
210
0.0
220
1.0
230
-0.0000000000000002
  0
LINE
  5
2A0F
  8
0
  6
CONTINUOUS
 62
     3
 10
114.4999999999999005
 20
19.9999999999994493
 30
-0.0000000000000044
 11
114.2302577651168036
 21
10.8526216899111798
 31
-0.0000000000000024
210
0.0
220
1.0
230
-0.0000000000000002
  0
ARC
  5
2A10
  8
0
  6
CONTINUOUS
 62
     3
 10
67.9377979346426173
 20
54.5000000000005684
 30
0.0
 40
0.5000000000000324
210
0.0
220
-0.0000000000000002
230
-1.0
 50
1.9999999999849081
 51
90.0
  0
ARC
  5
2A11
  8
0
  6
CONTINUOUS
 62
     3
 10
-67.9377979346428447
 20
54.5000000000003411
 30
0.0
 40
0.4999999999999432
210
0.0
220
-0.0000000000000002
230
-1.0
 50
90.0
 51
178.0000000000158877
  0
LINE
  5
2A12
  8
0
  6
CONTINUOUS
 62
     3
 10
68.4374933481523158
 20
54.5174497483514529
 30
-0.0000000000000121
 11
70.0980579749297021
 21
6.9651005032975304
 31
-0.0000000000000015
210
0.0
220
1.0
230
-0.0000000000000002
  0
LINE
  5
2A13
  8
0
  6
CONTINUOUS
 62
     3
 10
-68.4374933481523158
 20
54.5174497483516802
 30
-0.0000000000000121
 11
-70.0785880650240642
 21
7.5226457747543343
 31
-0.0000000000000017
210
0.0
220
1.0
230
-0.0000000000000002
  0
ARC
  5
2A14
  8
0
  6
CONTINUOUS
 62
     3
 10
-71.0974488019486444
 20
6.9999999999999121
 30
0.0
 40
0.9999999999998272
210
0.0
220
-0.0000000000000002
230
-1.0
 50
270.0
 51
358.000000000013074
  0
LINE
  5
2A15
  8
0
  6
VERDECKT
 62
     1
 10
119.75
 20
19.2499999999993214
 30
-0.0000000000000043
 11
124.25
 21
19.2499999999993214
 31
-0.0000000000000043
210
0.0
220
1.0
230
-0.0000000000000002
  0
LINE
  5
2A16
  8
0
  6
VERDECKT
 62
     1
 10
119.0
 20
18.4999999999993214
 30
-0.0000000000000041
 11
125.0
 21
18.4999999999993214
 31
-0.0000000000000041
210
0.0
220
1.0
230
-0.0000000000000002
  0
LINE
  5
2A17
  8
0
  6
VERDECKT
 62
     1
 10
119.75
 20
17.7499999999993214
 30
-0.0000000000000039
 11
124.25
 21
17.7499999999993214
 31
-0.0000000000000039
210
0.0
220
1.0
230
-0.0000000000000002
  0
LINE
  5
2A18
  8
0
  6
VERDECKT
 62
     1
 10
119.75
 20
16.2499999999993214
 30
-0.0000000000000036
 11
124.25
 21
16.2499999999993214
 31
-0.0000000000000036
210
0.0
220
1.0
230
-0.0000000000000002
  0
LINE
  5
2A19
  8
0
  6
VERDECKT
 62
     1
 10
119.0
 20
15.4999999999993108
 30
-0.0000000000000034
 11
125.0
 21
15.4999999999993108
 31
-0.0000000000000034
210
0.0
220
1.0
230
-0.0000000000000002
  0
LINE
  5
2A1A
  8
0
  6
VERDECKT
 62
     1
 10
119.75
 20
14.7499999999993108
 30
-0.0000000000000033
 11
124.25
 21
14.7499999999993108
 31
-0.0000000000000033
210
0.0
220
1.0
230
-0.0000000000000002
  0
LINE
  5
2A1B
  8
0
  6
VERDECKT
 62
     1
 10
119.75
 20
13.2499999999993108
 30
-0.0000000000000029
 11
124.25
 21
13.2499999999993108
 31
-0.0000000000000029
210
0.0
220
1.0
230
-0.0000000000000002
  0
LINE
  5
2A1C
  8
0
  6
VERDECKT
 62
     1
 10
119.0
 20
12.4999999999993108
 30
-0.0000000000000028
 11
125.0
 21
12.4999999999993108
 31
-0.0000000000000028
210
0.0
220
1.0
230
-0.0000000000000002
  0
LINE
  5
2A1D
  8
0
  6
VERDECKT
 62
     1
 10
119.75
 20
11.7499999999993108
 30
-0.0000000000000026
 11
124.25
 21
11.7499999999993108
 31
-0.0000000000000026
210
0.0
220
1.0
230
-0.0000000000000002
  0
LINE
  5
2A1E
  8
0
  6
VERDECKT
 62
     1
 10
119.0
 20
10.9999999999993108
 30
-0.0000000000000024
 11
125.0
 21
10.9999999999993108
 31
-0.0000000000000024
210
0.0
220
1.0
230
-0.0000000000000002
  0
LINE
  5
2A1F
  8
0
  6
VERDECKT
 62
     1
 10
119.75
 20
10.2499999999993108
 30
-0.0000000000000023
 11
124.25
 21
10.2499999999993108
 31
-0.0000000000000023
210
0.0
220
1.0
230
-0.0000000000000002
  0
LINE
  5
2A20
  8
0
  6
VERDECKT
 62
     1
 10
119.0
 20
9.4999999999993143
 30
-0.0000000000000021
 11
125.0
 21
9.4999999999993143
 31
-0.0000000000000021
210
0.0
220
1.0
230
-0.0000000000000002
  0
LINE
  5
2A21
  8
0
  6
VERDECKT
 62
     1
 10
119.75
 20
8.7499999999993143
 30
-0.0000000000000019
 11
124.25
 21
8.7499999999993143
 31
-0.0000000000000019
210
0.0
220
1.0
230
-0.0000000000000002
  0
LINE
  5
2A22
  8
0
  6
VERDECKT
 62
     1
 10
119.0
 20
7.9999999999993134
 30
-0.0000000000000018
 11
125.0
 21
7.9999999999993143
 31
-0.0000000000000018
210
0.0
220
1.0
230
-0.0000000000000002
  0
LINE
  5
2A23
  8
0
  6
VERDECKT
 62
     1
 10
119.75
 20
7.2499999999993143
 30
-0.0000000000000016
 11
124.25
 21
7.2499999999993143
 31
-0.0000000000000016
210
0.0
220
1.0
230
-0.0000000000000002
  0
LINE
  5
2A24
  8
0
  6
VERDECKT
 62
     1
 10
119.0
 20
6.4999999999993134
 30
-0.0000000000000014
 11
125.0
 21
6.4999999999993134
 31
-0.0000000000000014
210
0.0
220
1.0
230
-0.0000000000000002
  0
LINE
  5
2A25
  8
0
  6
VERDECKT
 62
     1
 10
119.75
 20
5.7499999999993134
 30
-0.0000000000000013
 11
124.25
 21
5.7499999999993134
 31
-0.0000000000000013
210
0.0
220
1.0
230
-0.0000000000000002
  0
LINE
  5
2A26
  8
0
  6
VERDECKT
 62
     1
 10
119.0
 20
4.9999999999993134
 30
-0.0000000000000011
 11
125.0
 21
4.9999999999993134
 31
-0.0000000000000011
210
0.0
220
1.0
230
-0.0000000000000002
  0
LINE
  5
2A27
  8
0
  6
VERDECKT
 62
     1
 10
119.75
 20
4.2499999999993134
 30
-0.0000000000000009
 11
124.25
 21
4.2499999999993134
 31
-0.0000000000000009
210
0.0
220
1.0
230
-0.0000000000000002
  0
LINE
  5
2A28
  8
0
  6
VERDECKT
 62
     1
 10
119.0
 20
3.4999999999993121
 30
-0.0000000000000008
 11
125.0
 21
3.4999999999993121
 31
-0.0000000000000008
210
0.0
220
1.0
230
-0.0000000000000002
  0
LINE
  5
2A29
  8
0
  6
VERDECKT
 62
     1
 10
119.75
 20
2.7499999999993121
 30
-0.0000000000000006
 11
124.25
 21
2.7499999999993121
 31
-0.0000000000000006
210
0.0
220
1.0
230
-0.0000000000000002
  0
LINE
  5
2A2A
  8
0
  6
VERDECKT
 62
     1
 10
119.0
 20
1.9999999999993121
 30
-0.0000000000000004
 11
125.0
 21
1.9999999999993121
 31
-0.0000000000000004
210
0.0
220
1.0
230
-0.0000000000000002
  0
LINE
  5
2A2B
  8
0
  6
VERDECKT
 62
     1
 10
119.75
 20
1.2499999999993121
 30
-0.0000000000000003
 11
124.25
 21
1.2499999999993121
 31
-0.0000000000000003
210
0.0
220
1.0
230
-0.0000000000000002
  0
LINE
  5
2A2C
  8
0
  6
VERDECKT
 62
     1
 10
119.0
 20
0.4999999999993126
 30
-0.0000000000000001
 11
125.0
 21
0.4999999999993126
 31
-0.0000000000000001
210
0.0
220
1.0
230
-0.0000000000000002
  0
LINE
  5
2A2D
  8
0
  6
VERDECKT
 62
     1
 10
118.0
 20
16.9999999999993108
 30
-0.0000000000000038
 11
124.0
 21
16.9999999999993108
 31
-0.0000000000000038
210
0.0
220
1.0
230
-0.0000000000000002
  0
LINE
  5
2A2E
  8
0
  6
VERDECKT
 62
     1
 10
123.9999999999999005
 20
16.9999999999993108
 30
-0.0000000000000038
 11
126.0
 21
16.9999999999993108
 31
-0.0000000000000038
210
0.0
220
1.0
230
-0.0000000000000002
  0
LINE
  5
2A2F
  8
0
  6
VERDECKT
 62
     1
 10
117.9999999999999005
 20
13.9999999999993108
 30
-0.0000000000000031
 11
123.9999999999999005
 21
13.9999999999993108
 31
-0.0000000000000031
210
0.0
220
1.0
230
-0.0000000000000002
  0
LINE
  5
2A30
  8
0
  6
VERDECKT
 62
     1
 10
123.9999999999999005
 20
13.9999999999993108
 30
-0.0000000000000031
 11
126.0
 21
13.9999999999993108
 31
-0.0000000000000031
210
0.0
220
1.0
230
-0.0000000000000002
  0
LINE
  5
2A31
  8
0
  6
VERDECKT
 62
     1
 10
118.0
 20
2.9999999999994258
 30
-0.0000000000000007
 11
123.9999999999999005
 21
2.9999999999994271
 31
-0.0000000000000007
210
0.0
220
1.0
230
-0.0000000000000002
  0
LINE
  5
2A32
  8
0
  6
VERDECKT
 62
     1
 10
124.0
 20
2.9999999999994271
 30
-0.0000000000000007
 11
125.9999999999999005
 21
2.9999999999994258
 31
-0.0000000000000007
210
0.0
220
1.0
230
-0.0000000000000002
  0
LINE
  5
2A33
  8
0
  6
VERDECKT
 62
     1
 10
119.75
 20
19.2499999999993214
 30
-0.0000000000000043
 11
119.0
 21
19.9999999999993214
 31
-0.0000000000000044
210
0.0
220
1.0
230
-0.0000000000000002
  0
LINE
  5
2A34
  8
0
  6
VERDECKT
 62
     1
 10
124.25
 20
19.2499999999993214
 30
-0.0000000000000043
 11
125.0
 21
19.9999999999993108
 31
-0.0000000000000044
210
0.0
220
1.0
230
-0.0000000000000002
  0
LINE
  5
2A35
  8
0
  6
VERDECKT
 62
     1
 10
124.25
 20
19.2499999999993214
 30
-0.0000000000000043
 11
125.0
 21
18.4999999999993214
 31
-0.0000000000000041
210
0.0
220
1.0
230
-0.0000000000000002
  0
LINE
  5
2A36
  8
0
  6
VERDECKT
 62
     1
 10
119.75
 20
19.2499999999993214
 30
-0.0000000000000043
 11
119.0
 21
18.4999999999993214
 31
-0.0000000000000041
210
0.0
220
1.0
230
-0.0000000000000002
  0
LINE
  5
2A37
  8
0
  6
VERDECKT
 62
     1
 10
119.75
 20
17.7499999999993214
 30
-0.0000000000000039
 11
119.0
 21
18.4999999999993214
 31
-0.0000000000000041
210
0.0
220
1.0
230
-0.0000000000000002
  0
LINE
  5
2A38
  8
0
  6
VERDECKT
 62
     1
 10
124.25
 20
17.7499999999993214
 30
-0.0000000000000039
 11
125.0
 21
18.4999999999993214
 31
-0.0000000000000041
210
0.0
220
1.0
230
-0.0000000000000002
  0
LINE
  5
2A39
  8
0
  6
VERDECKT
 62
     1
 10
124.25
 20
17.7499999999993214
 30
-0.0000000000000039
 11
125.0
 21
16.9999999999993108
 31
-0.0000000000000038
210
0.0
220
1.0
230
-0.0000000000000002
  0
LINE
  5
2A3A
  8
0
  6
VERDECKT
 62
     1
 10
119.75
 20
17.7499999999993214
 30
-0.0000000000000039
 11
119.0
 21
16.9999999999993108
 31
-0.0000000000000038
210
0.0
220
1.0
230
-0.0000000000000002
  0
LINE
  5
2A3B
  8
0
  6
VERDECKT
 62
     1
 10
119.75
 20
16.2499999999993214
 30
-0.0000000000000036
 11
119.0
 21
16.9999999999993108
 31
-0.0000000000000038
210
0.0
220
1.0
230
-0.0000000000000002
  0
LINE
  5
2A3C
  8
0
  6
VERDECKT
 62
     1
 10
124.25
 20
16.2499999999993214
 30
-0.0000000000000036
 11
125.0
 21
16.9999999999993108
 31
-0.0000000000000038
210
0.0
220
1.0
230
-0.0000000000000002
  0
LINE
  5
2A3D
  8
0
  6
VERDECKT
 62
     1
 10
124.25
 20
16.2499999999993214
 30
-0.0000000000000036
 11
125.0
 21
15.4999999999993108
 31
-0.0000000000000034
210
0.0
220
1.0
230
-0.0000000000000002
  0
LINE
  5
2A3E
  8
0
  6
VERDECKT
 62
     1
 10
119.75
 20
16.2499999999993214
 30
-0.0000000000000036
 11
119.0
 21
15.4999999999993108
 31
-0.0000000000000034
210
0.0
220
1.0
230
-0.0000000000000002
  0
LINE
  5
2A3F
  8
0
  6
VERDECKT
 62
     1
 10
119.75
 20
14.7499999999993108
 30
-0.0000000000000033
 11
119.0
 21
15.4999999999993108
 31
-0.0000000000000034
210
0.0
220
1.0
230
-0.0000000000000002
  0
LINE
  5
2A40
  8
0
  6
VERDECKT
 62
     1
 10
124.25
 20
14.7499999999993108
 30
-0.0000000000000033
 11
125.0
 21
15.4999999999993108
 31
-0.0000000000000034
210
0.0
220
1.0
230
-0.0000000000000002
  0
LINE
  5
2A41
  8
0
  6
VERDECKT
 62
     1
 10
124.25
 20
14.7499999999993108
 30
-0.0000000000000033
 11
125.0
 21
13.9999999999993108
 31
-0.0000000000000031
210
0.0
220
1.0
230
-0.0000000000000002
  0
LINE
  5
2A42
  8
0
  6
VERDECKT
 62
     1
 10
119.75
 20
14.7499999999993108
 30
-0.0000000000000033
 11
119.0
 21
13.9999999999993108
 31
-0.0000000000000031
210
0.0
220
1.0
230
-0.0000000000000002
  0
LINE
  5
2A43
  8
0
  6
VERDECKT
 62
     1
 10
119.75
 20
13.2499999999993108
 30
-0.0000000000000029
 11
119.0
 21
13.9999999999993108
 31
-0.0000000000000031
210
0.0
220
1.0
230
-0.0000000000000002
  0
LINE
  5
2A44
  8
0
  6
VERDECKT
 62
     1
 10
124.25
 20
13.2499999999993108
 30
-0.0000000000000029
 11
125.0
 21
13.9999999999993108
 31
-0.0000000000000031
210
0.0
220
1.0
230
-0.0000000000000002
  0
LINE
  5
2A45
  8
0
  6
VERDECKT
 62
     1
 10
124.25
 20
13.2499999999993108
 30
-0.0000000000000029
 11
125.0
 21
12.4999999999993108
 31
-0.0000000000000028
210
0.0
220
1.0
230
-0.0000000000000002
  0
LINE
  5
2A46
  8
0
  6
VERDECKT
 62
     1
 10
119.75
 20
13.2499999999993108
 30
-0.0000000000000029
 11
119.0
 21
12.4999999999993108
 31
-0.0000000000000028
210
0.0
220
1.0
230
-0.0000000000000002
  0
LINE
  5
2A47
  8
0
  6
VERDECKT
 62
     1
 10
119.75
 20
11.7499999999993108
 30
-0.0000000000000026
 11
119.0
 21
12.4999999999993108
 31
-0.0000000000000028
210
0.0
220
1.0
230
-0.0000000000000002
  0
LINE
  5
2A48
  8
0
  6
VERDECKT
 62
     1
 10
124.25
 20
11.7499999999993108
 30
-0.0000000000000026
 11
125.0
 21
12.4999999999993108
 31
-0.0000000000000028
210
0.0
220
1.0
230
-0.0000000000000002
  0
LINE
  5
2A49
  8
0
  6
VERDECKT
 62
     1
 10
124.25
 20
11.7499999999993108
 30
-0.0000000000000026
 11
125.0
 21
10.9999999999993108
 31
-0.0000000000000024
210
0.0
220
1.0
230
-0.0000000000000002
  0
LINE
  5
2A4A
  8
0
  6
VERDECKT
 62
     1
 10
119.75
 20
11.7499999999993108
 30
-0.0000000000000026
 11
119.0
 21
10.9999999999993108
 31
-0.0000000000000024
210
0.0
220
1.0
230
-0.0000000000000002
  0
LINE
  5
2A4B
  8
0
  6
VERDECKT
 62
     1
 10
119.75
 20
10.2499999999993108
 30
-0.0000000000000023
 11
119.0
 21
10.9999999999993108
 31
-0.0000000000000024
210
0.0
220
1.0
230
-0.0000000000000002
  0
LINE
  5
2A4C
  8
0
  6
VERDECKT
 62
     1
 10
124.25
 20
10.2499999999993108
 30
-0.0000000000000023
 11
125.0
 21
10.9999999999993108
 31
-0.0000000000000024
210
0.0
220
1.0
230
-0.0000000000000002
  0
LINE
  5
2A4D
  8
0
  6
VERDECKT
 62
     1
 10
124.25
 20
10.2499999999993108
 30
-0.0000000000000023
 11
125.0
 21
9.4999999999993143
 31
-0.0000000000000021
210
0.0
220
1.0
230
-0.0000000000000002
  0
LINE
  5
2A4E
  8
0
  6
VERDECKT
 62
     1
 10
119.75
 20
10.2499999999993108
 30
-0.0000000000000023
 11
119.0
 21
9.4999999999993143
 31
-0.0000000000000021
210
0.0
220
1.0
230
-0.0000000000000002
  0
LINE
  5
2A4F
  8
0
  6
VERDECKT
 62
     1
 10
119.75
 20
8.7499999999993143
 30
-0.0000000000000019
 11
119.0
 21
9.4999999999993143
 31
-0.0000000000000021
210
0.0
220
1.0
230
-0.0000000000000002
  0
LINE
  5
2A50
  8
0
  6
VERDECKT
 62
     1
 10
124.25
 20
8.7499999999993143
 30
-0.0000000000000019
 11
125.0
 21
9.4999999999993143
 31
-0.0000000000000021
210
0.0
220
1.0
230
-0.0000000000000002
  0
LINE
  5
2A51
  8
0
  6
VERDECKT
 62
     1
 10
124.25
 20
8.7499999999993143
 30
-0.0000000000000019
 11
125.0
 21
7.9999999999993143
 31
-0.0000000000000018
210
0.0
220
1.0
230
-0.0000000000000002
  0
LINE
  5
2A52
  8
0
  6
VERDECKT
 62
     1
 10
119.75
 20
8.7499999999993143
 30
-0.0000000000000019
 11
119.0
 21
7.9999999999993143
 31
-0.0000000000000018
210
0.0
220
1.0
230
-0.0000000000000002
  0
LINE
  5
2A53
  8
0
  6
VERDECKT
 62
     1
 10
119.75
 20
7.2499999999993143
 30
-0.0000000000000016
 11
119.0
 21
7.9999999999993143
 31
-0.0000000000000018
210
0.0
220
1.0
230
-0.0000000000000002
  0
LINE
  5
2A54
  8
0
  6
VERDECKT
 62
     1
 10
124.25
 20
7.2499999999993143
 30
-0.0000000000000016
 11
125.0
 21
7.9999999999993143
 31
-0.0000000000000018
210
0.0
220
1.0
230
-0.0000000000000002
  0
LINE
  5
2A55
  8
0
  6
VERDECKT
 62
     1
 10
124.25
 20
7.2499999999993143
 30
-0.0000000000000016
 11
125.0
 21
6.4999999999993134
 31
-0.0000000000000014
210
0.0
220
1.0
230
-0.0000000000000002
  0
LINE
  5
2A56
  8
0
  6
VERDECKT
 62
     1
 10
119.75
 20
7.2499999999993143
 30
-0.0000000000000016
 11
119.0
 21
6.4999999999993134
 31
-0.0000000000000014
210
0.0
220
1.0
230
-0.0000000000000002
  0
LINE
  5
2A57
  8
0
  6
VERDECKT
 62
     1
 10
119.75
 20
5.7499999999993134
 30
-0.0000000000000013
 11
119.0
 21
6.4999999999993134
 31
-0.0000000000000014
210
0.0
220
1.0
230
-0.0000000000000002
  0
LINE
  5
2A58
  8
0
  6
VERDECKT
 62
     1
 10
124.25
 20
5.7499999999993134
 30
-0.0000000000000013
 11
125.0
 21
6.4999999999993134
 31
-0.0000000000000014
210
0.0
220
1.0
230
-0.0000000000000002
  0
LINE
  5
2A59
  8
0
  6
VERDECKT
 62
     1
 10
124.25
 20
5.7499999999993134
 30
-0.0000000000000013
 11
125.0
 21
4.9999999999993134
 31
-0.0000000000000011
210
0.0
220
1.0
230
-0.0000000000000002
  0
LINE
  5
2A5A
  8
0
  6
VERDECKT
 62
     1
 10
119.75
 20
5.7499999999993134
 30
-0.0000000000000013
 11
119.0
 21
4.9999999999993134
 31
-0.0000000000000011
210
0.0
220
1.0
230
-0.0000000000000002
  0
LINE
  5
2A5B
  8
0
  6
VERDECKT
 62
     1
 10
119.75
 20
4.2499999999993134
 30
-0.0000000000000009
 11
119.0
 21
4.9999999999993134
 31
-0.0000000000000011
210
0.0
220
1.0
230
-0.0000000000000002
  0
LINE
  5
2A5C
  8
0
  6
VERDECKT
 62
     1
 10
124.25
 20
4.2499999999993134
 30
-0.0000000000000009
 11
125.0
 21
4.9999999999993134
 31
-0.0000000000000011
210
0.0
220
1.0
230
-0.0000000000000002
  0
LINE
  5
2A5D
  8
0
  6
VERDECKT
 62
     1
 10
124.25
 20
4.2499999999993134
 30
-0.0000000000000009
 11
125.0
 21
3.4999999999993121
 31
-0.0000000000000008
210
0.0
220
1.0
230
-0.0000000000000002
  0
LINE
  5
2A5E
  8
0
  6
VERDECKT
 62
     1
 10
119.75
 20
4.2499999999993134
 30
-0.0000000000000009
 11
119.0
 21
3.4999999999993121
 31
-0.0000000000000008
210
0.0
220
1.0
230
-0.0000000000000002
  0
LINE
  5
2A5F
  8
0
  6
VERDECKT
 62
     1
 10
119.75
 20
2.7499999999993121
 30
-0.0000000000000006
 11
119.0
 21
3.4999999999993121
 31
-0.0000000000000008
210
0.0
220
1.0
230
-0.0000000000000002
  0
LINE
  5
2A60
  8
0
  6
VERDECKT
 62
     1
 10
124.25
 20
2.7499999999993121
 30
-0.0000000000000006
 11
125.0
 21
3.4999999999993121
 31
-0.0000000000000008
210
0.0
220
1.0
230
-0.0000000000000002
  0
LINE
  5
2A61
  8
0
  6
VERDECKT
 62
     1
 10
124.25
 20
2.7499999999993121
 30
-0.0000000000000006
 11
125.0
 21
1.9999999999993121
 31
-0.0000000000000004
210
0.0
220
1.0
230
-0.0000000000000002
  0
LINE
  5
2A62
  8
0
  6
VERDECKT
 62
     1
 10
119.75
 20
2.7499999999993121
 30
-0.0000000000000006
 11
119.0
 21
1.9999999999993121
 31
-0.0000000000000004
210
0.0
220
1.0
230
-0.0000000000000002
  0
LINE
  5
2A63
  8
0
  6
VERDECKT
 62
     1
 10
119.75
 20
1.2499999999993121
 30
-0.0000000000000003
 11
119.0
 21
1.9999999999993121
 31
-0.0000000000000004
210
0.0
220
1.0
230
-0.0000000000000002
  0
LINE
  5
2A64
  8
0
  6
VERDECKT
 62
     1
 10
124.25
 20
1.2499999999993121
 30
-0.0000000000000003
 11
125.0
 21
1.9999999999993121
 31
-0.0000000000000004
210
0.0
220
1.0
230
-0.0000000000000002
  0
LINE
  5
2A65
  8
0
  6
VERDECKT
 62
     1
 10
124.25
 20
1.2499999999993121
 30
-0.0000000000000003
 11
125.0
 21
0.4999999999993126
 31
-0.0000000000000001
210
0.0
220
1.0
230
-0.0000000000000002
  0
LINE
  5
2A66
  8
0
  6
VERDECKT
 62
     1
 10
119.75
 20
1.2499999999993121
 30
-0.0000000000000003
 11
119.0
 21
0.4999999999993126
 31
-0.0000000000000001
210
0.0
220
1.0
230
-0.0000000000000002
  0
LINE
  5
2A67
  8
0
  6
VERDECKT
 62
     1
 10
119.5
 20
-0.0000000000006164
 30
0.0
 11
119.0
 21
0.4999999999992984
 31
-0.0000000000000001
210
0.0
220
1.0
230
-0.0000000000000002
  0
LINE
  5
2A68
  8
0
  6
VERDECKT
 62
     1
 10
124.5000000000000995
 20
-0.0000000000005631
 30
0.0
 11
125.0
 21
0.4999999999992984
 31
-0.0000000000000001
210
0.0
220
1.0
230
-0.0000000000000002
  0
LINE
  5
2A69
  8
0
  6
VERDECKT
 62
     1
 10
125.4999999999999005
 20
16.9999999999993108
 30
-0.0000000000000038
 11
125.4999999999999005
 21
13.9999999999993001
 31
-0.0000000000000031
210
0.0
220
1.0
230
-0.0000000000000002
  0
LINE
  5
2A6A
  8
0
  6
VERDECKT
 62
     1
 10
118.5000000000000995
 20
16.9999999999993214
 30
-0.0000000000000038
 11
118.5000000000000995
 21
13.9999999999993197
 31
-0.0000000000000031
210
0.0
220
1.0
230
-0.0000000000000002
  0
LINE
  5
2A6B
  8
0
  6
VERDECKT
 62
     1
 10
125.9999999999999005
 20
13.9999999999993001
 30
-0.0000000000000031
 11
125.9999999999999005
 21
5.9999999999991882
 31
-0.0000000000000013
210
0.0
220
1.0
230
-0.0000000000000002
  0
LINE
  5
2A6C
  8
0
  6
VERDECKT
 62
     1
 10
118.0000000000000995
 20
13.9999999999993303
 30
-0.0000000000000031
 11
118.0000000000000995
 21
5.9999999999992113
 31
-0.0000000000000013
210
0.0
220
1.0
230
-0.0000000000000002
  0
LINE
  5
2A6D
  8
0
  6
VERDECKT
 62
     1
 10
125.4999999999999005
 20
5.9999999999993028
 30
-0.0000000000000013
 11
125.4999999999999005
 21
2.9999999999993019
 31
-0.0000000000000007
210
0.0
220
1.0
230
-0.0000000000000002
  0
LINE
  5
2A6E
  8
0
  6
VERDECKT
 62
     1
 10
118.4999999999999005
 20
5.9999999999993232
 30
-0.0000000000000013
 11
118.4999999999999005
 21
2.9999999999993219
 31
-0.0000000000000007
210
0.0
220
1.0
230
-0.0000000000000002
  0
LINE
  5
2A6F
  8
0
  6
VERDECKT
 62
     1
 10
125.9999999999999005
 20
2.9999999999994138
 30
-0.0000000000000007
 11
125.9999999999999005
 21
-0.0000000000005844
 31
0.0
210
0.0
220
1.0
230
-0.0000000000000002
  0
LINE
  5
2A70
  8
0
  6
VERDECKT
 62
     1
 10
117.9999999999999005
 20
2.9999999999994369
 30
-0.0000000000000007
 11
117.9999999999999005
 21
-0.0000000000005631
 31
0.0
210
0.0
220
1.0
230
-0.0000000000000002
  0
LINE
  5
2A71
  8
0
  6
VERDECKT
 62
     1
 10
126.0
 20
19.9999999999993001
 30
-0.0000000000000044
 11
126.0
 21
16.9999999999993001
 31
-0.0000000000000038
210
0.0
220
1.0
230
-0.0000000000000002
  0
LINE
  5
2A72
  8
0
  6
VERDECKT
 62
     1
 10
118.0
 20
19.9999999999993214
 30
-0.0000000000000044
 11
118.0
 21
16.9999999999993285
 31
-0.0000000000000038
210
0.0
220
1.0
230
-0.0000000000000002
  0
LINE
  5
2A73
  8
0
  6
VERDECKT
 62
     1
 10
-63.25
 20
19.2499999999993214
 30
-0.0000000000000043
 11
-58.75
 21
19.2499999999993214
 31
-0.0000000000000043
210
0.0
220
1.0
230
-0.0000000000000002
  0
LINE
  5
2A74
  8
0
  6
VERDECKT
 62
     1
 10
-64.0
 20
18.4999999999993214
 30
-0.0000000000000041
 11
-58.0
 21
18.4999999999993214
 31
-0.0000000000000041
210
0.0
220
1.0
230
-0.0000000000000002
  0
LINE
  5
2A75
  8
0
  6
VERDECKT
 62
     1
 10
-63.25
 20
17.7499999999993214
 30
-0.0000000000000039
 11
-58.75
 21
17.7499999999993214
 31
-0.0000000000000039
210
0.0
220
1.0
230
-0.0000000000000002
  0
LINE
  5
2A76
  8
0
  6
VERDECKT
 62
     1
 10
-63.25
 20
16.2499999999993214
 30
-0.0000000000000036
 11
-58.75
 21
16.2499999999993214
 31
-0.0000000000000036
210
0.0
220
1.0
230
-0.0000000000000002
  0
LINE
  5
2A77
  8
0
  6
VERDECKT
 62
     1
 10
-64.0
 20
15.4999999999993108
 30
-0.0000000000000034
 11
-58.0
 21
15.4999999999993108
 31
-0.0000000000000034
210
0.0
220
1.0
230
-0.0000000000000002
  0
LINE
  5
2A78
  8
0
  6
VERDECKT
 62
     1
 10
-63.25
 20
14.7499999999993108
 30
-0.0000000000000033
 11
-58.75
 21
14.7499999999993108
 31
-0.0000000000000033
210
0.0
220
1.0
230
-0.0000000000000002
  0
LINE
  5
2A79
  8
0
  6
VERDECKT
 62
     1
 10
-63.25
 20
13.2499999999993108
 30
-0.0000000000000029
 11
-58.75
 21
13.2499999999993108
 31
-0.0000000000000029
210
0.0
220
1.0
230
-0.0000000000000002
  0
LINE
  5
2A7A
  8
0
  6
VERDECKT
 62
     1
 10
-64.0
 20
12.4999999999993108
 30
-0.0000000000000028
 11
-58.0
 21
12.4999999999993108
 31
-0.0000000000000028
210
0.0
220
1.0
230
-0.0000000000000002
  0
LINE
  5
2A7B
  8
0
  6
VERDECKT
 62
     1
 10
-63.25
 20
11.7499999999993108
 30
-0.0000000000000026
 11
-58.75
 21
11.7499999999993108
 31
-0.0000000000000026
210
0.0
220
1.0
230
-0.0000000000000002
  0
LINE
  5
2A7C
  8
0
  6
VERDECKT
 62
     1
 10
-64.0
 20
10.9999999999993108
 30
-0.0000000000000024
 11
-58.0
 21
10.9999999999993108
 31
-0.0000000000000024
210
0.0
220
1.0
230
-0.0000000000000002
  0
LINE
  5
2A7D
  8
0
  6
VERDECKT
 62
     1
 10
-63.25
 20
10.2499999999993108
 30
-0.0000000000000023
 11
-58.75
 21
10.2499999999993108
 31
-0.0000000000000023
210
0.0
220
1.0
230
-0.0000000000000002
  0
LINE
  5
2A7E
  8
0
  6
VERDECKT
 62
     1
 10
-64.0
 20
9.4999999999993143
 30
-0.0000000000000021
 11
-58.0
 21
9.4999999999993143
 31
-0.0000000000000021
210
0.0
220
1.0
230
-0.0000000000000002
  0
LINE
  5
2A7F
  8
0
  6
VERDECKT
 62
     1
 10
-63.25
 20
8.7499999999993143
 30
-0.0000000000000019
 11
-58.75
 21
8.7499999999993143
 31
-0.0000000000000019
210
0.0
220
1.0
230
-0.0000000000000002
  0
LINE
  5
2A80
  8
0
  6
VERDECKT
 62
     1
 10
-64.0
 20
7.9999999999993134
 30
-0.0000000000000018
 11
-58.0
 21
7.9999999999993143
 31
-0.0000000000000018
210
0.0
220
1.0
230
-0.0000000000000002
  0
LINE
  5
2A81
  8
0
  6
VERDECKT
 62
     1
 10
-63.25
 20
7.2499999999993143
 30
-0.0000000000000016
 11
-58.75
 21
7.2499999999993143
 31
-0.0000000000000016
210
0.0
220
1.0
230
-0.0000000000000002
  0
LINE
  5
2A82
  8
0
  6
VERDECKT
 62
     1
 10
-64.0
 20
6.4999999999993134
 30
-0.0000000000000014
 11
-58.0
 21
6.4999999999993134
 31
-0.0000000000000014
210
0.0
220
1.0
230
-0.0000000000000002
  0
LINE
  5
2A83
  8
0
  6
VERDECKT
 62
     1
 10
-63.25
 20
5.7499999999993134
 30
-0.0000000000000013
 11
-58.75
 21
5.7499999999993134
 31
-0.0000000000000013
210
0.0
220
1.0
230
-0.0000000000000002
  0
LINE
  5
2A84
  8
0
  6
VERDECKT
 62
     1
 10
-64.0
 20
4.9999999999993134
 30
-0.0000000000000011
 11
-58.0
 21
4.9999999999993134
 31
-0.0000000000000011
210
0.0
220
1.0
230
-0.0000000000000002
  0
LINE
  5
2A85
  8
0
  6
VERDECKT
 62
     1
 10
-63.25
 20
4.2499999999993134
 30
-0.0000000000000009
 11
-58.75
 21
4.2499999999993134
 31
-0.0000000000000009
210
0.0
220
1.0
230
-0.0000000000000002
  0
LINE
  5
2A86
  8
0
  6
VERDECKT
 62
     1
 10
-64.0
 20
3.4999999999993121
 30
-0.0000000000000008
 11
-58.0
 21
3.4999999999993121
 31
-0.0000000000000008
210
0.0
220
1.0
230
-0.0000000000000002
  0
LINE
  5
2A87
  8
0
  6
VERDECKT
 62
     1
 10
-63.25
 20
2.7499999999993121
 30
-0.0000000000000006
 11
-58.75
 21
2.7499999999993121
 31
-0.0000000000000006
210
0.0
220
1.0
230
-0.0000000000000002
  0
LINE
  5
2A88
  8
0
  6
VERDECKT
 62
     1
 10
-64.0
 20
1.9999999999993121
 30
-0.0000000000000004
 11
-58.0
 21
1.9999999999993121
 31
-0.0000000000000004
210
0.0
220
1.0
230
-0.0000000000000002
  0
LINE
  5
2A89
  8
0
  6
VERDECKT
 62
     1
 10
-63.25
 20
1.2499999999993121
 30
-0.0000000000000003
 11
-58.75
 21
1.2499999999993121
 31
-0.0000000000000003
210
0.0
220
1.0
230
-0.0000000000000002
  0
LINE
  5
2A8A
  8
0
  6
VERDECKT
 62
     1
 10
-64.0
 20
0.4999999999993126
 30
-0.0000000000000001
 11
-58.0
 21
0.4999999999993126
 31
-0.0000000000000001
210
0.0
220
1.0
230
-0.0000000000000002
  0
LINE
  5
2A8B
  8
0
  6
VERDECKT
 62
     1
 10
-65.0
 20
16.9999999999993108
 30
-0.0000000000000038
 11
-59.0
 21
16.9999999999993108
 31
-0.0000000000000038
210
0.0
220
1.0
230
-0.0000000000000002
  0
LINE
  5
2A8C
  8
0
  6
VERDECKT
 62
     1
 10
-59.0000000000001066
 20
16.9999999999993108
 30
-0.0000000000000038
 11
-57.0000000000001066
 21
16.9999999999993108
 31
-0.0000000000000038
210
0.0
220
1.0
230
-0.0000000000000002
  0
LINE
  5
2A8D
  8
0
  6
VERDECKT
 62
     1
 10
-65.0000000000001137
 20
13.9999999999993108
 30
-0.0000000000000031
 11
-59.0000000000001066
 21
13.9999999999993108
 31
-0.0000000000000031
210
0.0
220
1.0
230
-0.0000000000000002
  0
LINE
  5
2A8E
  8
0
  6
VERDECKT
 62
     1
 10
-59.0
 20
13.9999999999993108
 30
-0.0000000000000031
 11
-57.0
 21
13.9999999999993108
 31
-0.0000000000000031
210
0.0
220
1.0
230
-0.0000000000000002
  0
LINE
  5
2A8F
  8
0
  6
VERDECKT
 62
     1
 10
-65.0
 20
5.9999999999991989
 30
-0.0000000000000013
 11
-59.0000000000001066
 21
5.9999999999991998
 31
-0.0000000000000013
210
0.0
220
1.0
230
-0.0000000000000002
  0
LINE
  5
2A90
  8
0
  6
VERDECKT
 62
     1
 10
-59.0
 20
5.9999999999991998
 30
-0.0000000000000013
 11
-57.0000000000001066
 21
5.9999999999991989
 31
-0.0000000000000013
210
0.0
220
1.0
230
-0.0000000000000002
  0
LINE
  5
2A91
  8
0
  6
VERDECKT
 62
     1
 10
-65.0
 20
2.9999999999994258
 30
-0.0000000000000007
 11
-59.0000000000001066
 21
2.9999999999994271
 31
-0.0000000000000007
210
0.0
220
1.0
230
-0.0000000000000002
  0
LINE
  5
2A92
  8
0
  6
VERDECKT
 62
     1
 10
-59.0
 20
2.9999999999994271
 30
-0.0000000000000007
 11
-57.0000000000001066
 21
2.9999999999994258
 31
-0.0000000000000007
210
0.0
220
1.0
230
-0.0000000000000002
  0
LINE
  5
2A93
  8
0
  6
VERDECKT
 62
     1
 10
-63.25
 20
19.2499999999993214
 30
-0.0000000000000043
 11
-64.0
 21
19.9999999999993214
 31
-0.0000000000000044
210
0.0
220
1.0
230
-0.0000000000000002
  0
LINE
  5
2A94
  8
0
  6
VERDECKT
 62
     1
 10
-58.75
 20
19.2499999999993214
 30
-0.0000000000000043
 11
-58.0
 21
19.9999999999993108
 31
-0.0000000000000044
210
0.0
220
1.0
230
-0.0000000000000002
  0
LINE
  5
2A95
  8
0
  6
VERDECKT
 62
     1
 10
-58.75
 20
19.2499999999993214
 30
-0.0000000000000043
 11
-58.0
 21
18.4999999999993214
 31
-0.0000000000000041
210
0.0
220
1.0
230
-0.0000000000000002
  0
LINE
  5
2A96
  8
0
  6
VERDECKT
 62
     1
 10
-63.25
 20
19.2499999999993214
 30
-0.0000000000000043
 11
-64.0
 21
18.4999999999993214
 31
-0.0000000000000041
210
0.0
220
1.0
230
-0.0000000000000002
  0
LINE
  5
2A97
  8
0
  6
VERDECKT
 62
     1
 10
-63.25
 20
17.7499999999993214
 30
-0.0000000000000039
 11
-64.0
 21
18.4999999999993214
 31
-0.0000000000000041
210
0.0
220
1.0
230
-0.0000000000000002
  0
LINE
  5
2A98
  8
0
  6
VERDECKT
 62
     1
 10
-58.75
 20
17.7499999999993214
 30
-0.0000000000000039
 11
-58.0
 21
18.4999999999993214
 31
-0.0000000000000041
210
0.0
220
1.0
230
-0.0000000000000002
  0
LINE
  5
2A99
  8
0
  6
VERDECKT
 62
     1
 10
-58.75
 20
17.7499999999993214
 30
-0.0000000000000039
 11
-58.0
 21
16.9999999999993108
 31
-0.0000000000000038
210
0.0
220
1.0
230
-0.0000000000000002
  0
LINE
  5
2A9A
  8
0
  6
VERDECKT
 62
     1
 10
-63.25
 20
17.7499999999993214
 30
-0.0000000000000039
 11
-64.0
 21
16.9999999999993108
 31
-0.0000000000000038
210
0.0
220
1.0
230
-0.0000000000000002
  0
LINE
  5
2A9B
  8
0
  6
VERDECKT
 62
     1
 10
-63.25
 20
16.2499999999993214
 30
-0.0000000000000036
 11
-64.0
 21
16.9999999999993108
 31
-0.0000000000000038
210
0.0
220
1.0
230
-0.0000000000000002
  0
LINE
  5
2A9C
  8
0
  6
VERDECKT
 62
     1
 10
-58.75
 20
16.2499999999993214
 30
-0.0000000000000036
 11
-58.0
 21
16.9999999999993108
 31
-0.0000000000000038
210
0.0
220
1.0
230
-0.0000000000000002
  0
LINE
  5
2A9D
  8
0
  6
VERDECKT
 62
     1
 10
-58.75
 20
16.2499999999993214
 30
-0.0000000000000036
 11
-58.0
 21
15.4999999999993108
 31
-0.0000000000000034
210
0.0
220
1.0
230
-0.0000000000000002
  0
LINE
  5
2A9E
  8
0
  6
VERDECKT
 62
     1
 10
-63.25
 20
16.2499999999993214
 30
-0.0000000000000036
 11
-64.0
 21
15.4999999999993108
 31
-0.0000000000000034
210
0.0
220
1.0
230
-0.0000000000000002
  0
LINE
  5
2A9F
  8
0
  6
VERDECKT
 62
     1
 10
-63.25
 20
14.7499999999993108
 30
-0.0000000000000033
 11
-64.0
 21
15.4999999999993108
 31
-0.0000000000000034
210
0.0
220
1.0
230
-0.0000000000000002
  0
LINE
  5
2AA0
  8
0
  6
VERDECKT
 62
     1
 10
-58.75
 20
14.7499999999993108
 30
-0.0000000000000033
 11
-58.0
 21
15.4999999999993108
 31
-0.0000000000000034
210
0.0
220
1.0
230
-0.0000000000000002
  0
LINE
  5
2AA1
  8
0
  6
VERDECKT
 62
     1
 10
-58.75
 20
14.7499999999993108
 30
-0.0000000000000033
 11
-58.0
 21
13.9999999999993108
 31
-0.0000000000000031
210
0.0
220
1.0
230
-0.0000000000000002
  0
LINE
  5
2AA2
  8
0
  6
VERDECKT
 62
     1
 10
-63.25
 20
14.7499999999993108
 30
-0.0000000000000033
 11
-64.0
 21
13.9999999999993108
 31
-0.0000000000000031
210
0.0
220
1.0
230
-0.0000000000000002
  0
LINE
  5
2AA3
  8
0
  6
VERDECKT
 62
     1
 10
-63.25
 20
13.2499999999993108
 30
-0.0000000000000029
 11
-64.0
 21
13.9999999999993108
 31
-0.0000000000000031
210
0.0
220
1.0
230
-0.0000000000000002
  0
LINE
  5
2AA4
  8
0
  6
VERDECKT
 62
     1
 10
-58.75
 20
13.2499999999993108
 30
-0.0000000000000029
 11
-58.0
 21
13.9999999999993108
 31
-0.0000000000000031
210
0.0
220
1.0
230
-0.0000000000000002
  0
LINE
  5
2AA5
  8
0
  6
VERDECKT
 62
     1
 10
-58.75
 20
13.2499999999993108
 30
-0.0000000000000029
 11
-58.0
 21
12.4999999999993108
 31
-0.0000000000000028
210
0.0
220
1.0
230
-0.0000000000000002
  0
LINE
  5
2AA6
  8
0
  6
VERDECKT
 62
     1
 10
-63.25
 20
13.2499999999993108
 30
-0.0000000000000029
 11
-64.0
 21
12.4999999999993108
 31
-0.0000000000000028
210
0.0
220
1.0
230
-0.0000000000000002
  0
LINE
  5
2AA7
  8
0
  6
VERDECKT
 62
     1
 10
-63.25
 20
11.7499999999993108
 30
-0.0000000000000026
 11
-64.0
 21
12.4999999999993108
 31
-0.0000000000000028
210
0.0
220
1.0
230
-0.0000000000000002
  0
LINE
  5
2AA8
  8
0
  6
VERDECKT
 62
     1
 10
-58.75
 20
11.7499999999993108
 30
-0.0000000000000026
 11
-58.0
 21
12.4999999999993108
 31
-0.0000000000000028
210
0.0
220
1.0
230
-0.0000000000000002
  0
LINE
  5
2AA9
  8
0
  6
VERDECKT
 62
     1
 10
-58.75
 20
11.7499999999993108
 30
-0.0000000000000026
 11
-58.0
 21
10.9999999999993108
 31
-0.0000000000000024
210
0.0
220
1.0
230
-0.0000000000000002
  0
LINE
  5
2AAA
  8
0
  6
VERDECKT
 62
     1
 10
-63.25
 20
11.7499999999993108
 30
-0.0000000000000026
 11
-64.0
 21
10.9999999999993108
 31
-0.0000000000000024
210
0.0
220
1.0
230
-0.0000000000000002
  0
LINE
  5
2AAB
  8
0
  6
VERDECKT
 62
     1
 10
-63.25
 20
10.2499999999993108
 30
-0.0000000000000023
 11
-64.0
 21
10.9999999999993108
 31
-0.0000000000000024
210
0.0
220
1.0
230
-0.0000000000000002
  0
LINE
  5
2AAC
  8
0
  6
VERDECKT
 62
     1
 10
-58.75
 20
10.2499999999993108
 30
-0.0000000000000023
 11
-58.0
 21
10.9999999999993108
 31
-0.0000000000000024
210
0.0
220
1.0
230
-0.0000000000000002
  0
LINE
  5
2AAD
  8
0
  6
VERDECKT
 62
     1
 10
-58.75
 20
10.2499999999993108
 30
-0.0000000000000023
 11
-58.0
 21
9.4999999999993143
 31
-0.0000000000000021
210
0.0
220
1.0
230
-0.0000000000000002
  0
LINE
  5
2AAE
  8
0
  6
VERDECKT
 62
     1
 10
-63.25
 20
10.2499999999993108
 30
-0.0000000000000023
 11
-64.0
 21
9.4999999999993143
 31
-0.0000000000000021
210
0.0
220
1.0
230
-0.0000000000000002
  0
LINE
  5
2AAF
  8
0
  6
VERDECKT
 62
     1
 10
-63.25
 20
8.7499999999993143
 30
-0.0000000000000019
 11
-64.0
 21
9.4999999999993143
 31
-0.0000000000000021
210
0.0
220
1.0
230
-0.0000000000000002
  0
LINE
  5
2AB0
  8
0
  6
VERDECKT
 62
     1
 10
-58.75
 20
8.7499999999993143
 30
-0.0000000000000019
 11
-58.0
 21
9.4999999999993143
 31
-0.0000000000000021
210
0.0
220
1.0
230
-0.0000000000000002
  0
LINE
  5
2AB1
  8
0
  6
VERDECKT
 62
     1
 10
-58.75
 20
8.7499999999993143
 30
-0.0000000000000019
 11
-58.0
 21
7.9999999999993143
 31
-0.0000000000000018
210
0.0
220
1.0
230
-0.0000000000000002
  0
LINE
  5
2AB2
  8
0
  6
VERDECKT
 62
     1
 10
-63.25
 20
8.7499999999993143
 30
-0.0000000000000019
 11
-64.0
 21
7.9999999999993143
 31
-0.0000000000000018
210
0.0
220
1.0
230
-0.0000000000000002
  0
LINE
  5
2AB3
  8
0
  6
VERDECKT
 62
     1
 10
-63.25
 20
7.2499999999993143
 30
-0.0000000000000016
 11
-64.0
 21
7.9999999999993143
 31
-0.0000000000000018
210
0.0
220
1.0
230
-0.0000000000000002
  0
LINE
  5
2AB4
  8
0
  6
VERDECKT
 62
     1
 10
-58.75
 20
7.2499999999993143
 30
-0.0000000000000016
 11
-58.0
 21
7.9999999999993143
 31
-0.0000000000000018
210
0.0
220
1.0
230
-0.0000000000000002
  0
LINE
  5
2AB5
  8
0
  6
VERDECKT
 62
     1
 10
-58.75
 20
7.2499999999993143
 30
-0.0000000000000016
 11
-58.0
 21
6.4999999999993134
 31
-0.0000000000000014
210
0.0
220
1.0
230
-0.0000000000000002
  0
LINE
  5
2AB6
  8
0
  6
VERDECKT
 62
     1
 10
-63.25
 20
7.2499999999993143
 30
-0.0000000000000016
 11
-64.0
 21
6.4999999999993134
 31
-0.0000000000000014
210
0.0
220
1.0
230
-0.0000000000000002
  0
LINE
  5
2AB7
  8
0
  6
VERDECKT
 62
     1
 10
-63.25
 20
5.7499999999993134
 30
-0.0000000000000013
 11
-64.0
 21
6.4999999999993134
 31
-0.0000000000000014
210
0.0
220
1.0
230
-0.0000000000000002
  0
LINE
  5
2AB8
  8
0
  6
VERDECKT
 62
     1
 10
-58.75
 20
5.7499999999993134
 30
-0.0000000000000013
 11
-58.0
 21
6.4999999999993134
 31
-0.0000000000000014
210
0.0
220
1.0
230
-0.0000000000000002
  0
LINE
  5
2AB9
  8
0
  6
VERDECKT
 62
     1
 10
-58.75
 20
5.7499999999993134
 30
-0.0000000000000013
 11
-58.0
 21
4.9999999999993134
 31
-0.0000000000000011
210
0.0
220
1.0
230
-0.0000000000000002
  0
LINE
  5
2ABA
  8
0
  6
VERDECKT
 62
     1
 10
-63.25
 20
5.7499999999993134
 30
-0.0000000000000013
 11
-64.0
 21
4.9999999999993134
 31
-0.0000000000000011
210
0.0
220
1.0
230
-0.0000000000000002
  0
LINE
  5
2ABB
  8
0
  6
VERDECKT
 62
     1
 10
-63.25
 20
4.2499999999993134
 30
-0.0000000000000009
 11
-64.0
 21
4.9999999999993134
 31
-0.0000000000000011
210
0.0
220
1.0
230
-0.0000000000000002
  0
LINE
  5
2ABC
  8
0
  6
VERDECKT
 62
     1
 10
-58.75
 20
4.2499999999993134
 30
-0.0000000000000009
 11
-58.0
 21
4.9999999999993134
 31
-0.0000000000000011
210
0.0
220
1.0
230
-0.0000000000000002
  0
LINE
  5
2ABD
  8
0
  6
VERDECKT
 62
     1
 10
-58.75
 20
4.2499999999993134
 30
-0.0000000000000009
 11
-58.0
 21
3.4999999999993121
 31
-0.0000000000000008
210
0.0
220
1.0
230
-0.0000000000000002
  0
LINE
  5
2ABE
  8
0
  6
VERDECKT
 62
     1
 10
-63.25
 20
4.2499999999993134
 30
-0.0000000000000009
 11
-64.0
 21
3.4999999999993121
 31
-0.0000000000000008
210
0.0
220
1.0
230
-0.0000000000000002
  0
LINE
  5
2ABF
  8
0
  6
VERDECKT
 62
     1
 10
-63.25
 20
2.7499999999993121
 30
-0.0000000000000006
 11
-64.0
 21
3.4999999999993121
 31
-0.0000000000000008
210
0.0
220
1.0
230
-0.0000000000000002
  0
LINE
  5
2AC0
  8
0
  6
VERDECKT
 62
     1
 10
-58.75
 20
2.7499999999993121
 30
-0.0000000000000006
 11
-58.0
 21
3.4999999999993121
 31
-0.0000000000000008
210
0.0
220
1.0
230
-0.0000000000000002
  0
LINE
  5
2AC1
  8
0
  6
VERDECKT
 62
     1
 10
-58.75
 20
2.7499999999993121
 30
-0.0000000000000006
 11
-58.0
 21
1.9999999999993121
 31
-0.0000000000000004
210
0.0
220
1.0
230
-0.0000000000000002
  0
LINE
  5
2AC2
  8
0
  6
VERDECKT
 62
     1
 10
-63.25
 20
2.7499999999993121
 30
-0.0000000000000006
 11
-64.0
 21
1.9999999999993121
 31
-0.0000000000000004
210
0.0
220
1.0
230
-0.0000000000000002
  0
LINE
  5
2AC3
  8
0
  6
VERDECKT
 62
     1
 10
-63.25
 20
1.2499999999993121
 30
-0.0000000000000003
 11
-64.0
 21
1.9999999999993121
 31
-0.0000000000000004
210
0.0
220
1.0
230
-0.0000000000000002
  0
LINE
  5
2AC4
  8
0
  6
VERDECKT
 62
     1
 10
-58.75
 20
1.2499999999993121
 30
-0.0000000000000003
 11
-58.0
 21
1.9999999999993121
 31
-0.0000000000000004
210
0.0
220
1.0
230
-0.0000000000000002
  0
LINE
  5
2AC5
  8
0
  6
VERDECKT
 62
     1
 10
-58.75
 20
1.2499999999993121
 30
-0.0000000000000003
 11
-58.0
 21
0.4999999999993126
 31
-0.0000000000000001
210
0.0
220
1.0
230
-0.0000000000000002
  0
LINE
  5
2AC6
  8
0
  6
VERDECKT
 62
     1
 10
-63.25
 20
1.2499999999993121
 30
-0.0000000000000003
 11
-64.0
 21
0.4999999999993126
 31
-0.0000000000000001
210
0.0
220
1.0
230
-0.0000000000000002
  0
LINE
  5
2AC7
  8
0
  6
VERDECKT
 62
     1
 10
-63.5
 20
-0.0000000000006164
 30
0.0
 11
-64.0
 21
0.4999999999992984
 31
-0.0000000000000001
210
0.0
220
1.0
230
-0.0000000000000002
  0
LINE
  5
2AC8
  8
0
  6
VERDECKT
 62
     1
 10
-58.4999999999998792
 20
-0.0000000000005631
 30
0.0
 11
-58.0
 21
0.4999999999992984
 31
-0.0000000000000001
210
0.0
220
1.0
230
-0.0000000000000002
  0
LINE
  5
2AC9
  8
0
  6
VERDECKT
 62
     1
 10
-57.5000000000001066
 20
16.9999999999993108
 30
-0.0000000000000038
 11
-57.5000000000001066
 21
13.9999999999993001
 31
-0.0000000000000031
210
0.0
220
1.0
230
-0.0000000000000002
  0
LINE
  5
2ACA
  8
0
  6
VERDECKT
 62
     1
 10
-64.4999999999998863
 20
16.9999999999993214
 30
-0.0000000000000038
 11
-64.4999999999998863
 21
13.9999999999993197
 31
-0.0000000000000031
210
0.0
220
1.0
230
-0.0000000000000002
  0
LINE
  5
2ACB
  8
0
  6
VERDECKT
 62
     1
 10
-57.0000000000001066
 20
13.9999999999993001
 30
-0.0000000000000031
 11
-57.0000000000001066
 21
5.9999999999991882
 31
-0.0000000000000013
210
0.0
220
1.0
230
-0.0000000000000002
  0
LINE
  5
2ACC
  8
0
  6
VERDECKT
 62
     1
 10
-64.9999999999998863
 20
13.9999999999993303
 30
-0.0000000000000031
 11
-64.9999999999998863
 21
5.9999999999992113
 31
-0.0000000000000013
210
0.0
220
1.0
230
-0.0000000000000002
  0
LINE
  5
2ACD
  8
0
  6
VERDECKT
 62
     1
 10
-57.5000000000001066
 20
5.9999999999993028
 30
-0.0000000000000013
 11
-57.5000000000001066
 21
2.9999999999993019
 31
-0.0000000000000007
210
0.0
220
1.0
230
-0.0000000000000002
  0
LINE
  5
2ACE
  8
0
  6
VERDECKT
 62
     1
 10
-64.5000000000001137
 20
5.9999999999993232
 30
-0.0000000000000013
 11
-64.5000000000001137
 21
2.9999999999993219
 31
-0.0000000000000007
210
0.0
220
1.0
230
-0.0000000000000002
  0
LINE
  5
2ACF
  8
0
  6
VERDECKT
 62
     1
 10
-57.0000000000001066
 20
2.9999999999994138
 30
-0.0000000000000007
 11
-57.0000000000001066
 21
-0.0000000000005844
 31
0.0
210
0.0
220
1.0
230
-0.0000000000000002
  0
LINE
  5
2AD0
  8
0
  6
VERDECKT
 62
     1
 10
-65.0000000000001137
 20
2.9999999999994369
 30
-0.0000000000000007
 11
-65.0000000000001137
 21
-0.0000000000005631
 31
0.0
210
0.0
220
1.0
230
-0.0000000000000002
  0
LINE
  5
2AD1
  8
0
  6
VERDECKT
 62
     1
 10
-57.0
 20
19.9999999999993001
 30
-0.0000000000000044
 11
-57.0
 21
16.9999999999993001
 31
-0.0000000000000038
210
0.0
220
1.0
230
-0.0000000000000002
  0
LINE
  5
2AD2
  8
0
  6
VERDECKT
 62
     1
 10
-65.0
 20
19.9999999999993214
 30
-0.0000000000000044
 11
-65.0
 21
16.9999999999993285
 31
-0.0000000000000038
210
0.0
220
1.0
230
-0.0000000000000002
  0
LINE
  5
2AD3
  8
0
  6
VERDECKT
 62
     1
 10
74.2724133595218063
 20
1.99999999999971
 30
-0.0000000000000004
 11
89.2006165897971641
 21
1.99999999999971
 31
-0.0000000000000004
210
0.0
220
1.0
230
-0.0000000000000002
  0
LINE
  5
2AD4
  8
0
  6
VERDECKT
 62
     1
 10
89.2006165897970504
 20
1.99999999999971
 30
-0.0000000000000004
 11
90.272413359521579
 21
1.99999999999971
 31
-0.0000000000000004
210
0.0
220
1.0
230
-0.0000000000000002
  0
LINE
  5
2AD5
  8
0
  6
VERDECKT
 62
     1
 10
-90.2724133595213516
 20
1.99999999999971
 30
-0.0000000000000004
 11
-89.2006165897969368
 21
1.99999999999971
 31
-0.0000000000000004
210
0.0
220
1.0
230
-0.0000000000000002
  0
LINE
  5
2AD6
  8
0
  6
VERDECKT
 62
     1
 10
-89.2006165897970504
 20
1.99999999999971
 30
-0.0000000000000004
 11
-74.2724133595216927
 21
1.99999999999971
 31
-0.0000000000000004
210
0.0
220
1.0
230
-0.0000000000000002
  0
LINE
  5
2AD7
  8
0
  6
VERDECKT
 62
     1
 10
-7.9999999999998863
 20
1.9999999999998239
 30
-0.0000000000000004
 11
0.0
 21
1.999999999999825
 31
-0.0000000000000004
210
0.0
220
1.0
230
-0.0000000000000002
  0
LINE
  5
2AD8
  8
0
  6
VERDECKT
 62
     1
 10
0.0
 20
1.999999999999825
 30
-0.0000000000000004
 11
8.0
 21
1.9999999999998239
 31
-0.0000000000000004
210
0.0
220
1.0
230
-0.0000000000000002
  0
LINE
  5
2AD9
  8
0
  6
VERDECKT
 62
     1
 10
-65.0000000000001137
 20
16.9999999999993712
 30
-0.0000000000000038
 11
-59.0
 21
16.9999999999993712
 31
-0.0000000000000038
210
0.0
220
1.0
230
-0.0000000000000002
  0
LINE
  5
2ADA
  8
0
  6
VERDECKT
 62
     1
 10
-58.9999999999998792
 20
16.9999999999993712
 30
-0.0000000000000038
 11
-56.9999999999997726
 21
16.9999999999993712
 31
-0.0000000000000038
210
0.0
220
1.0
230
-0.0000000000000002
  0
LINE
  5
2ADB
  8
0
  6
VERDECKT
 62
     1
 10
-65.0000000000001137
 20
13.9999999999993694
 30
-0.0000000000000031
 11
-59.0
 21
13.9999999999993694
 31
-0.0000000000000031
210
0.0
220
1.0
230
-0.0000000000000002
  0
LINE
  5
2ADC
  8
0
  6
VERDECKT
 62
     1
 10
-58.9999999999998792
 20
13.9999999999993694
 30
-0.0000000000000031
 11
-56.9999999999997726
 21
13.9999999999993694
 31
-0.0000000000000031
210
0.0
220
1.0
230
-0.0000000000000002
  0
LINE
  5
2ADD
  8
0
  6
VERDECKT
 62
     1
 10
-65.0
 20
5.9999999999992557
 30
-0.0000000000000013
 11
-59.0
 21
5.9999999999992557
 31
-0.0000000000000013
210
0.0
220
1.0
230
-0.0000000000000002
  0
LINE
  5
2ADE
  8
0
  6
VERDECKT
 62
     1
 10
-59.0
 20
5.9999999999992557
 30
-0.0000000000000013
 11
-57.0
 21
5.9999999999992557
 31
-0.0000000000000013
210
0.0
220
1.0
230
-0.0000000000000002
  0
LINE
  5
2ADF
  8
0
  6
VERDECKT
 62
     1
 10
-65.0
 20
2.9999999999994831
 30
-0.0000000000000007
 11
-59.0
 21
2.9999999999994831
 31
-0.0000000000000007
210
0.0
220
1.0
230
-0.0000000000000002
  0
LINE
  5
2AE0
  8
0
  6
VERDECKT
 62
     1
 10
-59.0
 20
2.9999999999994831
 30
-0.0000000000000007
 11
-57.0000000000001066
 21
2.9999999999994831
 31
-0.0000000000000007
210
0.0
220
1.0
230
-0.0000000000000002
  0
LINE
  5
2AE1
  8
0
  6
VERDECKT
 62
     1
 10
117.9999999999999005
 20
16.9999999999993712
 30
-0.0000000000000038
 11
124.0
 21
16.9999999999993712
 31
-0.0000000000000038
210
0.0
220
1.0
230
-0.0000000000000002
  0
LINE
  5
2AE2
  8
0
  6
VERDECKT
 62
     1
 10
124.0000000000000995
 20
16.9999999999993712
 30
-0.0000000000000038
 11
126.000000000000199
 21
16.9999999999993712
 31
-0.0000000000000038
210
0.0
220
1.0
230
-0.0000000000000002
  0
LINE
  5
2AE3
  8
0
  6
VERDECKT
 62
     1
 10
117.9999999999999005
 20
13.9999999999993694
 30
-0.0000000000000031
 11
124.0
 21
13.9999999999993694
 31
-0.0000000000000031
210
0.0
220
1.0
230
-0.0000000000000002
  0
LINE
  5
2AE4
  8
0
  6
VERDECKT
 62
     1
 10
124.0
 20
13.9999999999993694
 30
-0.0000000000000031
 11
126.0000000000000995
 21
13.9999999999993694
 31
-0.0000000000000031
210
0.0
220
1.0
230
-0.0000000000000002
  0
LINE
  5
2AE5
  8
0
  6
VERDECKT
 62
     1
 10
118.0000000000000995
 20
2.9999999999994831
 30
-0.0000000000000007
 11
124.0
 21
2.9999999999994831
 31
-0.0000000000000007
210
0.0
220
1.0
230
-0.0000000000000002
  0
LINE
  5
2AE6
  8
0
  6
VERDECKT
 62
     1
 10
123.9999999999999005
 20
2.9999999999994831
 30
-0.0000000000000007
 11
125.999999999999801
 21
2.9999999999994831
 31
-0.0000000000000007
210
0.0
220
1.0
230
-0.0000000000000002
  0
LINE
  5
2AE7
  8
0
  6
VERDECKT
 62
     1
 10
-52.8484725225714485
 20
5.9999999999997096
 30
-0.0000000000000013
 11
-57.0
 21
5.9999999999997096
 31
-0.0000000000000013
210
0.0
220
1.0
230
-0.0000000000000002
  0
LINE
  5
2AE8
  8
0
  6
VERDECKT
 62
     1
 10
-65.0
 20
5.9999999999996527
 30
-0.0000000000000013
 11
-73.5859092941688004
 21
5.9999999999997264
 31
-0.0000000000000013
210
0.0
220
1.0
230
-0.0000000000000002
  0
ARC
  5
2AE9
  8
0
  6
VERDECKT
 62
     1
 10
-73.772413359521579
 20
5.4999999999991074
 30
0.0
 40
0.5000000000002629
210
0.0
220
-0.0000000000000002
230
-1.0
 50
90.0
 51
179.9999999999697877
  0
ARC
  5
2AEA
  8
0
  6
VERDECKT
 62
     1
 10
-90.7724133595218063
 20
5.4999999999991074
 30
0.0
 40
0.5000000000002274
210
0.0
220
-0.0000000000000002
230
-1.0
 50
0.0000000000301262
 51
90.0
  0
LINE
  5
2AEB
  8
0
  6
VERDECKT
 62
     1
 10
90.272413359521579
 20
5.4999999999993703
 30
-0.0000000000000012
 11
90.272413359521579
 21
1.99999999999971
 31
-0.0000000000000004
210
0.0
220
1.0
230
-0.0000000000000002
  0
LINE
  5
2AEC
  8
0
  6
VERDECKT
 62
     1
 10
74.2724133595218063
 20
5.4999999999993703
 30
-0.0000000000000012
 11
74.2724133595218063
 21
1.99999999999971
 31
-0.0000000000000004
210
0.0
220
1.0
230
-0.0000000000000002
  0
LINE
  5
2AED
  8
0
  6
VERDECKT
 62
     1
 10
90.272413359521579
 20
1.99999999999971
 30
-0.0000000000000004
 11
92.2724133595207689
 21
0.000000000000524
 31
0.0
210
0.0
220
1.0
230
-0.0000000000000002
  0
LINE
  5
2AEE
  8
0
  6
VERDECKT
 62
     1
 10
74.2724133595218063
 20
1.99999999999971
 30
-0.0000000000000004
 11
72.2724133595226021
 21
0.0000000000004885
 31
0.0
210
0.0
220
1.0
230
-0.0000000000000002
  0
ARC
  5
2AEF
  8
0
  6
VERDECKT
 62
     1
 10
90.7724133595216927
 20
5.4999999999991074
 30
0.0
 40
0.5000000000002629
210
0.0
220
-0.0000000000000002
230
-1.0
 50
90.0
 51
179.9999999999697877
  0
ARC
  5
2AF0
  8
0
  6
VERDECKT
 62
     1
 10
73.7724133595214653
 20
5.4999999999991074
 30
0.0
 40
0.5000000000002274
210
0.0
220
-0.0000000000000002
230
-1.0
 50
0.0000000000301262
 51
90.0
  0
LINE
  5
2AF1
  8
0
  6
VERDECKT
 62
     1
 10
-74.2724133595216927
 20
5.4999999999993703
 30
-0.0000000000000012
 11
-74.2724133595216927
 21
1.99999999999971
 31
-0.0000000000000004
210
0.0
220
1.0
230
-0.0000000000000002
  0
LINE
  5
2AF2
  8
0
  6
VERDECKT
 62
     1
 10
-90.2724133595214653
 20
5.4999999999993703
 30
-0.0000000000000012
 11
-90.2724133595214653
 21
1.99999999999971
 31
-0.0000000000000004
210
0.0
220
1.0
230
-0.0000000000000002
  0
LINE
  5
2AF3
  8
0
  6
VERDECKT
 62
     1
 10
-74.2724133595216927
 20
1.99999999999971
 30
-0.0000000000000004
 11
-72.2724133595224885
 21
0.000000000000524
 31
0.0
210
0.0
220
1.0
230
-0.0000000000000002
  0
LINE
  5
2AF4
  8
0
  6
VERDECKT
 62
     1
 10
-90.2724133595214653
 20
1.99999999999971
 30
-0.0000000000000004
 11
-92.2724133595206695
 21
0.0000000000004885
 31
0.0
210
0.0
220
1.0
230
-0.0000000000000002
  0
ARC
  5
2AF5
  8
0
  6
VERDECKT
 62
     1
 10
8.5000000000001137
 20
5.4999999999992202
 30
0.0
 40
0.5000000000002629
210
0.0
220
-0.0000000000000002
230
-1.0
 50
90.0
 51
179.9999999999697877
  0
ARC
  5
2AF6
  8
0
  6
VERDECKT
 62
     1
 10
-8.5000000000001137
 20
5.4999999999992211
 30
0.0
 40
0.5000000000002274
210
0.0
220
-0.0000000000000002
230
-1.0
 50
0.0000000000301262
 51
90.0
  0
LINE
  5
2AF7
  8
0
  6
VERDECKT
 62
     1
 10
7.9999999999998863
 20
5.499999999999484
 30
-0.0000000000000012
 11
7.9999999999998863
 21
1.999999999999825
 31
-0.0000000000000004
210
0.0
220
1.0
230
-0.0000000000000002
  0
LINE
  5
2AF8
  8
0
  6
VERDECKT
 62
     1
 10
-7.9999999999998863
 20
5.4999999999994831
 30
-0.0000000000000012
 11
-7.9999999999998863
 21
1.999999999999823
 31
-0.0000000000000004
210
0.0
220
1.0
230
-0.0000000000000002
  0
LINE
  5
2AF9
  8
0
  6
VERDECKT
 62
     1
 10
7.9999999999998863
 20
1.9999999999998239
 30
-0.0000000000000004
 11
9.9999999999992042
 21
0.000000000000524
 31
0.0
210
0.0
220
1.0
230
-0.0000000000000002
  0
LINE
  5
2AFA
  8
0
  6
VERDECKT
 62
     1
 10
-7.9999999999998863
 20
1.9999999999998239
 30
-0.0000000000000004
 11
-9.9999999999992042
 21
0.0000000000004885
 31
0.0
210
0.0
220
1.0
230
-0.0000000000000002
  0
LINE
  5
2AFB
  8
0
  6
VERDECKT
 62
     1
 10
-56.9999999999998792
 20
19.9999999999993605
 30
-0.0000000000000044
 11
-56.9999999999998792
 21
16.9999999999993712
 31
-0.0000000000000038
210
0.0
220
1.0
230
-0.0000000000000002
  0
LINE
  5
2AFC
  8
0
  6
VERDECKT
 62
     1
 10
-65.0000000000001137
 20
19.9999999999993783
 30
-0.0000000000000044
 11
-65.0000000000001137
 21
16.9999999999993783
 31
-0.0000000000000038
210
0.0
220
1.0
230
-0.0000000000000002
  0
LINE
  5
2AFD
  8
0
  6
VERDECKT
 62
     1
 10
-57.5000000000001066
 20
16.9999999999993712
 30
-0.0000000000000038
 11
-57.5000000000001066
 21
13.9999999999993605
 31
-0.0000000000000031
210
0.0
220
1.0
230
-0.0000000000000002
  0
LINE
  5
2AFE
  8
0
  6
VERDECKT
 62
     1
 10
-64.4999999999998863
 20
16.9999999999993783
 30
-0.0000000000000038
 11
-64.4999999999998863
 21
13.9999999999993801
 31
-0.0000000000000031
210
0.0
220
1.0
230
-0.0000000000000002
  0
LINE
  5
2AFF
  8
0
  6
VERDECKT
 62
     1
 10
-57.0
 20
13.9999999999993605
 30
-0.0000000000000031
 11
-57.0
 21
5.9999999999992486
 31
-0.0000000000000013
210
0.0
220
1.0
230
-0.0000000000000002
  0
LINE
  5
2B00
  8
0
  6
VERDECKT
 62
     1
 10
-65.0
 20
13.9999999999993801
 30
-0.0000000000000031
 11
-65.0
 21
5.9999999999992628
 31
-0.0000000000000013
210
0.0
220
1.0
230
-0.0000000000000002
  0
LINE
  5
2B01
  8
0
  6
VERDECKT
 62
     1
 10
-57.5
 20
5.9999999999993641
 30
-0.0000000000000013
 11
-57.5
 21
2.999999999999476
 31
-0.0000000000000007
210
0.0
220
1.0
230
-0.0000000000000002
  0
LINE
  5
2B02
  8
0
  6
VERDECKT
 62
     1
 10
-64.5
 20
5.9999999999993756
 30
-0.0000000000000013
 11
-64.5
 21
2.9999999999994889
 31
-0.0000000000000007
210
0.0
220
1.0
230
-0.0000000000000002
  0
LINE
  5
2B03
  8
0
  6
VERDECKT
 62
     1
 10
-57.0
 20
2.9999999999994751
 30
-0.0000000000000007
 11
-57.0
 21
0.0000000000005205
 31
0.0
210
0.0
220
1.0
230
-0.0000000000000002
  0
LINE
  5
2B04
  8
0
  6
VERDECKT
 62
     1
 10
-65.0
 20
2.9999999999994902
 30
-0.0000000000000007
 11
-65.0
 21
0.0000000000004921
 31
0.0
210
0.0
220
1.0
230
-0.0000000000000002
  0
LINE
  5
2B05
  8
0
  6
VERDECKT
 62
     1
 10
126.0000000000000995
 20
19.9999999999995097
 30
-0.0000000000000044
 11
126.0000000000000995
 21
16.9999999999993712
 31
-0.0000000000000038
210
0.0
220
1.0
230
-0.0000000000000002
  0
LINE
  5
2B06
  8
0
  6
VERDECKT
 62
     1
 10
117.9999999999999005
 20
19.99999999999946
 30
-0.0000000000000044
 11
117.9999999999999005
 21
16.9999999999993783
 31
-0.0000000000000038
210
0.0
220
1.0
230
-0.0000000000000002
  0
LINE
  5
2B07
  8
0
  6
VERDECKT
 62
     1
 10
125.4999999999999005
 20
16.9999999999993712
 30
-0.0000000000000038
 11
125.4999999999999005
 21
13.9999999999993605
 31
-0.0000000000000031
210
0.0
220
1.0
230
-0.0000000000000002
  0
LINE
  5
2B08
  8
0
  6
VERDECKT
 62
     1
 10
118.5000000000000995
 20
16.9999999999993783
 30
-0.0000000000000038
 11
118.5000000000000995
 21
13.9999999999993801
 31
-0.0000000000000031
210
0.0
220
1.0
230
-0.0000000000000002
  0
LINE
  5
2B09
  8
0
  6
VERDECKT
 62
     1
 10
126.0
 20
13.9999999999993605
 30
-0.0000000000000031
 11
126.0
 21
5.9999999999992486
 31
-0.0000000000000013
210
0.0
220
1.0
230
-0.0000000000000002
  0
LINE
  5
2B0A
  8
0
  6
VERDECKT
 62
     1
 10
118.0
 20
13.9999999999993801
 30
-0.0000000000000031
 11
118.0
 21
5.9999999999992628
 31
-0.0000000000000013
210
0.0
220
1.0
230
-0.0000000000000002
  0
LINE
  5
2B0B
  8
0
  6
VERDECKT
 62
     1
 10
125.5
 20
5.9999999999993641
 30
-0.0000000000000013
 11
125.5
 21
2.999999999999476
 31
-0.0000000000000007
210
0.0
220
1.0
230
-0.0000000000000002
  0
LINE
  5
2B0C
  8
0
  6
VERDECKT
 62
     1
 10
118.5
 20
5.9999999999993756
 30
-0.0000000000000013
 11
118.5
 21
2.9999999999994889
 31
-0.0000000000000007
210
0.0
220
1.0
230
-0.0000000000000002
  0
LINE
  5
2B0D
  8
0
  6
VERDECKT
 62
     1
 10
126.0
 20
2.9999999999994751
 30
-0.0000000000000007
 11
126.0
 21
0.0000000000005205
 31
0.0
210
0.0
220
1.0
230
-0.0000000000000002
  0
LINE
  5
2B0E
  8
0
  6
VERDECKT
 62
     1
 10
118.0
 20
2.9999999999994902
 30
-0.0000000000000007
 11
118.0
 21
0.0000000000004921
 31
0.0
210
0.0
220
1.0
230
-0.0000000000000002
  0
POLYLINE
  8
0
  5
2D2E
  62
1
  66
     1
 10
0.000000
 20
0.000000
 30
0.000000
  70
     8
  0
VERTEX
  8
0
  5
2D2F
 10
-73.5859
 20
6.00000
 30
-1.30000e-15
  70
    32
  0
VERTEX
  8
0
  5
2D30
 10
-73.5721
 20
6.00002
 30
-1.30000e-15
  70
    32
  0
VERTEX
  8
0
  5
2D31
 10
-73.5583
 20
6.00008
 30
-1.30000e-15
  70
    32
  0
VERTEX
  8
0
  5
2D32
 10
-73.5444
 20
6.00018
 30
-1.30000e-15
  70
    32
  0
VERTEX
  8
0
  5
2D33
 10
-73.5304
 20
6.00033
 30
-1.30000e-15
  70
    32
  0
VERTEX
  8
0
  5
2D34
 10
-73.5163
 20
6.00051
 30
-1.30001e-15
  70
    32
  0
VERTEX
  8
0
  5
2D35
 10
-73.5022
 20
6.00074
 30
-1.30002e-15
  70
    32
  0
VERTEX
  8
0
  5
2D36
 10
-73.4881
 20
6.00101
 30
-1.30002e-15
  70
    32
  0
VERTEX
  8
0
  5
2D37
 10
-73.4739
 20
6.00133
 30
-1.30004e-15
  70
    32
  0
VERTEX
  8
0
  5
2D38
 10
-73.4596
 20
6.00169
 30
-1.30005e-15
  70
    32
  0
VERTEX
  8
0
  5
2D39
 10
-73.4452
 20
6.00209
 30
-1.30007e-15
  70
    32
  0
VERTEX
  8
0
  5
2D3A
 10
-73.4308
 20
6.00254
 30
-1.30010e-15
  70
    32
  0
VERTEX
  8
0
  5
2D3B
 10
-73.4164
 20
6.00304
 30
-1.30013e-15
  70
    32
  0
VERTEX
  8
0
  5
2D3C
 10
-73.4019
 20
6.00358
 30
-1.30016e-15
  70
    32
  0
VERTEX
  8
0
  5
2D3D
 10
-73.3873
 20
6.00417
 30
-1.30020e-15
  70
    32
  0
VERTEX
  8
0
  5
2D3E
 10
-73.3727
 20
6.00481
 30
-1.30024e-15
  70
    32
  0
VERTEX
  8
0
  5
2D3F
 10
-73.3580
 20
6.00549
 30
-1.30030e-15
  70
    32
  0
VERTEX
  8
0
  5
2D40
 10
-73.3432
 20
6.00623
 30
-1.30036e-15
  70
    32
  0
VERTEX
  8
0
  5
2D41
 10
-73.3284
 20
6.00701
 30
-1.30042e-15
  70
    32
  0
VERTEX
  8
0
  5
2D42
 10
-73.3136
 20
6.00784
 30
-1.30050e-15
  70
    32
  0
VERTEX
  8
0
  5
2D43
 10
-73.2986
 20
6.00872
 30
-1.30058e-15
  70
    32
  0
VERTEX
  8
0
  5
2D44
 10
-73.2837
 20
6.00965
 30
-1.30067e-15
  70
    32
  0
VERTEX
  8
0
  5
2D45
 10
-73.2686
 20
6.01064
 30
-1.30077e-15
  70
    32
  0
VERTEX
  8
0
  5
2D46
 10
-73.2536
 20
6.01167
 30
-1.30088e-15
  70
    32
  0
VERTEX
  8
0
  5
2D47
 10
-73.2384
 20
6.01276
 30
-1.30100e-15
  70
    32
  0
VERTEX
  8
0
  5
2D48
 10
-73.2232
 20
6.01390
 30
-1.30113e-15
  70
    32
  0
VERTEX
  8
0
  5
2D49
 10
-73.2080
 20
6.01509
 30
-1.30127e-15
  70
    32
  0
VERTEX
  8
0
  5
2D4A
 10
-73.1927
 20
6.01634
 30
-1.30143e-15
  70
    32
  0
VERTEX
  8
0
  5
2D4B
 10
-73.1773
 20
6.01764
 30
-1.30159e-15
  70
    32
  0
VERTEX
  8
0
  5
2D4C
 10
-73.1619
 20
6.01900
 30
-1.30177e-15
  70
    32
  0
VERTEX
  8
0
  5
2D4D
 10
-73.1465
 20
6.02041
 30
-1.30196e-15
  70
    32
  0
VERTEX
  8
0
  5
2D4E
 10
-73.1310
 20
6.02187
 30
-1.30216e-15
  70
    32
  0
VERTEX
  8
0
  5
2D4F
 10
-73.1154
 20
6.02340
 30
-1.30237e-15
  70
    32
  0
VERTEX
  8
0
  5
2D50
 10
-73.0998
 20
6.02498
 30
-1.30260e-15
  70
    32
  0
VERTEX
  8
0
  5
2D51
 10
-73.0841
 20
6.02661
 30
-1.30285e-15
  70
    32
  0
VERTEX
  8
0
  5
2D52
 10
-73.0684
 20
6.02831
 30
-1.30310e-15
  70
    32
  0
VERTEX
  8
0
  5
2D53
 10
-73.0526
 20
6.03006
 30
-1.30338e-15
  70
    32
  0
VERTEX
  8
0
  5
2D54
 10
-73.0368
 20
6.03187
 30
-1.30367e-15
  70
    32
  0
VERTEX
  8
0
  5
2D55
 10
-73.0210
 20
6.03375
 30
-1.30397e-15
  70
    32
  0
VERTEX
  8
0
  5
2D56
 10
-73.0050
 20
6.03568
 30
-1.30430e-15
  70
    32
  0
VERTEX
  8
0
  5
2D57
 10
-72.9891
 20
6.03767
 30
-1.30463e-15
  70
    32
  0
VERTEX
  8
0
  5
2D58
 10
-72.9731
 20
6.03972
 30
-1.30499e-15
  70
    32
  0
VERTEX
  8
0
  5
2D59
 10
-72.9570
 20
6.04184
 30
-1.30536e-15
  70
    32
  0
VERTEX
  8
0
  5
2D5A
 10
-72.9409
 20
6.04402
 30
-1.30576e-15
  70
    32
  0
VERTEX
  8
0
  5
2D5B
 10
-72.9247
 20
6.04626
 30
-1.30617e-15
  70
    32
  0
VERTEX
  8
0
  5
2D5C
 10
-72.9085
 20
6.04856
 30
-1.30660e-15
  70
    32
  0
VERTEX
  8
0
  5
2D5D
 10
-72.8923
 20
6.05092
 30
-1.30705e-15
  70
    32
  0
VERTEX
  8
0
  5
2D5E
 10
-72.8760
 20
6.05335
 30
-1.30752e-15
  70
    32
  0
VERTEX
  8
0
  5
2D5F
 10
-72.8596
 20
6.05585
 30
-1.30801e-15
  70
    32
  0
VERTEX
  8
0
  5
2D60
 10
-72.8432
 20
6.05841
 30
-1.30852e-15
  70
    32
  0
VERTEX
  8
0
  5
2D61
 10
-72.8268
 20
6.06104
 30
-1.30905e-15
  70
    32
  0
VERTEX
  8
0
  5
2D62
 10
-72.8103
 20
6.06373
 30
-1.30961e-15
  70
    32
  0
VERTEX
  8
0
  5
2D63
 10
-72.7938
 20
6.06649
 30
-1.31018e-15
  70
    32
  0
VERTEX
  8
0
  5
2D64
 10
-72.7772
 20
6.06931
 30
-1.31078e-15
  70
    32
  0
VERTEX
  8
0
  5
2D65
 10
-72.7606
 20
6.07221
 30
-1.31140e-15
  70
    32
  0
VERTEX
  8
0
  5
2D66
 10
-72.7439
 20
6.07517
 30
-1.31205e-15
  70
    32
  0
VERTEX
  8
0
  5
2D67
 10
-72.7272
 20
6.07820
 30
-1.31272e-15
  70
    32
  0
VERTEX
  8
0
  5
2D68
 10
-72.7105
 20
6.08130
 30
-1.31341e-15
  70
    32
  0
VERTEX
  8
0
  5
2D69
 10
-72.6937
 20
6.08447
 30
-1.31413e-15
  70
    32
  0
VERTEX
  8
0
  5
2D6A
 10
-72.6769
 20
6.08771
 30
-1.31487e-15
  70
    32
  0
VERTEX
  8
0
  5
2D6B
 10
-72.6600
 20
6.09102
 30
-1.31564e-15
  70
    32
  0
VERTEX
  8
0
  5
2D6C
 10
-72.6431
 20
6.09441
 30
-1.31644e-15
  70
    32
  0
VERTEX
  8
0
  5
2D6D
 10
-72.6261
 20
6.09786
 30
-1.31726e-15
  70
    32
  0
VERTEX
  8
0
  5
2D6E
 10
-72.6091
 20
6.10139
 30
-1.31811e-15
  70
    32
  0
VERTEX
  8
0
  5
2D6F
 10
-72.5921
 20
6.10499
 30
-1.31898e-15
  70
    32
  0
VERTEX
  8
0
  5
2D70
 10
-72.5750
 20
6.10867
 30
-1.31989e-15
  70
    32
  0
VERTEX
  8
0
  5
2D71
 10
-72.5579
 20
6.11241
 30
-1.32082e-15
  70
    32
  0
VERTEX
  8
0
  5
2D72
 10
-72.5407
 20
6.11624
 30
-1.32178e-15
  70
    32
  0
VERTEX
  8
0
  5
2D73
 10
-72.5235
 20
6.12014
 30
-1.32277e-15
  70
    32
  0
VERTEX
  8
0
  5
2D74
 10
-72.5063
 20
6.12411
 30
-1.32379e-15
  70
    32
  0
VERTEX
  8
0
  5
2D75
 10
-72.4890
 20
6.12816
 30
-1.32484e-15
  70
    32
  0
VERTEX
  8
0
  5
2D76
 10
-72.4717
 20
6.13229
 30
-1.32592e-15
  70
    32
  0
VERTEX
  8
0
  5
2D77
 10
-72.4543
 20
6.13649
 30
-1.32703e-15
  70
    32
  0
VERTEX
  8
0
  5
2D78
 10
-72.4369
 20
6.14077
 30
-1.32817e-15
  70
    32
  0
VERTEX
  8
0
  5
2D79
 10
-72.4195
 20
6.14513
 30
-1.32934e-15
  70
    32
  0
VERTEX
  8
0
  5
2D7A
 10
-72.4020
 20
6.14957
 30
-1.33055e-15
  70
    32
  0
VERTEX
  8
0
  5
2D7B
 10
-72.3845
 20
6.15409
 30
-1.33179e-15
  70
    32
  0
VERTEX
  8
0
  5
2D7C
 10
-72.3670
 20
6.15868
 30
-1.33306e-15
  70
    32
  0
VERTEX
  8
0
  5
2D7D
 10
-72.3494
 20
6.16336
 30
-1.33436e-15
  70
    32
  0
VERTEX
  8
0
  5
2D7E
 10
-72.3318
 20
6.16812
 30
-1.33570e-15
  70
    32
  0
VERTEX
  8
0
  5
2D7F
 10
-72.3142
 20
6.17296
 30
-1.33707e-15
  70
    32
  0
VERTEX
  8
0
  5
2D80
 10
-72.2965
 20
6.17788
 30
-1.33848e-15
  70
    32
  0
VERTEX
  8
0
  5
2D81
 10
-72.2788
 20
6.18289
 30
-1.33992e-15
  70
    32
  0
VERTEX
  8
0
  5
2D82
 10
-72.2610
 20
6.18798
 30
-1.34140e-15
  70
    32
  0
VERTEX
  8
0
  5
2D83
 10
-72.2432
 20
6.19315
 30
-1.34292e-15
  70
    32
  0
VERTEX
  8
0
  5
2D84
 10
-72.2254
 20
6.19840
 30
-1.34447e-15
  70
    32
  0
VERTEX
  8
0
  5
2D85
 10
-72.2076
 20
6.20374
 30
-1.34606e-15
  70
    32
  0
VERTEX
  8
0
  5
2D86
 10
-72.1897
 20
6.20916
 30
-1.34768e-15
  70
    32
  0
VERTEX
  8
0
  5
2D87
 10
-72.1718
 20
6.21467
 30
-1.34934e-15
  70
    32
  0
VERTEX
  8
0
  5
2D88
 10
-72.1538
 20
6.22027
 30
-1.35105e-15
  70
    32
  0
VERTEX
  8
0
  5
2D89
 10
-72.1358
 20
6.22595
 30
-1.35279e-15
  70
    32
  0
VERTEX
  8
0
  5
2D8A
 10
-72.1178
 20
6.23173
 30
-1.35457e-15
  70
    32
  0
VERTEX
  8
0
  5
2D8B
 10
-72.0998
 20
6.23760
 30
-1.35640e-15
  70
    32
  0
VERTEX
  8
0
  5
2D8C
 10
-72.0818
 20
6.24356
 30
-1.35827e-15
  70
    32
  0
VERTEX
  8
0
  5
2D8D
 10
-72.0637
 20
6.24961
 30
-1.36018e-15
  70
    32
  0
VERTEX
  8
0
  5
2D8E
 10
-72.0456
 20
6.25576
 30
-1.36213e-15
  70
    32
  0
VERTEX
  8
0
  5
2D8F
 10
-72.0274
 20
6.26200
 30
-1.36412e-15
  70
    32
  0
VERTEX
  8
0
  5
2D90
 10
-72.0093
 20
6.26833
 30
-1.36615e-15
  70
    32
  0
VERTEX
  8
0
  5
2D91
 10
-71.9911
 20
6.27475
 30
-1.36821e-15
  70
    32
  0
VERTEX
  8
0
  5
2D92
 10
-71.9730
 20
6.28126
 30
-1.37031e-15
  70
    32
  0
VERTEX
  8
0
  5
2D93
 10
-71.9547
 20
6.28786
 30
-1.37244e-15
  70
    32
  0
VERTEX
  8
0
  5
2D94
 10
-71.9365
 20
6.29456
 30
-1.37461e-15
  70
    32
  0
VERTEX
  8
0
  5
2D95
 10
-71.9183
 20
6.30134
 30
-1.37681e-15
  70
    32
  0
VERTEX
  8
0
  5
2D96
 10
-71.9000
 20
6.30822
 30
-1.37905e-15
  70
    32
  0
VERTEX
  8
0
  5
2D97
 10
-71.8818
 20
6.31519
 30
-1.38131e-15
  70
    32
  0
VERTEX
  8
0
  5
2D98
 10
-71.8635
 20
6.32224
 30
-1.38360e-15
  70
    32
  0
VERTEX
  8
0
  5
2D99
 10
-71.8452
 20
6.32939
 30
-1.38592e-15
  70
    32
  0
VERTEX
  8
0
  5
2D9A
 10
-71.8269
 20
6.33663
 30
-1.38827e-15
  70
    32
  0
VERTEX
  8
0
  5
2D9B
 10
-71.8086
 20
6.34396
 30
-1.39065e-15
  70
    32
  0
VERTEX
  8
0
  5
2D9C
 10
-71.7903
 20
6.35138
 30
-1.39305e-15
  70
    32
  0
VERTEX
  8
0
  5
2D9D
 10
-71.7720
 20
6.35889
 30
-1.39548e-15
  70
    32
  0
VERTEX
  8
0
  5
2D9E
 10
-71.7537
 20
6.36649
 30
-1.39793e-15
  70
    32
  0
VERTEX
  8
0
  5
2D9F
 10
-71.7353
 20
6.37417
 30
-1.40040e-15
  70
    32
  0
VERTEX
  8
0
  5
2DA0
 10
-71.7170
 20
6.38195
 30
-1.40289e-15
  70
    32
  0
VERTEX
  8
0
  5
2DA1
 10
-71.6986
 20
6.38982
 30
-1.40540e-15
  70
    32
  0
VERTEX
  8
0
  5
2DA2
 10
-71.6803
 20
6.39777
 30
-1.40794e-15
  70
    32
  0
VERTEX
  8
0
  5
2DA3
 10
-71.6620
 20
6.40581
 30
-1.41049e-15
  70
    32
  0
VERTEX
  8
0
  5
2DA4
 10
-71.6436
 20
6.41395
 30
-1.41306e-15
  70
    32
  0
VERTEX
  8
0
  5
2DA5
 10
-71.6253
 20
6.42217
 30
-1.41564e-15
  70
    32
  0
VERTEX
  8
0
  5
2DA6
 10
-71.6069
 20
6.43048
 30
-1.41824e-15
  70
    32
  0
VERTEX
  8
0
  5
2DA7
 10
-71.5886
 20
6.43887
 30
-1.42086e-15
  70
    32
  0
VERTEX
  8
0
  5
2DA8
 10
-71.5702
 20
6.44736
 30
-1.42348e-15
  70
    32
  0
VERTEX
  8
0
  5
2DA9
 10
-71.5519
 20
6.45593
 30
-1.42612e-15
  70
    32
  0
VERTEX
  8
0
  5
2DAA
 10
-71.5336
 20
6.46459
 30
-1.42878e-15
  70
    32
  0
VERTEX
  8
0
  5
2DAB
 10
-71.5153
 20
6.47334
 30
-1.43144e-15
  70
    32
  0
VERTEX
  8
0
  5
2DAC
 10
-71.4969
 20
6.48218
 30
-1.43411e-15
  70
    32
  0
VERTEX
  8
0
  5
2DAD
 10
-71.4786
 20
6.49110
 30
-1.43679e-15
  70
    32
  0
VERTEX
  8
0
  5
2DAE
 10
-71.4604
 20
6.50011
 30
-1.43947e-15
  70
    32
  0
VERTEX
  8
0
  5
2DAF
 10
-71.4421
 20
6.50921
 30
-1.44216e-15
  70
    32
  0
VERTEX
  8
0
  5
2DB0
 10
-71.4238
 20
6.51839
 30
-1.44486e-15
  70
    32
  0
VERTEX
  8
0
  5
2DB1
 10
-71.4055
 20
6.52766
 30
-1.44756e-15
  70
    32
  0
VERTEX
  8
0
  5
2DB2
 10
-71.3873
 20
6.53702
 30
-1.45026e-15
  70
    32
  0
VERTEX
  8
0
  5
2DB3
 10
-71.3691
 20
6.54646
 30
-1.45297e-15
  70
    32
  0
VERTEX
  8
0
  5
2DB4
 10
-71.3509
 20
6.55599
 30
-1.45567e-15
  70
    32
  0
VERTEX
  8
0
  5
2DB5
 10
-71.3327
 20
6.56561
 30
-1.45838e-15
  70
    32
  0
VERTEX
  8
0
  5
2DB6
 10
-71.3145
 20
6.57531
 30
-1.46109e-15
  70
    32
  0
VERTEX
  8
0
  5
2DB7
 10
-71.2963
 20
6.58509
 30
-1.46379e-15
  70
    32
  0
VERTEX
  8
0
  5
2DB8
 10
-71.2782
 20
6.59497
 30
-1.46649e-15
  70
    32
  0
VERTEX
  8
0
  5
2DB9
 10
-71.2601
 20
6.60492
 30
-1.46918e-15
  70
    32
  0
VERTEX
  8
0
  5
2DBA
 10
-71.2420
 20
6.61497
 30
-1.47187e-15
  70
    32
  0
VERTEX
  8
0
  5
2DBB
 10
-71.2239
 20
6.62509
 30
-1.47456e-15
  70
    32
  0
VERTEX
  8
0
  5
2DBC
 10
-71.2059
 20
6.63531
 30
-1.47723e-15
  70
    32
  0
VERTEX
  8
0
  5
2DBD
 10
-71.1878
 20
6.64560
 30
-1.47990e-15
  70
    32
  0
VERTEX
  8
0
  5
2DBE
 10
-71.1698
 20
6.65599
 30
-1.48256e-15
  70
    32
  0
VERTEX
  8
0
  5
2DBF
 10
-71.1519
 20
6.66645
 30
-1.48521e-15
  70
    32
  0
VERTEX
  8
0
  5
2DC0
 10
-71.1339
 20
6.67700
 30
-1.48785e-15
  70
    32
  0
VERTEX
  8
0
  5
2DC1
 10
-71.1160
 20
6.68764
 30
-1.49047e-15
  70
    32
  0
VERTEX
  8
0
  5
2DC2
 10
-71.0981
 20
6.69836
 30
-1.49308e-15
  70
    32
  0
VERTEX
  8
0
  5
2DC3
 10
-71.0803
 20
6.70916
 30
-1.49568e-15
  70
    32
  0
VERTEX
  8
0
  5
2DC4
 10
-71.0625
 20
6.72005
 30
-1.49826e-15
  70
    32
  0
VERTEX
  8
0
  5
2DC5
 10
-71.0447
 20
6.73102
 30
-1.50082e-15
  70
    32
  0
VERTEX
  8
0
  5
2DC6
 10
-71.0269
 20
6.74207
 30
-1.50337e-15
  70
    32
  0
VERTEX
  8
0
  5
2DC7
 10
-71.0092
 20
6.75320
 30
-1.50590e-15
  70
    32
  0
VERTEX
  8
0
  5
2DC8
 10
-70.9915
 20
6.76442
 30
-1.50841e-15
  70
    32
  0
VERTEX
  8
0
  5
2DC9
 10
-70.9739
 20
6.77572
 30
-1.51089e-15
  70
    32
  0
VERTEX
  8
0
  5
2DCA
 10
-70.9563
 20
6.78711
 30
-1.51336e-15
  70
    32
  0
VERTEX
  8
0
  5
2DCB
 10
-70.9387
 20
6.79858
 30
-1.51580e-15
  70
    32
  0
VERTEX
  8
0
  5
2DCC
 10
-70.9212
 20
6.81012
 30
-1.51822e-15
  70
    32
  0
VERTEX
  8
0
  5
2DCD
 10
-70.9037
 20
6.82176
 30
-1.52062e-15
  70
    32
  0
VERTEX
  8
0
  5
2DCE
 10
-70.8863
 20
6.83347
 30
-1.52299e-15
  70
    32
  0
VERTEX
  8
0
  5
2DCF
 10
-70.8689
 20
6.84526
 30
-1.52533e-15
  70
    32
  0
VERTEX
  8
0
  5
2DD0
 10
-70.8515
 20
6.85714
 30
-1.52765e-15
  70
    32
  0
VERTEX
  8
0
  5
2DD1
 10
-70.8342
 20
6.86910
 30
-1.52993e-15
  70
    32
  0
VERTEX
  8
0
  5
2DD2
 10
-70.8170
 20
6.88114
 30
-1.53219e-15
  70
    32
  0
VERTEX
  8
0
  5
2DD3
 10
-70.7998
 20
6.89326
 30
-1.53441e-15
  70
    32
  0
VERTEX
  8
0
  5
2DD4
 10
-70.7826
 20
6.90546
 30
-1.53661e-15
  70
    32
  0
VERTEX
  8
0
  5
2DD5
 10
-70.7655
 20
6.91775
 30
-1.53877e-15
  70
    32
  0
VERTEX
  8
0
  5
2DD6
 10
-70.7484
 20
6.93011
 30
-1.54089e-15
  70
    32
  0
VERTEX
  8
0
  5
2DD7
 10
-70.7314
 20
6.94256
 30
-1.54298e-15
  70
    32
  0
VERTEX
  8
0
  5
2DD8
 10
-70.7145
 20
6.95508
 30
-1.54504e-15
  70
    32
  0
VERTEX
  8
0
  5
2DD9
 10
-70.6976
 20
6.96769
 30
-1.54706e-15
  70
    32
  0
VERTEX
  8
0
  5
2DDA
 10
-70.6807
 20
6.98037
 30
-1.54904e-15
  70
    32
  0
VERTEX
  8
0
  5
2DDB
 10
-70.6639
 20
6.99314
 30
-1.55098e-15
  70
    32
  0
VERTEX
  8
0
  5
2DDC
 10
-70.6472
 20
7.00598
 30
-1.55288e-15
  70
    32
  0
VERTEX
  8
0
  5
2DDD
 10
-70.6305
 20
7.01890
 30
-1.55480e-15
  70
    32
  0
VERTEX
  8
0
  5
2DDE
 10
-70.6139
 20
7.03190
 30
-1.55679e-15
  70
    32
  0
VERTEX
  8
0
  5
2DDF
 10
-70.5974
 20
7.04496
 30
-1.55882e-15
  70
    32
  0
VERTEX
  8
0
  5
2DE0
 10
-70.5809
 20
7.05809
 30
-1.56091e-15
  70
    32
  0
VERTEX
  8
0
  5
2DE1
 10
-70.5645
 20
7.07130
 30
-1.56305e-15
  70
    32
  0
VERTEX
  8
0
  5
2DE2
 10
-70.5481
 20
7.08457
 30
-1.56524e-15
  70
    32
  0
VERTEX
  8
0
  5
2DE3
 10
-70.5318
 20
7.09791
 30
-1.56748e-15
  70
    32
  0
VERTEX
  8
0
  5
2DE4
 10
-70.5156
 20
7.11132
 30
-1.56977e-15
  70
    32
  0
VERTEX
  8
0
  5
2DE5
 10
-70.4995
 20
7.12479
 30
-1.57211e-15
  70
    32
  0
VERTEX
  8
0
  5
2DE6
 10
-70.4834
 20
7.13833
 30
-1.57450e-15
  70
    32
  0
VERTEX
  8
0
  5
2DE7
 10
-70.4674
 20
7.15193
 30
-1.57693e-15
  70
    32
  0
VERTEX
  8
0
  5
2DE8
 10
-70.4514
 20
7.16559
 30
-1.57941e-15
  70
    32
  0
VERTEX
  8
0
  5
2DE9
 10
-70.4356
 20
7.17932
 30
-1.58194e-15
  70
    32
  0
VERTEX
  8
0
  5
2DEA
 10
-70.4198
 20
7.19310
 30
-1.58451e-15
  70
    32
  0
VERTEX
  8
0
  5
2DEB
 10
-70.4040
 20
7.20695
 30
-1.58712e-15
  70
    32
  0
VERTEX
  8
0
  5
2DEC
 10
-70.3884
 20
7.22085
 30
-1.58978e-15
  70
    32
  0
VERTEX
  8
0
  5
2DED
 10
-70.3728
 20
7.23482
 30
-1.59248e-15
  70
    32
  0
VERTEX
  8
0
  5
2DEE
 10
-70.3572
 20
7.24884
 30
-1.59523e-15
  70
    32
  0
VERTEX
  8
0
  5
2DEF
 10
-70.3418
 20
7.26291
 30
-1.59801e-15
  70
    32
  0
VERTEX
  8
0
  5
2DF0
 10
-70.3264
 20
7.27704
 30
-1.60083e-15
  70
    32
  0
VERTEX
  8
0
  5
2DF1
 10
-70.3111
 20
7.29123
 30
-1.60369e-15
  70
    32
  0
VERTEX
  8
0
  5
2DF2
 10
-70.2959
 20
7.30547
 30
-1.60659e-15
  70
    32
  0
VERTEX
  8
0
  5
2DF3
 10
-70.2807
 20
7.31976
 30
-1.60953e-15
  70
    32
  0
VERTEX
  8
0
  5
2DF4
 10
-70.2656
 20
7.33410
 30
-1.61251e-15
  70
    32
  0
VERTEX
  8
0
  5
2DF5
 10
-70.2506
 20
7.34850
 30
-1.61552e-15
  70
    32
  0
VERTEX
  8
0
  5
2DF6
 10
-70.2357
 20
7.36294
 30
-1.61856e-15
  70
    32
  0
VERTEX
  8
0
  5
2DF7
 10
-70.2208
 20
7.37743
 30
-1.62164e-15
  70
    32
  0
VERTEX
  8
0
  5
2DF8
 10
-70.2060
 20
7.39197
 30
-1.62476e-15
  70
    32
  0
VERTEX
  8
0
  5
2DF9
 10
-70.1913
 20
7.40656
 30
-1.62790e-15
  70
    32
  0
VERTEX
  8
0
  5
2DFA
 10
-70.1767
 20
7.42119
 30
-1.63108e-15
  70
    32
  0
VERTEX
  8
0
  5
2DFB
 10
-70.1621
 20
7.43587
 30
-1.63429e-15
  70
    32
  0
VERTEX
  8
0
  5
2DFC
 10
-70.1476
 20
7.45059
 30
-1.63753e-15
  70
    32
  0
VERTEX
  8
0
  5
2DFD
 10
-70.1332
 20
7.46535
 30
-1.64080e-15
  70
    32
  0
VERTEX
  8
0
  5
2DFE
 10
-70.1189
 20
7.48015
 30
-1.64410e-15
  70
    32
  0
VERTEX
  8
0
  5
2DFF
 10
-70.1047
 20
7.49500
 30
-1.64743e-15
  70
    32
  0
VERTEX
  8
0
  5
2E00
 10
-70.0905
 20
7.50989
 30
-1.65078e-15
  70
    32
  0
VERTEX
  8
0
  5
2E01
 10
-70.0764
 20
7.52481
 30
-1.65416e-15
  70
    32
  0
VERTEX
  8
0
  5
2E02
 10
-70.0624
 20
7.53977
 30
-1.65757e-15
  70
    32
  0
VERTEX
  8
0
  5
2E03
 10
-70.0485
 20
7.55477
 30
-1.66100e-15
  70
    32
  0
VERTEX
  8
0
  5
2E04
 10
-70.0346
 20
7.56981
 30
-1.66445e-15
  70
    32
  0
VERTEX
  8
0
  5
2E05
 10
-70.0208
 20
7.58488
 30
-1.66793e-15
  70
    32
  0
VERTEX
  8
0
  5
2E06
 10
-70.0071
 20
7.59999
 30
-1.67143e-15
  70
    32
  0
VERTEX
  8
0
  5
2E07
 10
-69.9935
 20
7.61513
 30
-1.67496e-15
  70
    32
  0
VERTEX
  8
0
  5
2E08
 10
-69.9800
 20
7.63030
 30
-1.67850e-15
  70
    32
  0
VERTEX
  8
0
  5
2E09
 10
-69.9666
 20
7.64550
 30
-1.68206e-15
  70
    32
  0
VERTEX
  8
0
  5
2E0A
 10
-69.9532
 20
7.66074
 30
-1.68564e-15
  70
    32
  0
VERTEX
  8
0
  5
2E0B
 10
-69.9399
 20
7.67600
 30
-1.68924e-15
  70
    32
  0
VERTEX
  8
0
  5
2E0C
 10
-69.9267
 20
7.69129
 30
-1.69286e-15
  70
    32
  0
VERTEX
  8
0
  5
2E0D
 10
-69.9136
 20
7.70661
 30
-1.69650e-15
  70
    32
  0
VERTEX
  8
0
  5
2E0E
 10
-69.9006
 20
7.72196
 30
-1.70015e-15
  70
    32
  0
VERTEX
  8
0
  5
2E0F
 10
-69.8877
 20
7.73733
 30
-1.70382e-15
  70
    32
  0
VERTEX
  8
0
  5
2E10
 10
-69.8748
 20
7.75273
 30
-1.70750e-15
  70
    32
  0
VERTEX
  8
0
  5
2E11
 10
-69.8621
 20
7.76815
 30
-1.71119e-15
  70
    32
  0
VERTEX
  8
0
  5
2E12
 10
-69.8494
 20
7.78359
 30
-1.71490e-15
  70
    32
  0
VERTEX
  8
0
  5
2E13
 10
-69.8368
 20
7.79906
 30
-1.71862e-15
  70
    32
  0
VERTEX
  8
0
  5
2E14
 10
-69.8243
 20
7.81454
 30
-1.72235e-15
  70
    32
  0
VERTEX
  8
0
  5
2E15
 10
-69.8119
 20
7.83005
 30
-1.72609e-15
  70
    32
  0
VERTEX
  8
0
  5
2E16
 10
-69.7995
 20
7.84558
 30
-1.72984e-15
  70
    32
  0
VERTEX
  8
0
  5
2E17
 10
-69.7873
 20
7.86112
 30
-1.73360e-15
  70
    32
  0
VERTEX
  8
0
  5
2E18
 10
-69.7751
 20
7.87668
 30
-1.73737e-15
  70
    32
  0
VERTEX
  8
0
  5
2E19
 10
-69.7631
 20
7.89226
 30
-1.74114e-15
  70
    32
  0
VERTEX
  8
0
  5
2E1A
 10
-69.7511
 20
7.90785
 30
-1.74493e-15
  70
    32
  0
VERTEX
  8
0
  5
2E1B
 10
-69.7392
 20
7.92346
 30
-1.74871e-15
  70
    32
  0
VERTEX
  8
0
  5
2E1C
 10
-69.7274
 20
7.93908
 30
-1.75251e-15
  70
    32
  0
VERTEX
  8
0
  5
2E1D
 10
-69.7157
 20
7.95471
 30
-1.75630e-15
  70
    32
  0
VERTEX
  8
0
  5
2E1E
 10
-69.7041
 20
7.97036
 30
-1.76010e-15
  70
    32
  0
VERTEX
  8
0
  5
2E1F
 10
-69.6926
 20
7.98601
 30
-1.76390e-15
  70
    32
  0
VERTEX
  8
0
  5
2E20
 10
-69.6812
 20
8.00168
 30
-1.76771e-15
  70
    32
  0
VERTEX
  8
0
  5
2E21
 10
-69.6698
 20
8.01735
 30
-1.77151e-15
  70
    32
  0
VERTEX
  8
0
  5
2E22
 10
-69.6586
 20
8.03303
 30
-1.77532e-15
  70
    32
  0
VERTEX
  8
0
  5
2E23
 10
-69.6474
 20
8.04872
 30
-1.77912e-15
  70
    32
  0
VERTEX
  8
0
  5
2E24
 10
-69.6364
 20
8.06442
 30
-1.78292e-15
  70
    32
  0
VERTEX
  8
0
  5
2E25
 10
-69.6254
 20
8.08012
 30
-1.78672e-15
  70
    32
  0
VERTEX
  8
0
  5
2E26
 10
-69.6146
 20
8.09582
 30
-1.79052e-15
  70
    32
  0
VERTEX
  8
0
  5
2E27
 10
-69.6038
 20
8.11152
 30
-1.79431e-15
  70
    32
  0
VERTEX
  8
0
  5
2E28
 10
-69.5931
 20
8.12723
 30
-1.79810e-15
  70
    32
  0
VERTEX
  8
0
  5
2E29
 10
-69.5825
 20
8.14293
 30
-1.80189e-15
  70
    32
  0
VERTEX
  8
0
  5
2E2A
 10
-69.5721
 20
8.15863
 30
-1.80567e-15
  70
    32
  0
VERTEX
  8
0
  5
2E2B
 10
-69.5617
 20
8.17433
 30
-1.80945e-15
  70
    32
  0
VERTEX
  8
0
  5
2E2C
 10
-69.5514
 20
8.19002
 30
-1.81322e-15
  70
    32
  0
VERTEX
  8
0
  5
2E2D
 10
-69.5411
 20
8.20570
 30
-1.81699e-15
  70
    32
  0
VERTEX
  8
0
  5
2E2E
 10
-69.5310
 20
8.22138
 30
-1.82075e-15
  70
    32
  0
VERTEX
  8
0
  5
2E2F
 10
-69.5210
 20
8.23705
 30
-1.82451e-15
  70
    32
  0
VERTEX
  8
0
  5
2E30
 10
-69.5110
 20
8.25271
 30
-1.82827e-15
  70
    32
  0
VERTEX
  8
0
  5
2E31
 10
-69.5012
 20
8.26837
 30
-1.83202e-15
  70
    32
  0
VERTEX
  8
0
  5
2E32
 10
-69.4914
 20
8.28401
 30
-1.83577e-15
  70
    32
  0
VERTEX
  8
0
  5
2E33
 10
-69.4817
 20
8.29965
 30
-1.83951e-15
  70
    32
  0
VERTEX
  8
0
  5
2E34
 10
-69.4721
 20
8.31528
 30
-1.84325e-15
  70
    32
  0
VERTEX
  8
0
  5
2E35
 10
-69.4626
 20
8.33090
 30
-1.84699e-15
  70
    32
  0
VERTEX
  8
0
  5
2E36
 10
-69.4532
 20
8.34651
 30
-1.85072e-15
  70
    32
  0
VERTEX
  8
0
  5
2E37
 10
-69.4439
 20
8.36211
 30
-1.85445e-15
  70
    32
  0
VERTEX
  8
0
  5
2E38
 10
-69.4347
 20
8.37769
 30
-1.85818e-15
  70
    32
  0
VERTEX
  8
0
  5
2E39
 10
-69.4255
 20
8.39327
 30
-1.86190e-15
  70
    32
  0
VERTEX
  8
0
  5
2E3A
 10
-69.4164
 20
8.40883
 30
-1.86562e-15
  70
    32
  0
VERTEX
  8
0
  5
2E3B
 10
-69.4074
 20
8.42437
 30
-1.86933e-15
  70
    32
  0
VERTEX
  8
0
  5
2E3C
 10
-69.3985
 20
8.43991
 30
-1.87304e-15
  70
    32
  0
VERTEX
  8
0
  5
2E3D
 10
-69.3897
 20
8.45543
 30
-1.87674e-15
  70
    32
  0
VERTEX
  8
0
  5
2E3E
 10
-69.3810
 20
8.47093
 30
-1.88045e-15
  70
    32
  0
VERTEX
  8
0
  5
2E3F
 10
-69.3723
 20
8.48642
 30
-1.88414e-15
  70
    32
  0
VERTEX
  8
0
  5
2E40
 10
-69.3638
 20
8.50190
 30
-1.88784e-15
  70
    32
  0
VERTEX
  8
0
  5
2E41
 10
-69.3553
 20
8.51736
 30
-1.89153e-15
  70
    32
  0
VERTEX
  8
0
  5
2E42
 10
-69.3469
 20
8.53280
 30
-1.89521e-15
  70
    32
  0
VERTEX
  8
0
  5
2E43
 10
-69.3386
 20
8.54822
 30
-1.89890e-15
  70
    32
  0
VERTEX
  8
0
  5
2E44
 10
-69.3303
 20
8.56362
 30
-1.90257e-15
  70
    32
  0
VERTEX
  8
0
  5
2E45
 10
-69.3222
 20
8.57901
 30
-1.90625e-15
  70
    32
  0
VERTEX
  8
0
  5
2E46
 10
-69.3141
 20
8.59438
 30
-1.90992e-15
  70
    32
  0
VERTEX
  8
0
  5
2E47
 10
-69.3061
 20
8.60973
 30
-1.91359e-15
  70
    32
  0
VERTEX
  8
0
  5
2E48
 10
-69.2982
 20
8.62506
 30
-1.91725e-15
  70
    32
  0
VERTEX
  8
0
  5
2E49
 10
-69.2904
 20
8.64036
 30
-1.92091e-15
  70
    32
  0
VERTEX
  8
0
  5
2E4A
 10
-69.2826
 20
8.65565
 30
-1.92456e-15
  70
    32
  0
VERTEX
  8
0
  5
2E4B
 10
-69.2750
 20
8.67091
 30
-1.92822e-15
  70
    32
  0
VERTEX
  8
0
  5
2E4C
 10
-69.2674
 20
8.68616
 30
-1.93186e-15
  70
    32
  0
VERTEX
  8
0
  5
2E4D
 10
-69.2599
 20
8.70138
 30
-1.93551e-15
  70
    32
  0
VERTEX
  8
0
  5
2E4E
 10
-69.2524
 20
8.71657
 30
-1.93915e-15
  70
    32
  0
VERTEX
  8
0
  5
2E4F
 10
-69.2451
 20
8.73174
 30
-1.94279e-15
  70
    32
  0
VERTEX
  8
0
  5
2E50
 10
-69.2378
 20
8.74689
 30
-1.94642e-15
  70
    32
  0
VERTEX
  8
0
  5
2E51
 10
-69.2306
 20
8.76201
 30
-1.95005e-15
  70
    32
  0
VERTEX
  8
0
  5
2E52
 10
-69.2235
 20
8.77711
 30
-1.95368e-15
  70
    32
  0
VERTEX
  8
0
  5
2E53
 10
-69.2164
 20
8.79218
 30
-1.95730e-15
  70
    32
  0
VERTEX
  8
0
  5
2E54
 10
-69.2094
 20
8.80723
 30
-1.96092e-15
  70
    32
  0
VERTEX
  8
0
  5
2E55
 10
-69.2025
 20
8.82225
 30
-1.96453e-15
  70
    32
  0
VERTEX
  8
0
  5
2E56
 10
-69.1957
 20
8.83724
 30
-1.96814e-15
  70
    32
  0
VERTEX
  8
0
  5
2E57
 10
-69.1889
 20
8.85220
 30
-1.97175e-15
  70
    32
  0
VERTEX
  8
0
  5
2E58
 10
-69.1823
 20
8.86713
 30
-1.97535e-15
  70
    32
  0
VERTEX
  8
0
  5
2E59
 10
-69.1757
 20
8.88203
 30
-1.97895e-15
  70
    32
  0
VERTEX
  8
0
  5
2E5A
 10
-69.1691
 20
8.89691
 30
-1.98255e-15
  70
    32
  0
VERTEX
  8
0
  5
2E5B
 10
-69.1627
 20
8.91175
 30
-1.98614e-15
  70
    32
  0
VERTEX
  8
0
  5
2E5C
 10
-69.1563
 20
8.92657
 30
-1.98973e-15
  70
    32
  0
VERTEX
  8
0
  5
2E5D
 10
-69.1500
 20
8.94135
 30
-1.99332e-15
  70
    32
  0
VERTEX
  8
0
  5
2E5E
 10
-69.1437
 20
8.95610
 30
-1.99690e-15
  70
    32
  0
VERTEX
  8
0
  5
2E5F
 10
-69.1376
 20
8.97082
 30
-2.00048e-15
  70
    32
  0
VERTEX
  8
0
  5
2E60
 10
-69.1315
 20
8.98550
 30
-2.00405e-15
  70
    32
  0
VERTEX
  8
0
  5
2E61
 10
-69.1254
 20
9.00015
 30
-2.00763e-15
  70
    32
  0
VERTEX
  8
0
  5
2E62
 10
-69.1195
 20
9.01477
 30
-2.01119e-15
  70
    32
  0
VERTEX
  8
0
  5
2E63
 10
-69.1136
 20
9.02935
 30
-2.01476e-15
  70
    32
  0
VERTEX
  8
0
  5
2E64
 10
-69.1078
 20
9.04390
 30
-2.01832e-15
  70
    32
  0
VERTEX
  8
0
  5
2E65
 10
-69.1020
 20
9.05841
 30
-2.02188e-15
  70
    32
  0
VERTEX
  8
0
  5
2E66
 10
-69.0964
 20
9.07289
 30
-2.02543e-15
  70
    32
  0
VERTEX
  8
0
  5
2E67
 10
-69.0908
 20
9.08733
 30
-2.02898e-15
  70
    32
  0
VERTEX
  8
0
  5
2E68
 10
-69.0852
 20
9.10173
 30
-2.03253e-15
  70
    32
  0
VERTEX
  8
0
  5
2E69
 10
-69.0797
 20
9.11609
 30
-2.03607e-15
  70
    32
  0
VERTEX
  8
0
  5
2E6A
 10
-69.0743
 20
9.13042
 30
-2.03961e-15
  70
    32
  0
VERTEX
  8
0
  5
2E6B
 10
-69.0690
 20
9.14470
 30
-2.04315e-15
  70
    32
  0
VERTEX
  8
0
  5
2E6C
 10
-69.0637
 20
9.15895
 30
-2.04668e-15
  70
    32
  0
VERTEX
  8
0
  5
2E6D
 10
-69.0585
 20
9.17316
 30
-2.05021e-15
  70
    32
  0
VERTEX
  8
0
  5
2E6E
 10
-69.0534
 20
9.18732
 30
-2.05374e-15
  70
    32
  0
VERTEX
  8
0
  5
2E6F
 10
-69.0483
 20
9.20145
 30
-2.05726e-15
  70
    32
  0
VERTEX
  8
0
  5
2E70
 10
-69.0433
 20
9.21554
 30
-2.06078e-15
  70
    32
  0
VERTEX
  8
0
  5
2E71
 10
-69.0383
 20
9.22958
 30
-2.06429e-15
  70
    32
  0
VERTEX
  8
0
  5
2E72
 10
-69.0334
 20
9.24358
 30
-2.06781e-15
  70
    32
  0
VERTEX
  8
0
  5
2E73
 10
-69.0286
 20
9.25753
 30
-2.07132e-15
  70
    32
  0
VERTEX
  8
0
  5
2E74
 10
-69.0239
 20
9.27145
 30
-2.07482e-15
  70
    32
  0
VERTEX
  8
0
  5
2E75
 10
-69.0192
 20
9.28532
 30
-2.07832e-15
  70
    32
  0
VERTEX
  8
0
  5
2E76
 10
-69.0145
 20
9.29914
 30
-2.08182e-15
  70
    32
  0
VERTEX
  8
0
  5
2E77
 10
-69.0100
 20
9.31292
 30
-2.08532e-15
  70
    32
  0
VERTEX
  8
0
  5
2E78
 10
-69.0055
 20
9.32665
 30
-2.08881e-15
  70
    32
  0
VERTEX
  8
0
  5
2E79
 10
-69.0010
 20
9.34034
 30
-2.09230e-15
  70
    32
  0
VERTEX
  8
0
  5
2E7A
 10
-68.9966
 20
9.35398
 30
-2.09578e-15
  70
    32
  0
VERTEX
  8
0
  5
2E7B
 10
-68.9923
 20
9.36757
 30
-2.09924e-15
  70
    32
  0
VERTEX
  8
0
  5
2E7C
 10
-68.9880
 20
9.38112
 30
-2.10261e-15
  70
    32
  0
VERTEX
  8
0
  5
2E7D
 10
-68.9838
 20
9.39462
 30
-2.10592e-15
  70
    32
  0
VERTEX
  8
0
  5
2E7E
 10
-68.9797
 20
9.40808
 30
-2.10915e-15
  70
    32
  0
VERTEX
  8
0
  5
2E7F
 10
-68.9756
 20
9.42149
 30
-2.11230e-15
  70
    32
  0
VERTEX
  8
0
  5
2E80
 10
-68.9715
 20
9.43486
 30
-2.11539e-15
  70
    32
  0
VERTEX
  8
0
  5
2E81
 10
-68.9675
 20
9.44818
 30
-2.11840e-15
  70
    32
  0
VERTEX
  8
0
  5
2E82
 10
-68.9636
 20
9.46146
 30
-2.12135e-15
  70
    32
  0
VERTEX
  8
0
  5
2E83
 10
-68.9597
 20
9.47469
 30
-2.12424e-15
  70
    32
  0
VERTEX
  8
0
  5
2E84
 10
-68.9559
 20
9.48788
 30
-2.12706e-15
  70
    32
  0
VERTEX
  8
0
  5
2E85
 10
-68.9521
 20
9.50102
 30
-2.12981e-15
  70
    32
  0
VERTEX
  8
0
  5
2E86
 10
-68.9484
 20
9.51411
 30
-2.13251e-15
  70
    32
  0
VERTEX
  8
0
  5
2E87
 10
-68.9447
 20
9.52716
 30
-2.13514e-15
  70
    32
  0
VERTEX
  8
0
  5
2E88
 10
-68.9411
 20
9.54017
 30
-2.13772e-15
  70
    32
  0
VERTEX
  8
0
  5
2E89
 10
-68.9376
 20
9.55313
 30
-2.14024e-15
  70
    32
  0
VERTEX
  8
0
  5
2E8A
 10
-68.9340
 20
9.56605
 30
-2.14270e-15
  70
    32
  0
VERTEX
  8
0
  5
2E8B
 10
-68.9306
 20
9.57892
 30
-2.14512e-15
  70
    32
  0
VERTEX
  8
0
  5
2E8C
 10
-68.9272
 20
9.59174
 30
-2.14747e-15
  70
    32
  0
VERTEX
  8
0
  5
2E8D
 10
-68.9238
 20
9.60452
 30
-2.14978e-15
  70
    32
  0
VERTEX
  8
0
  5
2E8E
 10
-68.9205
 20
9.61726
 30
-2.15204e-15
  70
    32
  0
VERTEX
  8
0
  5
2E8F
 10
-68.9172
 20
9.62994
 30
-2.15425e-15
  70
    32
  0
VERTEX
  8
0
  5
2E90
 10
-68.9140
 20
9.64259
 30
-2.15642e-15
  70
    32
  0
VERTEX
  8
0
  5
2E91
 10
-68.9109
 20
9.65519
 30
-2.15853e-15
  70
    32
  0
VERTEX
  8
0
  5
2E92
 10
-68.9077
 20
9.66774
 30
-2.16061e-15
  70
    32
  0
VERTEX
  8
0
  5
2E93
 10
-68.9047
 20
9.68025
 30
-2.16265e-15
  70
    32
  0
VERTEX
  8
0
  5
2E94
 10
-68.9017
 20
9.69272
 30
-2.16464e-15
  70
    32
  0
VERTEX
  8
0
  5
2E95
 10
-68.8987
 20
9.70514
 30
-2.16660e-15
  70
    32
  0
VERTEX
  8
0
  5
2E96
 10
-68.8958
 20
9.71751
 30
-2.16852e-15
  70
    32
  0
VERTEX
  8
0
  5
2E97
 10
-68.8929
 20
9.72984
 30
-2.17040e-15
  70
    32
  0
VERTEX
  8
0
  5
2E98
 10
-68.8901
 20
9.74213
 30
-2.17225e-15
  70
    32
  0
VERTEX
  8
0
  5
2E99
 10
-68.8873
 20
9.75437
 30
-2.17407e-15
  70
    32
  0
VERTEX
  8
0
  5
2E9A
 10
-68.8845
 20
9.76656
 30
-2.17585e-15
  70
    32
  0
VERTEX
  8
0
  5
2E9B
 10
-68.8818
 20
9.77871
 30
-2.17761e-15
  70
    32
  0
VERTEX
  8
0
  5
2E9C
 10
-68.8792
 20
9.79082
 30
-2.17934e-15
  70
    32
  0
VERTEX
  8
0
  5
2E9D
 10
-68.8766
 20
9.80288
 30
-2.18104e-15
  70
    32
  0
VERTEX
  8
0
  5
2E9E
 10
-68.8740
 20
9.81489
 30
-2.18272e-15
  70
    32
  0
VERTEX
  8
0
  5
2E9F
 10
-68.8715
 20
9.82686
 30
-2.18437e-15
  70
    32
  0
VERTEX
  8
0
  5
2EA0
 10
-68.8690
 20
9.83879
 30
-2.18600e-15
  70
    32
  0
VERTEX
  8
0
  5
2EA1
 10
-68.8666
 20
9.85067
 30
-2.18762e-15
  70
    32
  0
VERTEX
  8
0
  5
2EA2
 10
-68.8642
 20
9.86250
 30
-2.18921e-15
  70
    32
  0
VERTEX
  8
0
  5
2EA3
 10
-68.8618
 20
9.87429
 30
-2.19078e-15
  70
    32
  0
VERTEX
  8
0
  5
2EA4
 10
-68.8595
 20
9.88604
 30
-2.19234e-15
  70
    32
  0
VERTEX
  8
0
  5
2EA5
 10
-68.8572
 20
9.89774
 30
-2.19389e-15
  70
    32
  0
VERTEX
  8
0
  5
2EA6
 10
-68.8550
 20
9.90940
 30
-2.19542e-15
  70
    32
  0
VERTEX
  8
0
  5
2EA7
 10
-68.8528
 20
9.92101
 30
-2.19694e-15
  70
    32
  0
VERTEX
  8
0
  5
2EA8
 10
-68.8506
 20
9.93258
 30
-2.19846e-15
  70
    32
  0
VERTEX
  8
0
  5
2EA9
 10
-68.8485
 20
9.94410
 30
-2.19996e-15
  70
    32
  0
VERTEX
  8
0
  5
2EAA
 10
-68.8465
 20
9.95558
 30
-2.20146e-15
  70
    32
  0
VERTEX
  8
0
  5
2EAB
 10
-68.8444
 20
9.96701
 30
-2.20295e-15
  70
    32
  0
VERTEX
  8
0
  5
2EAC
 10
-68.8424
 20
9.97840
 30
-2.20444e-15
  70
    32
  0
VERTEX
  8
0
  5
2EAD
 10
-68.8405
 20
9.98974
 30
-2.20592e-15
  70
    32
  0
VERTEX
  8
0
  5
2EAE
 10
-68.8385
 20
10.0010
 30
-2.20741e-15
  70
    32
  0
VERTEX
  8
0
  5
2EAF
 10
-68.8367
 20
10.0123
 30
-2.20889e-15
  70
    32
  0
VERTEX
  8
0
  5
2EB0
 10
-68.8348
 20
10.0235
 30
-2.21038e-15
  70
    32
  0
VERTEX
  8
0
  5
2EB1
 10
-68.8330
 20
10.0347
 30
-2.21187e-15
  70
    32
  0
VERTEX
  8
0
  5
2EB2
 10
-68.8312
 20
10.0458
 30
-2.21337e-15
  70
    32
  0
VERTEX
  8
0
  5
2EB3
 10
-68.8295
 20
10.0569
 30
-2.21488e-15
  70
    32
  0
VERTEX
  8
0
  5
2EB4
 10
-68.8278
 20
10.0679
 30
-2.21639e-15
  70
    32
  0
VERTEX
  8
0
  5
2EB5
 10
-68.8261
 20
10.0789
 30
-2.21791e-15
  70
    32
  0
VERTEX
  8
0
  5
2EB6
 10
-68.8245
 20
10.0898
 30
-2.21945e-15
  70
    32
  0
VERTEX
  8
0
  5
2EB7
 10
-68.8229
 20
10.1007
 30
-2.22100e-15
  70
    32
  0
VERTEX
  8
0
  5
2EB8
 10
-68.8213
 20
10.1116
 30
-2.22256e-15
  70
    32
  0
VERTEX
  8
0
  5
2EB9
 10
-68.8198
 20
10.1224
 30
-2.22414e-15
  70
    32
  0
VERTEX
  8
0
  5
2EBA
 10
-68.8183
 20
10.1331
 30
-2.22573e-15
  70
    32
  0
VERTEX
  8
0
  5
2EBB
 10
-68.8168
 20
10.1439
 30
-2.22735e-15
  70
    32
  0
VERTEX
  8
0
  5
2EBC
 10
-68.8153
 20
10.1545
 30
-2.22899e-15
  70
    32
  0
VERTEX
  8
0
  5
2EBD
 10
-68.8139
 20
10.1652
 30
-2.23064e-15
  70
    32
  0
VERTEX
  8
0
  5
2EBE
 10
-68.8126
 20
10.1757
 30
-2.23233e-15
  70
    32
  0
VERTEX
  8
0
  5
2EBF
 10
-68.8112
 20
10.1863
 30
-2.23403e-15
  70
    32
  0
VERTEX
  8
0
  5
2EC0
 10
-68.8099
 20
10.1968
 30
-2.23577e-15
  70
    32
  0
VERTEX
  8
0
  5
2EC1
 10
-68.8086
 20
10.2072
 30
-2.23753e-15
  70
    32
  0
VERTEX
  8
0
  5
2EC2
 10
-68.8073
 20
10.2176
 30
-2.23932e-15
  70
    32
  0
VERTEX
  8
0
  5
2EC3
 10
-68.8061
 20
10.2280
 30
-2.24114e-15
  70
    32
  0
VERTEX
  8
0
  5
2EC4
 10
-68.8049
 20
10.2383
 30
-2.24300e-15
  70
    32
  0
VERTEX
  8
0
  5
2EC5
 10
-68.8037
 20
10.2486
 30
-2.24489e-15
  70
    32
  0
VERTEX
  8
0
  5
2EC6
 10
-68.8026
 20
10.2588
 30
-2.24682e-15
  70
    32
  0
VERTEX
  8
0
  5
2EC7
 10
-68.8015
 20
10.2690
 30
-2.24878e-15
  70
    32
  0
VERTEX
  8
0
  5
2EC8
 10
-68.8004
 20
10.2791
 30
-2.25078e-15
  70
    32
  0
VERTEX
  8
0
  5
2EC9
 10
-68.7993
 20
10.2892
 30
-2.25283e-15
  70
    32
  0
VERTEX
  8
0
  5
2ECA
 10
-68.7983
 20
10.2993
 30
-2.25491e-15
  70
    32
  0
VERTEX
  8
0
  5
2ECB
 10
-68.7973
 20
10.3093
 30
-2.25704e-15
  70
    32
  0
VERTEX
  8
0
  5
2ECC
 10
-68.7963
 20
10.3193
 30
-2.25921e-15
  70
    32
  0
VERTEX
  8
0
  5
2ECD
 10
-68.7953
 20
10.3292
 30
-2.26143e-15
  70
    32
  0
VERTEX
  8
0
  5
2ECE
 10
-68.7944
 20
10.3391
 30
-2.26370e-15
  70
    32
  0
VERTEX
  8
0
  5
2ECF
 10
-68.7935
 20
10.3489
 30
-2.26602e-15
  70
    32
  0
VERTEX
  8
0
  5
2ED0
 10
-68.7926
 20
10.3587
 30
-2.26839e-15
  70
    32
  0
VERTEX
  8
0
  5
2ED1
 10
-68.7918
 20
10.3684
 30
-2.27081e-15
  70
    32
  0
VERTEX
  8
0
  5
2ED2
 10
-68.7909
 20
10.3781
 30
-2.27328e-15
  70
    32
  0
VERTEX
  8
0
  5
2ED3
 10
-68.7901
 20
10.3878
 30
-2.27581e-15
  70
    32
  0
VERTEX
  8
0
  5
2ED4
 10
-68.7893
 20
10.3974
 30
-2.27837e-15
  70
    32
  0
VERTEX
  8
0
  5
2ED5
 10
-68.7885
 20
10.4069
 30
-2.28079e-15
  70
    32
  0
VERTEX
  8
0
  5
2ED6
 10
-68.7878
 20
10.4165
 30
-2.28307e-15
  70
    32
  0
VERTEX
  8
0
  5
2ED7
 10
-68.7871
 20
10.4259
 30
-2.28526e-15
  70
    32
  0
VERTEX
  8
0
  5
2ED8
 10
-68.7864
 20
10.4354
 30
-2.28738e-15
  70
    32
  0
VERTEX
  8
0
  5
2ED9
 10
-68.7857
 20
10.4448
 30
-2.28949e-15
  70
    32
  0
VERTEX
  8
0
  5
2EDA
 10
-68.7850
 20
10.4541
 30
-2.29162e-15
  70
    32
  0
VERTEX
  8
0
  5
2EDB
 10
-68.7844
 20
10.4635
 30
-2.29382e-15
  70
    32
  0
VERTEX
  8
0
  5
2EDC
 10
-68.7838
 20
10.4727
 30
-2.29611e-15
  70
    32
  0
VERTEX
  8
0
  5
2EDD
 10
-68.7832
 20
10.4820
 30
-2.29854e-15
  70
    32
  0
VERTEX
  8
0
  5
2EDE
 10
-68.7826
 20
10.4912
 30
-2.30116e-15
  70
    32
  0
VERTEX
  8
0
  5
2EDF
 10
-68.7821
 20
10.5003
 30
-2.30400e-15
  70
    32
  0
VERTEX
  8
0
  5
2EE0
 10
-68.7815
 20
10.5094
 30
-2.30709e-15
  70
    32
  0
VERTEX
  8
0
  5
2EE1
 10
-68.7810
 20
10.5185
 30
-2.31049e-15
  70
    32
  0
VERTEX
  8
0
  5
2EE2
 10
-68.7806
 20
10.5275
 30
-2.31423e-15
  70
    32
  0
VERTEX
  8
0
  5
2EE3
 10
-68.7801
 20
10.5365
 30
-2.31834e-15
  70
    32
  0
VERTEX
  8
0
  5
2EE4
 10
-68.7796
 20
10.5454
 30
-2.32288e-15
  70
    32
  0
VERTEX
  8
0
  5
2EE5
 10
-68.7792
 20
10.5544
 30
-2.32787e-15
  70
    32
  0
VERTEX
  8
0
  5
2EE6
 10
-68.7788
 20
10.5632
 30
-2.33336e-15
  70
    32
  0
VERTEX
  8
0
  5
2EE7
 10
-68.7784
 20
10.5720
 30
-2.33939e-15
  70
    32
  0
VERTEX
  8
0
  5
2EE8
 10
-68.7781
 20
10.5808
 30
-2.34600e-15
  70
    32
  0
VERTEX
  8
0
  5
2EE9
 10
-68.7777
 20
10.5896
 30
-2.35323e-15
  70
    32
  0
VERTEX
  8
0
  5
2EEA
 10
-68.7774
 20
10.5983
 30
-2.36111e-15
  70
    32
  0
VERTEX
  8
0
  5
2EEB
 10
-68.7771
 20
10.6070
 30
-2.36969e-15
  70
    32
  0
VERTEX
  8
0
  5
2EEC
 10
-68.7768
 20
10.6156
 30
-2.37900e-15
  70
    32
  0
VERTEX
  8
0
  5
2EED
 10
-68.7765
 20
10.6242
 30
-2.38909e-15
  70
    32
  0
VERTEX
  8
0
  5
2EEE
 10
-68.7762
 20
10.6327
 30
-2.40000e-15
  70
    32
  0
SEQEND
  8
0
  5
2EEF
  0
LINE
  5
2B10
  8
0
  6
VERDECKT
 62
     1
 10
-70.0785880650240642
 20
7.5226457747543343
 30
-0.0000000000000017
 11
-70.0980579749297021
 21
6.9651005032977746
 31
-0.0000000000000015
210
0.0
220
1.0
230
-0.0000000000000002
  0
ARC
  5
2B11
  8
0
  6
VERDECKT
 62
     1
 10
71.0974488019486444
 20
7.0000000000001581
 30
0.0
 40
0.9999999999998422
210
0.0
220
-0.0000000000000002
230
-1.0
 50
181.9999999999934062
 51
270.0000000000064801
  0
LINE
  5
2B12
  8
0
  6
VERDECKT
 62
     1
 10
-64.0000000000001137
 20
0.0000000000001119
 30
0.0
 11
-65.920642322046092
 21
55.0000000000004405
 31
-0.0000000000000122
210
0.0
220
1.0
230
-0.0000000000000002
  0
LINE
  5
2B13
  8
0
  6
VERDECKT
 62
     1
 10
64.0
 20
-0.0000000000001048
 30
0.0
 11
65.9206423220462057
 21
55.0000000000002132
 31
-0.0000000000000122
210
0.0
220
1.0
230
-0.0000000000000002
  0
ENDBLK
  5
299E
  8
0
  0
BLOCK
  8
0
  2
A$CAF76B6FA
 70
     0
 10
0.0
 20
0.0
 30
0.0
  3
A$CAF76B6FA
  1

  0
CIRCLE
  5
29CF
  8
0
  6
CONTINUOUS
 62
     3
 10
122.0
 20
-0.0000000000005684
 30
0.0000000000000302
 40
2.25
  0
CIRCLE
  5
29D0
  8
0
  6
CONTINUOUS
 62
     3
 10
122.0
 20
-0.0000000000005684
 30
0.0000000000000302
 40
3.0000000000000022
  0
CIRCLE
  5
29D1
  8
0
  6
CONTINUOUS
 62
     3
 10
122.0
 20
-0.0000000000003411
 30
0.0000000000000302
 40
3.999999999999992
  0
CIRCLE
  5
29D2
  8
0
  6
CONTINUOUS
 62
     3
 10
-61.0
 20
-105.6550992617018068
 30
-0.000000000000016
 40
2.25
  0
CIRCLE
  5
29D3
  8
0
  6
CONTINUOUS
 62
     3
 10
-61.0
 20
-105.6550992617018068
 30
-0.000000000000016
 40
3.0000000000000022
  0
CIRCLE
  5
29D4
  8
0
  6
CONTINUOUS
 62
     3
 10
-61.0
 20
-105.6550992617015936
 30
-0.000000000000016
 40
3.999999999999992
  0
CIRCLE
  5
29D5
  8
0
  6
CONTINUOUS
 62
     3
 10
-61.0
 20
105.6550992617010962
 30
-0.000000000000016
 40
2.25
  0
CIRCLE
  5
29D6
  8
0
  6
CONTINUOUS
 62
     3
 10
-61.0
 20
105.6550992617010962
 30
-0.000000000000016
 40
3.0000000000000022
  0
CIRCLE
  5
29D7
  8
0
  6
CONTINUOUS
 62
     3
 10
-61.0
 20
105.6550992617012952
 30
-0.000000000000016
 40
3.999999999999992
  0
CIRCLE
  5
29D8
  8
0
  6
CONTINUOUS
 62
     3
 10
82.2724133595217069
 20
-47.4999999999997726
 30
0.0000000000000204
 40
7.9999999999998863
  0
CIRCLE
  5
29D9
  8
0
  6
CONTINUOUS
 62
     3
 10
-82.2724133595215648
 20
-47.4999999999997726
 30
-0.0000000000000204
 40
7.9999999999998881
  0
CIRCLE
  5
29DA
  8
0
  6
CONTINUOUS
 62
     3
 10
0.0000000000001137
 20
95.0000000000001137
 30
0.0
 40
7.9999999999998872
  0
CIRCLE
  5
29DB
  8
0
  6
CONTINUOUS
 62
     3
 10
-82.2724133595214653
 20
47.5000000000002274
 30
-0.0000000000000204
 40
7.9999999999998863
  0
CIRCLE
  5
29DC
  8
0
  6
CONTINUOUS
 62
     3
 10
0.0
 20
-94.9999999999999858
 30
0.0
 40
7.9999999999998872
  0
CIRCLE
  5
29DD
  8
0
  6
CONTINUOUS
 62
     3
 10
82.2724133595219058
 20
47.4999999999998792
 30
0.0000000000000204
 40
7.9999999999998863
  0
CIRCLE
  5
29DE
  8
0
  6
CONTINUOUS
 62
     3
 10
-60.9999999999997726
 20
105.6550992617012952
 30
-0.000000000000016
 40
4.0000000000001128
  0
CIRCLE
  5
29DF
  8
0
  6
CONTINUOUS
 62
     3
 10
-61.0
 20
-105.6550992617014941
 30
-0.000000000000016
 40
4.0000000000001128
  0
CIRCLE
  5
29E0
  8
0
  6
CONTINUOUS
 62
     3
 10
122.0
 20
-0.0000000000003411
 30
0.0000000000000302
 40
4.0000000000001128
  0
CIRCLE
  5
29E1
  8
0
  6
CONTINUOUS
 62
     3
 10
-61.0
 20
-105.6550992617014941
 30
-0.000000000000016
 40
7.5000000000000009
  0
CIRCLE
  5
29E2
  8
0
  6
CONTINUOUS
 62
     3
 10
122.0
 20
-0.0000000000003411
 30
0.0000000000000302
 40
7.5
  0
CIRCLE
  5
29E3
  8
0
  6
CONTINUOUS
 62
     3
 10
-60.9999999999997726
 20
105.6550992617012952
 30
-0.000000000000016
 40
7.5000000000000009
  0
CIRCLE
  5
29E4
  8
0
  6
CONTINUOUS
 62
     3
 10
0.0
 20
0.0
 30
0.0
 40
64.0000000000000142
  0
CIRCLE
  5
29E5
  8
0
  6
CONTINUOUS
 62
     3
 10
0.0000000000001137
 20
0.0000000000000568
 30
0.0000000000000036
 40
65.9206423220461488
  0
CIRCLE
  5
29E6
  8
0
  6
CONTINUOUS
 62
     3
 10
0.0000000000001137
 20
-0.0000000000001137
 30
0.0
 40
129.9999999999996874
  0
CIRCLE
  5
29E7
  8
0
  6
VERDECKT
 62
     1
 10
122.0
 20
-0.0000000000005684
 30
0.0000000000000302
 40
2.5000000000000848
  0
CIRCLE
  5
29E8
  8
0
  6
VERDECKT
 62
     1
 10
122.0
 20
-0.0000000000003411
 30
0.0000000000000311
 40
3.4999999999998961
  0
CIRCLE
  5
29E9
  8
0
  6
VERDECKT
 62
     1
 10
-61.0
 20
-105.6550992617018068
 30
-0.000000000000016
 40
2.5000000000000848
  0
CIRCLE
  5
29EA
  8
0
  6
VERDECKT
 62
     1
 10
-61.0
 20
-105.6550992617015936
 30
-0.0000000000000151
 40
3.4999999999998961
  0
CIRCLE
  5
29EB
  8
0
  6
VERDECKT
 62
     1
 10
-61.0
 20
105.6550992617010962
 30
-0.000000000000016
 40
2.5000000000000848
  0
CIRCLE
  5
29EC
  8
0
  6
VERDECKT
 62
     1
 10
-61.0
 20
105.6550992617012952
 30
-0.0000000000000151
 40
3.4999999999998961
  0
CIRCLE
  5
29ED
  8
0
  6
VERDECKT
 62
     1
 10
82.2724133595217069
 20
-47.4999999999997726
 30
0.0000000000000213
 40
9.9999999999990958
  0
CIRCLE
  5
29EE
  8
0
  6
VERDECKT
 62
     1
 10
-82.2724133595215648
 20
-47.4999999999997726
 30
-0.0000000000000213
 40
9.9999999999990887
  0
CIRCLE
  5
29EF
  8
0
  6
VERDECKT
 62
     1
 10
0.0000000000001137
 20
95.0000000000001137
 30
0.0
 40
9.9999999999992077
  0
CIRCLE
  5
29F0
  8
0
  6
VERDECKT
 62
     1
 10
-82.2724133595214653
 20
47.5000000000002274
 30
-0.0000000000000213
 40
9.9999999999990923
  0
CIRCLE
  5
29F1
  8
0
  6
VERDECKT
 62
     1
 10
0.0
 20
-94.9999999999999858
 30
0.0
 40
9.9999999999992042
  0
CIRCLE
  5
29F2
  8
0
  6
VERDECKT
 62
     1
 10
82.2724133595219058
 20
47.4999999999998792
 30
0.0000000000000213
 40
9.9999999999992077
  0
CIRCLE
  5
29F3
  8
0
  6
VERDECKT
 62
     1
 10
-60.9999999999997726
 20
105.6550992617012952
 30
-0.0000000000000151
 40
3.499999999999897
  0
CIRCLE
  5
29F4
  8
0
  6
VERDECKT
 62
     1
 10
-61.0
 20
-105.6550992617014941
 30
-0.0000000000000151
 40
3.499999999999897
  0
CIRCLE
  5
29F5
  8
0
  6
VERDECKT
 62
     1
 10
122.0
 20
-0.0000000000003411
 30
0.0000000000000311
 40
3.499999999999897
  0
ENDBLK
  5
29CA
  8
0
  0
ENDSEC
  0
SECTION
  2
ENTITIES
  0
TEXT
  5
8F
  8
VOLL
 10
78.076754716981128
 20
31.025947764705851
 30
0.0
 40
1.8
  1

  7
GREEKS
  0
INSERT
  5
D97
  8
ADSK_ASSOC_ENTITY_BACKUPS
  2
*S0
 10
0.0
 20
0.0
 30
0.0
  0
INSERT
  5
299F
  8
STEMPEL
  2
A$CD32E290A
 10
0.0000000000001216
 20
229.9999999999996021
 30
0.0
  0
INSERT
  5
29CB
  8
STEMPEL
  2
A$CAF76B6FA
 10
0.0
 20
0.0
 30
0.0
  0
VIEWPORT
  5
D74
 67
     1
  8
0
 10
99.3650713843590268
 20
145.4646395763369071
 30
0.0
 40
558.3578729095336257
 41
298.875220091766721
 68
     1
 69
     1
1001
ACAD
1000
MVIEW
1002
{
1070
    16
1010
0.0
1020
0.0
1030
0.0
1010
0.0
1020
0.0
1030
1.0
1040
0.0
1040
298.875220091766721
1040
99.3650713843590268
1040
145.4646395763369071
1040
50.0
1040
0.0
1040
0.0
1070
     0
1070
  1500
1070
     1
1070
     1
1070
     0
1070
     0
1070
     0
1070
     0
1040
0.0
1040
0.0
1040
0.0
1040
10.0
1040
10.0
1040
10.0
1040
10.0
1070
     0
1002
{
1002
}
1002
}
  0
TEXT
  5
FB6
 67
     1
  8
VOLL
 10
480.837537346738884
 20
-62.2351571273528705
 30
0.0
 40
3.6000000000000001
  1

  7
GREEKS
  0
ENDSEC
  0
EOF
