  0
SECTION
  2
HEADER
  9
$ACADVER
  1
AC1009
  9
$INSBASE
 10
0.0
 20
0.0
 30
0.0
  9
$EXTMIN
 10
-95.0000000162397242
 20
-245.0000002416149982
 30
-0.0000001669886842
  9
$EXTMAX
 10
94.9999999942783688
 20
159.9999989771368121
 30
-0.0000001669886842
  9
$LIMMIN
 10
0.0
 20
0.0
  9
$LIMMAX
 10
594.0
 20
840.0
  9
$ORTHOMODE
 70
     1
  9
$REGENMODE
 70
     1
  9
$FILLMODE
 70
     1
  9
$QTEXTMODE
 70
     0
  9
$MIRRTEXT
 70
     1
  9
$DRAGMODE
 70
     2
  9
$LTSCALE
 40
10.0
  9
$OSMODE
 70
   511
  9
$ATTMODE
 70
     1
  9
$TEXTSIZE
 40
3.5
  9
$TRACEWID
 40
1.0
  9
$TEXTSTYLE
  7
STANDARD
  9
$CLAYER
  8
STEMPEL
  9
$CELTYPE
  6
BYLAYER
  9
$CECOLOR
 62
   256
  9
$DIMSCALE
 40
1.0
  9
$DIMASZ
 40
3.5
  9
$DIMEXO
 40
1.0
  9
$DIMDLI
 40
0.38
  9
$DIMRND
 40
0.0
  9
$DIMDLE
 40
0.0
  9
$DIMEXE
 40
1.0
  9
$DIMTP
 40
0.0
  9
$DIMTM
 40
0.000000001
  9
$DIMTXT
 40
3.5
  9
$DIMCEN
 40
0.09
  9
$DIMTSZ
 40
0.0
  9
$DIMTOL
 70
     0
  9
$DIMLIM
 70
     0
  9
$DIMTIH
 70
     0
  9
$DIMTOH
 70
     0
  9
$DIMSE1
 70
     0
  9
$DIMSE2
 70
     0
  9
$DIMTAD
 70
     1
  9
$DIMZIN
 70
     8
  9
$DIMBLK
  1

  9
$DIMASO
 70
     1
  9
$DIMSHO
 70
     0
  9
$DIMPOST
  1

  9
$DIMAPOST
  1

  9
$DIMALT
 70
     0
  9
$DIMALTD
 70
     2
  9
$DIMALTF
 40
25.3999999999999986
  9
$DIMLFAC
 40
2.0
  9
$DIMTOFL
 70
     1
  9
$DIMTVP
 40
0.0
  9
$DIMTIX
 70
     0
  9
$DIMSOXD
 70
     0
  9
$DIMSAH
 70
     0
  9
$DIMBLK1
  1

  9
$DIMBLK2
  1

  9
$DIMSTYLE
  2
LORO
  9
$DIMCLRD
 70
     0
  9
$DIMCLRE
 70
     0
  9
$DIMCLRT
 70
     1
  9
$DIMTFAC
 40
0.5
  9
$DIMGAP
 40
1.5
  9
$LUNITS
 70
     2
  9
$LUPREC
 70
     2
  9
$SKETCHINC
 40
1.0
  9
$FILLETRAD
 40
3.0
  9
$AUNITS
 70
     0
  9
$AUPREC
 70
     0
  9
$MENU
  1
ACAD
  9
$ELEVATION
 40
0.0
  9
$PELEVATION
 40
0.0
  9
$THICKNESS
 40
0.0
  9
$LIMCHECK
 70
     0
  9
$BLIPMODE
 70
     0
  9
$CHAMFERA
 40
0.0
  9
$CHAMFERB
 40
0.0
  9
$SKPOLY
 70
     0
  9
$TDCREATE
 40
2455397.867048610933125
  9
$TDUPDATE
 40
2460728.5683217588812113
  9
$TDINDWG
 40
2.8334553472000001
  9
$TDUSRTIMER
 40
2.8334553472000001
  9
$USRTIMER
 70
     1
  9
$ANGBASE
 50
0.0
  9
$ANGDIR
 70
     0
  9
$PDMODE
 70
     0
  9
$PDSIZE
 40
0.0
  9
$PLINEWID
 40
0.0
  9
$COORDS
 70
     1
  9
$SPLFRAME
 70
     0
  9
$SPLINETYPE
 70
     6
  9
$SPLINESEGS
 70
     8
  9
$ATTDIA
 70
     1
  9
$ATTREQ
 70
     1
  9
$HANDLING
 70
     1
  9
$HANDSEED
  5
2602E
  9
$SURFTAB1
 70
     6
  9
$SURFTAB2
 70
     6
  9
$SURFTYPE
 70
     6
  9
$SURFU
 70
     6
  9
$SURFV
 70
     6
  9
$UCSNAME
  2

  9
$UCSORG
 10
0.0
 20
0.0
 30
0.0
  9
$UCSXDIR
 10
1.0
 20
0.0
 30
0.0
  9
$UCSYDIR
 10
0.0
 20
1.0
 30
0.0
  9
$PUCSNAME
  2

  9
$PUCSORG
 10
0.0
 20
0.0
 30
0.0
  9
$PUCSXDIR
 10
1.0
 20
0.0
 30
0.0
  9
$PUCSYDIR
 10
0.0
 20
1.0
 30
0.0
  9
$USERI1
 70
     0
  9
$USERI2
 70
     0
  9
$USERI3
 70
     0
  9
$USERI4
 70
     0
  9
$USERI5
 70
     0
  9
$USERR1
 40
0.0
  9
$USERR2
 40
0.0
  9
$USERR3
 40
0.0
  9
$USERR4
 40
0.0
  9
$USERR5
 40
0.0
  9
$WORLDVIEW
 70
     1
  9
$SHADEDGE
 70
     3
  9
$SHADEDIF
 70
    70
  9
$TILEMODE
 70
     1
  9
$MAXACTVP
 70
    16
  9
$PLIMCHECK
 70
     0
  9
$PEXTMIN
 10
-0.0000000000001705
 20
-0.00000000000008
 30
-0.0000000000001227
  9
$PEXTMAX
 10
296.5
 20
419.5000000000001137
 30
0.0000000000000568
  9
$PLIMMIN
 10
-0.2396407465832908
 20
-0.2655563985319986
  9
$PLIMMAX
 10
296.7603592534167092
 20
419.7344436014678877
  9
$UNITMODE
 70
     0
  9
$VISRETAIN
 70
     0
  9
$PLINEGEN
 70
     0
  9
$PSLTSCALE
 70
     0
  0
ENDSEC
  0
SECTION
  2
TABLES
  0
TABLE
  2
VPORT
 70
     1
  0
VPORT
  2
*ACTIVE
 70
     0
 10
0.0
 20
0.0
 11
1.0
 21
1.0
 12
-0.0000000109806706
 22
-75.0033117894656556
 13
0.0
 23
0.0
 14
1.0
 24
1.0
 15
10.0
 25
10.0
 16
-0.0000000000001828
 26
0.0
 36
823.2242029179625433
 17
0.0
 27
32.5033111572265625
 37
-0.0000000000000178
 40
407.0876280807040075
 41
1.8847807394668961
 42
50.0
 43
0.0
 44
0.0
 50
0.0
 51
0.0
 71
     0
 72
  1500
 73
     1
 74
     0
 75
     0
 76
     0
 77
     0
 78
     0
  0
ENDTAB
  0
TABLE
  2
LTYPE
 70
     3
  0
LTYPE
  2
CONTINUOUS
 70
     0
  3
Solid line
 72
    65
 73
     0
 40
0.0
  0
LTYPE
  2
STRICHPUNKT
 70
     0
  3
__ . __ . __ . __ . __ . __ . __ . __ . __ . __
 72
    65
 73
     4
 40
1.0
 49
0.5
 49
-0.25
 49
0.0
 49
-0.25
  0
LTYPE
  2
VERDECKT
 70
     0
  3
Verdeckt __ __ __ __ __ __ __ __ __ __ __ __ __
 72
    65
 73
     2
 40
0.375
 49
0.25
 49
-0.125
  0
ENDTAB
  0
TABLE
  2
LAYER
 70
     5
  0
LAYER
  2
0
 70
     0
 62
     7
  6
CONTINUOUS
  0
LAYER
  2
STEMPEL
 70
     0
 62
     3
  6
CONTINUOUS
  0
LAYER
  2
ADSK_ASSOC_ENTITY_BACKUPS
 70
     1
 62
    -7
  6
CONTINUOUS
  0
ENDTAB
  0
TABLE
  2
STYLE
 70
     2
  0
STYLE
  2
STANDARD
 70
     0
 40
0.0
 41
0.8
 50
0.0
 71
     0
 42
3.5
  3
simplex.shx
  4

  0
ENDTAB
  0
TABLE
  2
VIEW
 70
     0
  0
ENDTAB
  0
TABLE
  2
UCS
 70
     0
  0
ENDTAB
  0
TABLE
  2
APPID
 70
    31
  0
APPID
  2
ACAD
 70
     0
  0
APPID
  2
ACAECLAYERSTANDARD
 70
     0
  0
APPID
  2
ACCMTRANSPARENCY
 70
     0
  0
APPID
  2
ACAD_NAV_VCDISPLAY
 70
     0
  0
APPID
  2
ACAD_PSEXT
 70
     0
  0
APPID
  2
ACAD_STEPID
 70
     0
  0
APPID
  2
ACAD_EXEMPT_FROM_CAD_STANDARDS
 70
     0
  0
APPID
  2
ACSYNERGY
 70
     0
  0
APPID
  2
SYNERGY_BODY_TBR_ID
 70
     0
  0
APPID
  2
ACAD_VIEW_EDGE_ID
 70
     0
  0
APPID
  2
GRADIENTCOLOR1ACI
 70
     0
  0
APPID
  2
GRADIENTCOLOR2ACI
 70
     0
  0
APPID
  2
ACAD_DSTYLE_DIMRADIAL_EXTENSION
 70
     0
  0
APPID
  2
ACADANNOMONITORALERTICONDI
 70
     0
  0
APPID
  2
ACAD_MLEADERVER
 70
     0
  0
APPID
  2
ACSYNERGYSKETCH
 70
     0
  0
APPID
  2
ACAD_MODELDOC_XFORM
 70
     0
  0
APPID
  2
ACDBDYNAMICBLOCKGUID
 70
     0
  0
APPID
  2
ACAD_DSTYLE_DIMJAG
 70
     0
  0
APPID
  2
ACAD_DSTYLE_DIMBREAK
 70
     0
  0
APPID
  2
ACAD_DSTYLE_DIMTALN
 70
     0
  0
APPID
  2
ACADANNOPO
 70
     0
  0
APPID
  2
PLOTTRANSPARENCY
 70
     0
  0
APPID
  2
ACADANNOTATIVE
 70
     0
  0
APPID
  2
ACAD_DIMASSOC_CALC_DIMLFAC
 70
     0
  0
APPID
  2
ACAD_DIMASSOC_DIMLFAC
 70
     0
  0
APPID
  2
ACAD_DIMASSOC_OVERRIDDEN_D
 70
     0
  0
APPID
  2
ACADANNOAV
 70
     0
  0
APPID
  2
ACAUTHENVIRON
 70
     0
  0
APPID
  2
ACDBDYNAMICBLOCKTRUENAME
 70
     0
  0
APPID
  2
SYNERGY_EXCLUDED_FROM_SNAPSHOT
 70
     0
  0
ENDTAB
  0
TABLE
  2
DIMSTYLE
 70
     1
  0
DIMSTYLE
  2
LORO
 70
     0
  3

  4

  5

  6

  7

 40
1.0
 41
3.5
 42
1.0
 43
0.38
 44
1.0
 45
0.0
 46
0.0
 47
0.0
 48
0.000000001
140
3.5
141
0.09
142
0.0
143
25.3999999999999986
144
2.0
145
0.0
146
0.5
147
1.5
 71
     0
 72
     0
 73
     0
 74
     0
 75
     0
 76
     0
 77
     1
 78
     8
170
     0
171
     2
172
     1
173
     0
174
     0
175
     0
176
     0
177
     0
178
     1
  0
ENDTAB
  0
ENDSEC
  0
SECTION
  2
BLOCKS
  0
BLOCK
  8
0
  2
$MODEL_SPACE
 70
     0
 10
0.0
 20
0.0
 30
0.0
  3
$MODEL_SPACE
  1

  0
ENDBLK
  5
38
  8
0
  0
BLOCK
 67
     1
  8
0
  2
$PAPER_SPACE
 70
     0
 10
0.0
 20
0.0
 30
0.0
  3
$PAPER_SPACE
  1

  0
ENDBLK
  5
36
 67
     1
  8
0
  0
BLOCK
  8
0
  2
*S0
 70
     1
 10
0.0
 20
0.0
 30
0.0
  3
*S0
  1

  0
ENDBLK
  5
7128
  8
0
  0
BLOCK
  8
0
  2
A$C506315FF
 70
     0
 10
0.0
 20
0.0
 30
0.0
  3
A$C506315FF
  1

  0
CIRCLE
  5
25FB5
  8
0
  6
CONTINUOUS
 62
     3
 10
0.0000000000000355
 20
0.0000000000000129
 30
0.0
 40
95.0000000000001137
  0
CIRCLE
  5
25FB6
  8
0
  6
CONTINUOUS
 62
     3
 10
0.0000000000000011
 20
0.0000000000000034
 30
0.0
 40
50.0
  0
CIRCLE
  5
25FB7
  8
0
  6
CONTINUOUS
 62
     3
 10
0.00000000000002
 20
0.0000000000000086
 30
0.0
 40
62.5
  0
CIRCLE
  5
25FB8
  8
0
  6
CONTINUOUS
 62
     3
 10
0.0000000000000344
 20
0.0000000000000126
 30
0.0
 40
73.5
  0
CIRCLE
  5
25FB9
  8
0
  6
CONTINUOUS
 62
     3
 10
0.0000000000000355
 20
0.0000000000000129
 30
0.0
 40
80.0
  0
ENDBLK
  5
25FBB
  8
0
  0
BLOCK
  8
0
  2
A$C3CC5C5DA
 70
     0
 10
0.0
 20
0.0
 30
0.0
  3
A$C3CC5C5DA
  1

  0
LINE
  5
25FBF
  8
0
  6
CONTINUOUS
 62
     3
 10
-95.0000000000001137
 20
160.000000000000199
 30
-0.0000000000000355
 11
95.0000000000001137
 21
160.000000000000199
 31
-0.0000000000000355
210
0.0
220
1.0
230
-0.0000000000000002
  0
LINE
  5
25FC0
  8
0
  6
CONTINUOUS
 62
     3
 10
-77.2680952475022877
 20
0.0000000000001137
 30
0.0
 11
77.2680952475022877
 21
0.0000000000001137
 31
0.0
210
0.0
220
1.0
230
-0.0000000000000002
  0
LINE
  5
25FC1
  8
0
  6
CONTINUOUS
 62
     3
 10
-80.2549979256801862
 20
2.719977873920925
 30
-0.0000000000000006
 11
-95.0000000000001137
 21
160.000000000000199
 31
-0.0000000000000355
210
0.0
220
1.0
230
-0.0000000000000002
  0
LINE
  5
25FC2
  8
0
  6
CONTINUOUS
 62
     3
 10
80.2549979256801862
 20
2.719977873920925
 30
-0.0000000000000006
 11
95.0000000000001137
 21
160.000000000000199
 31
-0.0000000000000355
210
0.0
220
1.0
230
-0.0000000000000002
  0
ARC
  5
25FC3
  8
0
  6
CONTINUOUS
 62
     3
 10
77.2680952475024156
 20
3.000000000000103
 30
0.0
 40
3.0000000000000089
210
0.0
220
-0.0000000000000002
230
-1.0
 50
270.0
 51
354.6441749571470723
  0
ARC
  5
25FC4
  8
0
  6
CONTINUOUS
 62
     3
 10
-77.2680952475024156
 20
3.000000000000103
 30
0.0
 40
3.0000000000000062
210
0.0
220
-0.0000000000000002
230
-1.0
 50
185.3558250428552867
 51
270.0000000000025011
  0
LINE
  5
25FC5
  8
0
  6
VERDECKT
 62
     1
 10
-50.0
 20
4.9999999999998872
 30
-0.0000000000000011
 11
50.0
 21
4.9999999999998872
 31
-0.0000000000000011
210
0.0
220
1.0
230
-0.0000000000000002
  0
LINE
  5
25FC6
  8
0
  6
VERDECKT
 62
     1
 10
-62.5000000000001066
 20
20.0000000000001208
 30
-0.0000000000000044
 11
62.5000000000001066
 21
20.0000000000001208
 31
-0.0000000000000044
210
0.0
220
1.0
230
-0.0000000000000002
  0
LINE
  5
25FC7
  8
0
  6
VERDECKT
 62
     1
 10
-62.5
 20
89.9999999999999147
 30
-0.00000000000002
 11
62.5
 21
89.9999999999999147
 31
-0.00000000000002
210
0.0
220
1.0
230
-0.0000000000000002
  0
LINE
  5
25FC8
  8
0
  6
VERDECKT
 62
     1
 10
-73.4999999999997726
 20
110.0
 30
-0.0000000000000244
 11
73.4999999999997726
 21
110.0
 31
-0.0000000000000244
210
0.0
220
1.0
230
-0.0000000000000002
  0
LINE
  5
25FC9
  8
0
  6
VERDECKT
 62
     1
 10
-73.5
 20
155.000000000000199
 30
-0.0000000000000344
 11
73.5
 21
155.000000000000199
 31
-0.0000000000000344
210
0.0
220
1.0
230
-0.0000000000000002
  0
LINE
  5
25FCA
  8
0
  6
VERDECKT
 62
     1
 10
50.0
 20
4.9999999999998872
 30
-0.0000000000000011
 11
50.0
 21
0.0
 31
0.0
210
0.0
220
1.0
230
-0.0000000000000002
  0
LINE
  5
25FCB
  8
0
  6
VERDECKT
 62
     1
 10
-50.0
 20
4.9999999999998872
 30
-0.0000000000000011
 11
-50.0
 21
0.0
 31
0.0
210
0.0
220
1.0
230
-0.0000000000000002
  0
LINE
  5
25FCC
  8
0
  6
VERDECKT
 62
     1
 10
-49.9999999999999574
 20
4.9999999999999147
 30
-0.0000000000000011
 11
-62.5000000000000711
 21
20.0000000000001492
 31
-0.0000000000000044
210
0.0
220
1.0
230
-0.0000000000000002
  0
LINE
  5
25FCD
  8
0
  6
VERDECKT
 62
     1
 10
49.9999999999999574
 20
4.9999999999999147
 30
-0.0000000000000011
 11
62.5000000000000711
 21
20.0000000000001492
 31
-0.0000000000000044
210
0.0
220
1.0
230
-0.0000000000000002
  0
LINE
  5
25FCE
  8
0
  6
VERDECKT
 62
     1
 10
62.5
 20
89.9999999999999147
 30
-0.00000000000002
 11
62.5
 21
20.0000000000001208
 31
-0.0000000000000044
210
0.0
220
1.0
230
-0.0000000000000002
  0
LINE
  5
25FCF
  8
0
  6
VERDECKT
 62
     1
 10
-62.5
 20
89.9999999999999147
 30
-0.00000000000002
 11
-62.5
 21
20.0000000000001208
 31
-0.0000000000000044
210
0.0
220
1.0
230
-0.0000000000000002
  0
LINE
  5
25FD0
  8
0
  6
VERDECKT
 62
     1
 10
-62.5
 20
89.9999999999999147
 30
-0.00000000000002
 11
-73.4999999999997726
 21
110.0
 31
-0.0000000000000244
210
0.0
220
1.0
230
-0.0000000000000002
  0
LINE
  5
25FD1
  8
0
  6
VERDECKT
 62
     1
 10
62.5
 20
89.9999999999999147
 30
-0.00000000000002
 11
73.4999999999997726
 21
110.0
 31
-0.0000000000000244
210
0.0
220
1.0
230
-0.0000000000000002
  0
LINE
  5
25FD2
  8
0
  6
VERDECKT
 62
     1
 10
73.4999999999998863
 20
155.000000000000199
 30
-0.0000000000000344
 11
73.4999999999998863
 21
110.0
 31
-0.0000000000000244
210
0.0
220
1.0
230
-0.0000000000000002
  0
LINE
  5
25FD3
  8
0
  6
VERDECKT
 62
     1
 10
-73.4999999999998863
 20
155.000000000000199
 30
-0.0000000000000344
 11
-73.4999999999998863
 21
110.0
 31
-0.0000000000000244
210
0.0
220
1.0
230
-0.0000000000000002
  0
LINE
  5
25FD4
  8
0
  6
VERDECKT
 62
     1
 10
-73.5
 20
155.000000000000199
 30
-0.0000000000000344
 11
-80.0
 21
160.000000000000199
 31
-0.0000000000000355
210
0.0
220
1.0
230
-0.0000000000000002
  0
LINE
  5
25FD5
  8
0
  6
VERDECKT
 62
     1
 10
73.5
 20
155.000000000000199
 30
-0.0000000000000344
 11
80.0
 21
160.000000000000199
 31
-0.0000000000000355
210
0.0
220
1.0
230
-0.0000000000000002
  0
ENDBLK
  5
25FD7
  8
0
  0
ENDSEC
  0
SECTION
  2
ENTITIES
  0
INSERT
  5
712A
  8
ADSK_ASSOC_ENTITY_BACKUPS
  2
*S0
 10
0.0
 20
0.0
 30
0.0
  0
INSERT
  5
25FBC
  8
STEMPEL
  2
A$C506315FF
 10
0.0
 20
-150.0
 30
0.0
  0
INSERT
  5
25FD8
  8
STEMPEL
  2
A$C3CC5C5DA
 10
0.0
 20
0.0
 30
0.0
  0
VIEWPORT
  5
7108
 67
     1
  8
0
 10
148.2499992131025977
 20
209.749999566069306
 30
0.0
 40
795.1585614860068745
 41
421.8838535621467827
 68
     1
 69
     1
1001
ACAD
1000
MVIEW
1002
{
1070
    16
1010
0.0
1020
0.0
1030
0.0
1010
0.0
1020
0.0
1030
1.0
1040
0.0
1040
421.8838535621467827
1040
148.2499992131025977
1040
209.749999566069306
1040
50.0
1040
0.0
1040
0.0
1070
     0
1070
  1500
1070
     1
1070
     1
1070
     0
1070
     0
1070
     0
1070
     0
1040
0.0
1040
0.0
1040
0.0
1040
10.0
1040
10.0
1040
10.0
1040
10.0
1070
     0
1002
{
1002
}
1002
}
  0
ENDSEC
  0
EOF
