  0
SECTION
  2
HEADER
  9
$ACADVER
  1
AC1009
  9
$INSBASE
 10
0.0
 20
0.0
 30
0.0
  9
$EXTMIN
 10
-137.8959014495123938
 20
-323.0039963190263279
 30
-0.0091545749562556
  9
$EXTMAX
 10
136.5063446285896021
 20
300.0321592565533138
 30
0.0137332594181317
  9
$LIMMIN
 10
0.0
 20
0.0
  9
$LIMMAX
 10
419.9999999999998863
 20
594.0
  9
$ORTHOMODE
 70
     1
  9
$REGENMODE
 70
     1
  9
$FILLMODE
 70
     1
  9
$QTEXTMODE
 70
     0
  9
$MIRRTEXT
 70
     1
  9
$DRAGMODE
 70
     2
  9
$LTSCALE
 40
20.0
  9
$OSMODE
 70
  2559
  9
$ATTMODE
 70
     1
  9
$TEXTSIZE
 40
3.5
  9
$TRACEWID
 40
0.5
  9
$TEXTSTYLE
  7
STANDARD
  9
$CLAYER
  8
DEFPOINTS
  9
$CELTYPE
  6
BYLAYER
  9
$CECOLOR
 62
   256
  9
$DIMSCALE
 40
2.0
  9
$DIMASZ
 40
3.5
  9
$DIMEXO
 40
1.0
  9
$DIMDLI
 40
7.0
  9
$DIMRND
 40
0.0
  9
$DIMDLE
 40
0.0
  9
$DIMEXE
 40
1.0
  9
$DIMTP
 40
2.0
  9
$DIMTM
 40
0.0
  9
$DIMTXT
 40
3.5
  9
$DIMCEN
 40
1.5
  9
$DIMTSZ
 40
0.0
  9
$DIMTOL
 70
     0
  9
$DIMLIM
 70
     0
  9
$DIMTIH
 70
     0
  9
$DIMTOH
 70
     0
  9
$DIMSE1
 70
     0
  9
$DIMSE2
 70
     0
  9
$DIMTAD
 70
     1
  9
$DIMZIN
 70
     8
  9
$DIMBLK
  1

  9
$DIMASO
 70
     1
  9
$DIMSHO
 70
     0
  9
$DIMPOST
  1

  9
$DIMAPOST
  1

  9
$DIMALT
 70
     0
  9
$DIMALTD
 70
     2
  9
$DIMALTF
 40
25.3999999999999986
  9
$DIMLFAC
 40
1.0
  9
$DIMTOFL
 70
     1
  9
$DIMTVP
 40
0.0
  9
$DIMTIX
 70
     0
  9
$DIMSOXD
 70
     0
  9
$DIMSAH
 70
     0
  9
$DIMBLK1
  1

  9
$DIMBLK2
  1

  9
$DIMSTYLE
  2
STANDARD
  9
$DIMCLRD
 70
     0
  9
$DIMCLRE
 70
     0
  9
$DIMCLRT
 70
     1
  9
$DIMTFAC
 40
0.5
  9
$DIMGAP
 40
1.5
  9
$LUNITS
 70
     2
  9
$LUPREC
 70
     2
  9
$SKETCHINC
 40
1.0
  9
$FILLETRAD
 40
10.0
  9
$AUNITS
 70
     0
  9
$AUPREC
 70
     0
  9
$MENU
  1
ACAD
  9
$ELEVATION
 40
0.0
  9
$PELEVATION
 40
0.0
  9
$THICKNESS
 40
0.0
  9
$LIMCHECK
 70
     0
  9
$BLIPMODE
 70
     0
  9
$CHAMFERA
 40
0.0
  9
$CHAMFERB
 40
0.0
  9
$SKPOLY
 70
     0
  9
$TDCREATE
 40
2452032.6753124999813735
  9
$TDUPDATE
 40
2458388.6031828708946705
  9
$TDINDWG
 40
0.2110925231
  9
$TDUSRTIMER
 40
0.2110925231
  9
$USRTIMER
 70
     1
  9
$ANGBASE
 50
0.0
  9
$ANGDIR
 70
     0
  9
$PDMODE
 70
     0
  9
$PDSIZE
 40
0.0
  9
$PLINEWID
 40
0.0
  9
$COORDS
 70
     1
  9
$SPLFRAME
 70
     0
  9
$SPLINETYPE
 70
     6
  9
$SPLINESEGS
 70
     8
  9
$ATTDIA
 70
     1
  9
$ATTREQ
 70
     1
  9
$HANDLING
 70
     1
  9
$HANDSEED
  5
11FF
  9
$SURFTAB1
 70
     6
  9
$SURFTAB2
 70
     6
  9
$SURFTYPE
 70
     6
  9
$SURFU
 70
     6
  9
$SURFV
 70
     6
  9
$UCSNAME
  2

  9
$UCSORG
 10
0.0
 20
0.0
 30
0.0
  9
$UCSXDIR
 10
1.0
 20
0.0
 30
0.0
  9
$UCSYDIR
 10
0.0
 20
1.0
 30
0.0
  9
$PUCSNAME
  2

  9
$PUCSORG
 10
0.0
 20
0.0
 30
0.0
  9
$PUCSXDIR
 10
1.0
 20
0.0
 30
0.0
  9
$PUCSYDIR
 10
0.0
 20
1.0
 30
0.0
  9
$USERI1
 70
     0
  9
$USERI2
 70
     0
  9
$USERI3
 70
     0
  9
$USERI4
 70
     0
  9
$USERI5
 70
     0
  9
$USERR1
 40
0.0
  9
$USERR2
 40
0.0
  9
$USERR3
 40
0.0
  9
$USERR4
 40
0.0
  9
$USERR5
 40
0.0
  9
$WORLDVIEW
 70
     1
  9
$SHADEDGE
 70
     3
  9
$SHADEDIF
 70
    70
  9
$TILEMODE
 70
     1
  9
$MAXACTVP
 70
    16
  9
$PLIMCHECK
 70
     0
  9
$PEXTMIN
 10
-0.2041097441938042
 20
-0.1966906703124849
 30
-0.0000000000000053
  9
$PEXTMAX
 10
13.2368575135550604
 20
18.8402576402872306
 30
0.0000000000000099
  9
$PLIMMIN
 10
-0.2500002402958907
 20
-0.2499999962453767
  9
$PLIMMAX
 10
10.7499995194082203
 20
8.2499997634587334
  9
$UNITMODE
 70
     0
  9
$VISRETAIN
 70
     0
  9
$PLINEGEN
 70
     0
  9
$PSLTSCALE
 70
     0
  0
ENDSEC
  0
SECTION
  2
TABLES
  0
TABLE
  2
VPORT
 70
     1
  0
VPORT
  2
*ACTIVE
 70
     0
 10
0.0
 20
0.0
 11
1.0
 21
1.0
 12
-0.6947784104612538
 22
-93.2406792734240071
 13
0.0
 23
0.0
 14
1.0
 24
1.0
 15
10.0
 25
10.0
 16
-0.000000000000294
 26
0.0
 36
1323.992430177622964
 17
0.0
 27
81.7547607421875
 37
-0.0000000000000333
 40
626.2122107441890648
 41
1.868197278911564
 42
50.0
 43
0.0
 44
0.0
 50
0.0
 51
0.0
 71
     0
 72
  1500
 73
     1
 74
     0
 75
     0
 76
     0
 77
     0
 78
     0
  0
ENDTAB
  0
TABLE
  2
LTYPE
 70
     6
  0
LTYPE
  2
AUSGEZOGEN
 70
     0
  3
Ausgezogene Linie
 72
    65
 73
     0
 40
0.0
  0
LTYPE
  2
CONTINUOUS
 70
     0
  3
Solid line
 72
    65
 73
     0
 40
0.0
  0
LTYPE
  2
VERDECKT
 70
     0
  3
_ _ _ _ _ _ _ _ _ _ _ _ _ _ _ _ _ _ _ _ _ _ _
 72
    65
 73
     2
 40
0.375
 49
0.25
 49
-0.125
  0
ENDTAB
  0
TABLE
  2
LAYER
 70
    11
  0
LAYER
  2
0
 70
     0
 62
     7
  6
AUSGEZOGEN
  0
LAYER
  2
DEFPOINTS
 70
     0
 62
     7
  6
AUSGEZOGEN
  0
ENDTAB
  0
TABLE
  2
STYLE
 70
     2
  0
STYLE
  2
STANDARD
 70
     0
 40
0.0
 41
0.8
 50
0.0
 71
     0
 42
3.5
  3
simplex.shx
  4

  0
ENDTAB
  0
TABLE
  2
VIEW
 70
     1
  0
ENDTAB
  0
TABLE
  2
UCS
 70
     0
  0
ENDTAB
  0
TABLE
  2
APPID
 70
     9
  0
APPID
  2
ACAD
 70
     0
  0
APPID
  2
ACAD_NAV_VCDISPLAY
 70
     0
  0
APPID
  2
ACADANNOMONITORALERTICONDI
 70
     0
  0
APPID
  2
ACAD_EXEMPT_FROM_CAD_STANDARDS
 70
     0
  0
APPID
  2
ACAD_PSEXT
 70
     0
  0
APPID
  2
ACAECLAYERSTANDARD
 70
     0
  0
APPID
  2
ACCMTRANSPARENCY
 70
     0
  0
APPID
  2
ACAD_MLEADERVER
 70
     0
  0
APPID
  2
ACAD_OBJECT_CHANGE_GUID
 70
     0
  0
ENDTAB
  0
TABLE
  2
DIMSTYLE
 70
     2
  0
DIMSTYLE
  2
STANDARD
 70
     0
  3

  4

  5

  6

  7

 40
1.0
 41
0.18
 42
0.0625
 43
0.38
 44
0.18
 45
0.0
 46
0.0
 47
0.0
 48
0.0
140
0.18
141
0.09
142
0.0
143
25.3999999999999986
144
1.0
145
0.0
146
1.0
147
0.09
 71
     0
 72
     0
 73
     1
 74
     1
 75
     0
 76
     0
 77
     0
 78
     0
170
     0
171
     2
172
     0
173
     0
174
     0
175
     0
176
     0
177
     0
178
     0
  0
ENDTAB
  0
ENDSEC
  0
SECTION
  2
BLOCKS
  0
BLOCK
  8
0
  2
$MODEL_SPACE
 70
     0
 10
0.0
 20
0.0
 30
0.0
  3
$MODEL_SPACE
  1

  0
ENDBLK
  5
4F0
  8
0
  0
BLOCK
 67
     1
  8
0
  2
$PAPER_SPACE
 70
     0
 10
0.0
 20
0.0
 30
0.0
  3
$PAPER_SPACE
  1

  0
ENDBLK
  5
4EE
 67
     1
  8
0
  0
BLOCK
  8
0
  2
A$C56A77D4E
 70
     0
 10
0.0
 20
0.0
 30
0.0
  3
A$C56A77D4E
  1

  0
CIRCLE
  5
1171
  8
0
  6
AUSGEZOGEN
 62
     3
 10
0.0000000000002274
 20
0.0000000000000184
 30
0.0
 40
132.500000000000199
  0
CIRCLE
  5
1172
  8
0
  6
AUSGEZOGEN
 62
     3
 10
0.0000000000002274
 20
0.0000000000000184
 30
0.0
 40
136.500000000000199
  0
CIRCLE
  5
1173
  8
0
  6
AUSGEZOGEN
 62
     3
 10
0.0000000000002274
 20
0.0000000000000114
 30
0.0
 40
118.7224339975311977
  0
CIRCLE
  5
1174
  8
0
  6
AUSGEZOGEN
 62
     3
 10
0.0000000000001137
 20
0.0000000000000096
 30
0.0
 40
106.6000000000000938
  0
CIRCLE
  5
1175
  8
0
  6
AUSGEZOGEN
 62
     3
 10
0.0
 20
0.0
 30
0.0
 40
105.7251133647410057
  0
CIRCLE
  5
1176
  8
0
  6
VERDECKT
 62
     1
 10
0.0000000000002274
 20
0.0000000000000113
 30
0.0
 40
122.341422065377003
  0
CIRCLE
  5
1177
  8
0
  6
VERDECKT
 62
     1
 10
0.0000000000001137
 20
0.0000000000000113
 30
0.0
 40
119.7144638537616004
  0
CIRCLE
  5
1178
  8
0
  6
VERDECKT
 62
     1
 10
0.0000000000001137
 20
0.0000000000000112
 30
0.0
 40
122.2741678489926045
  0
CIRCLE
  5
1179
  8
0
  6
VERDECKT
 62
     1
 10
0.0000000000001137
 20
0.0000000000000096
 30
0.0
 40
109.5000000000000995
  0
CIRCLE
  5
117A
  8
0
  6
VERDECKT
 62
     1
 10
0.0
 20
0.0
 30
0.0
 40
108.6361908936166003
  0
ENDBLK
  5
117C
  8
0
  0
BLOCK
  8
0
  2
A$C43711529
 70
     0
 10
0.0
 20
0.0
 30
0.0
  3
A$C43711529
  1

  0
LINE
  5
1180
  8
0
  6
AUSGEZOGEN
 62
     3
 10
-136.5
 20
300.0
 30
-0.0000000000000666
 11
136.5000000000003979
 21
300.0
 31
-0.0000000000000666
210
0.0
220
1.0
230
-0.0000000000000002
  0
LINE
  5
1181
  8
0
  6
AUSGEZOGEN
 62
     3
 10
-122.3414220653768041
 20
183.764690285687692
 30
-0.0000000000000408
 11
122.3414220653773015
 21
183.764690285687692
 31
-0.0000000000000408
210
0.0
220
1.0
230
-0.0000000000000002
  0
LINE
  5
1182
  8
0
  6
AUSGEZOGEN
 62
     3
 10
136.5000000000003979
 20
300.0
 30
-0.0000000000000666
 11
136.5000000000003979
 21
217.2544192577555862
 31
-0.0000000000000482
210
0.0
220
1.0
230
-0.0000000000000002
  0
LINE
  5
1183
  8
0
  6
AUSGEZOGEN
 62
     3
 10
-136.5
 20
300.0
 30
-0.0000000000000666
 11
-136.5
 21
217.2544192577555862
 31
-0.0000000000000482
210
0.0
220
1.0
230
-0.0000000000000002
  0
ARC
  5
1184
  8
0
  6
AUSGEZOGEN
 62
     3
 10
120.5000000000020037
 20
217.2544192577553019
 30
0.0
 40
15.9999999999980407
210
0.0
220
-0.0000000000000002
230
-1.0
 50
334.7892320242108894
 51
0.0000000000012341
  0
ARC
  5
1185
  8
0
  6
AUSGEZOGEN
 62
     3
 10
-120.5000000000025011
 20
217.2544192577553019
 30
0.0
 40
15.9999999999980496
210
0.0
220
-0.0000000000000002
230
-1.0
 50
179.9999999999988063
 51
205.2107679757891106
  0
LINE
  5
1186
  8
0
  6
AUSGEZOGEN
 62
     3
 10
-122.3414220653769036
 20
183.7646902856876068
 30
-0.0000000000000408
 11
-134.9759522713833064
 21
210.4392299106694111
 31
-0.0000000000000467
210
0.0
220
1.0
230
-0.0000000000000002
  0
LINE
  5
1187
  8
0
  6
AUSGEZOGEN
 62
     3
 10
122.3414220653773015
 20
183.7646902856876068
 30
-0.0000000000000408
 11
134.9759522713837043
 21
210.4392299106694111
 31
-0.0000000000000467
210
0.0
220
1.0
230
-0.0000000000000002
  0
LINE
  5
1188
  8
0
  6
AUSGEZOGEN
 62
     3
 10
-122.274167848992505
 20
183.6383923392180009
 30
-0.0000000000000408
 11
122.274167848992704
 21
183.6383923392178019
 31
-0.0000000000000408
210
0.0
220
1.0
230
-0.0000000000000002
  0
LINE
  5
1189
  8
0
  6
AUSGEZOGEN
 62
     3
 10
-108.6361908936166003
 20
0.0000000000001705
 30
0.0
 11
108.6361908936166003
 21
-0.0000000000000568
 31
0.0
210
0.0
220
1.0
230
-0.0000000000000002
  0
LINE
  5
118A
  8
0
  6
AUSGEZOGEN
 62
     3
 10
122.0369905813055027
 20
183.764690285687692
 30
-0.0000000000000408
 11
122.274167848992704
 21
183.6383923392178019
 31
-0.0000000000000408
210
0.0
220
1.0
230
-0.0000000000000002
  0
LINE
  5
118B
  8
0
  6
AUSGEZOGEN
 62
     3
 10
-122.0369905813056022
 20
183.764690285687692
 30
-0.0000000000000408
 11
-122.274167848992505
 21
183.6383923392178872
 31
-0.0000000000000408
210
0.0
220
1.0
230
-0.0000000000000002
  0
LINE
  5
118C
  8
0
  6
AUSGEZOGEN
 62
     3
 10
-110.6734344992046033
 20
161.8531589607300134
 30
-0.0000000000000359
 11
-122.274167848992505
 21
183.6383923392180009
 31
-0.0000000000000408
210
0.0
220
1.0
230
-0.0000000000000002
  0
LINE
  5
118D
  8
0
  6
AUSGEZOGEN
 62
     3
 10
110.6734344992048023
 20
161.853158960729786
 30
-0.0000000000000359
 11
122.274167848992704
 21
183.6383923392178019
 31
-0.0000000000000408
210
0.0
220
1.0
230
-0.0000000000000002
  0
ARC
  5
118E
  8
0
  6
AUSGEZOGEN
 62
     3
 10
119.4999999999995026
 20
157.152973702661086
 30
0.0
 40
9.9999999999995577
210
0.0
220
-0.0000000000000002
230
-1.0
 50
151.9645009083411082
 51
180.0000000000007105
  0
ARC
  5
118F
  8
0
  6
AUSGEZOGEN
 62
     3
 10
-119.5
 20
157.1529737026608871
 30
0.0
 40
9.9999999999997708
210
0.0
220
-0.0000000000000002
230
-1.0
 50
359.9999999999992042
 51
28.0354990916581492
  0
LINE
  5
1190
  8
0
  6
AUSGEZOGEN
 62
     3
 10
109.5
 20
157.1529737026606881
 30
-0.0000000000000349
 11
109.4999999999999005
 21
9.8733832655611327
 31
-0.0000000000000022
210
0.0
220
1.0
230
-0.0000000000000002
  0
LINE
  5
1191
  8
0
  6
AUSGEZOGEN
 62
     3
 10
-109.4999999999997016
 20
157.1529737026608871
 30
-0.0000000000000349
 11
-109.499999999999801
 21
9.8733832655612748
 31
-0.0000000000000022
210
0.0
220
1.0
230
-0.0000000000000002
  0
LINE
  5
1192
  8
0
  6
AUSGEZOGEN
 62
     3
 10
-108.6361908936166003
 20
0.0000000000000746
 30
0.0
 11
-109.499999999999801
 21
9.8733832655612641
 31
-0.0000000000000022
210
0.0
220
1.0
230
-0.0000000000000002
  0
LINE
  5
1193
  8
0
  6
AUSGEZOGEN
 62
     3
 10
108.6361908936166003
 20
-0.0000000000000613
 30
0.0
 11
109.499999999999801
 21
9.8733832655611291
 31
-0.0000000000000022
210
0.0
220
1.0
230
-0.0000000000000002
  0
LINE
  5
1194
  8
0
  6
VERDECKT
 62
     1
 10
-118.7224339975308993
 20
185.4684876224592074
 30
-0.0000000000000412
 11
118.7224339975313967
 21
185.4684876224592074
 31
-0.0000000000000412
210
0.0
220
1.0
230
-0.0000000000000002
  0
LINE
  5
1195
  8
0
  6
VERDECKT
 62
     1
 10
118.7224339975313967
 20
185.4684876224592074
 30
-0.0000000000000412
 11
122.3414220653773015
 21
183.7646902856876068
 31
-0.0000000000000408
210
0.0
220
1.0
230
-0.0000000000000002
  0
LINE
  5
1196
  8
0
  6
VERDECKT
 62
     1
 10
-118.7224339975308993
 20
185.4684876224592074
 30
-0.0000000000000412
 11
-122.3414220653768041
 21
183.7646902856876068
 31
-0.0000000000000408
210
0.0
220
1.0
230
-0.0000000000000002
  0
LINE
  5
1197
  8
0
  6
VERDECKT
 62
     1
 10
-118.7224339975309988
 20
185.4684876224592074
 30
-0.0000000000000412
 11
-131.3569642035375011
 21
212.1430272474410117
 31
-0.0000000000000471
210
0.0
220
1.0
230
-0.0000000000000002
  0
LINE
  5
1198
  8
0
  6
VERDECKT
 62
     1
 10
118.7224339975313967
 20
185.4684876224592074
 30
-0.0000000000000412
 11
131.356964203537899
 21
212.1430272474410117
 31
-0.0000000000000471
210
0.0
220
1.0
230
-0.0000000000000002
  0
ARC
  5
1199
  8
0
  6
VERDECKT
 62
     1
 10
120.499999999999801
 20
217.2544192577556998
 30
0.0
 40
12.0000000000003109
210
0.0
220
-0.0000000000000002
230
-1.0
 50
334.7892320242131063
 51
359.9999999999997158
  0
ARC
  5
119A
  8
0
  6
VERDECKT
 62
     1
 10
-120.500000000000199
 20
217.2544192577556998
 30
0.0
 40
12.0000000000003109
210
0.0
220
-0.0000000000000002
230
-1.0
 50
180.000000000000199
 51
205.2107679757868937
  0
LINE
  5
119B
  8
0
  6
VERDECKT
 62
     1
 10
132.5000000000003979
 20
300.0
 30
-0.0000000000000666
 11
132.5000000000003979
 21
217.2544192577556998
 31
-0.0000000000000482
210
0.0
220
1.0
230
-0.0000000000000002
  0
LINE
  5
119C
  8
0
  6
VERDECKT
 62
     1
 10
-132.5
 20
300.0
 30
-0.0000000000000666
 11
-132.5
 21
217.2544192577556998
 31
-0.0000000000000482
210
0.0
220
1.0
230
-0.0000000000000002
  0
LINE
  5
119D
  8
0
  6
VERDECKT
 62
     1
 10
-119.7144638537615009
 20
185.0014460640578022
 30
-0.0000000000000411
 11
119.7144638537617993
 21
185.0014460640576033
 31
-0.0000000000000411
210
0.0
220
1.0
230
-0.0000000000000002
  0
LINE
  5
119E
  8
0
  6
VERDECKT
 62
     1
 10
106.6000000000001933
 20
157.1529737026608018
 30
-0.0000000000000349
 11
106.5999999999999943
 21
9.9999999999953975
 31
-0.0000000000000022
210
0.0
220
1.0
230
-0.0000000000000002
  0
LINE
  5
119F
  8
0
  6
VERDECKT
 62
     1
 10
-106.5999999999997954
 20
157.1529737026608871
 30
-0.0000000000000349
 11
-106.5999999999998948
 21
9.9999999999955396
 31
-0.0000000000000022
210
0.0
220
1.0
230
-0.0000000000000002
  0
ARC
  5
11A0
  8
0
  6
VERDECKT
 62
     1
 10
119.5000000000020037
 20
157.1529737026604892
 30
0.0
 40
12.9000000000019597
210
0.0
220
-0.0000000000000002
230
-1.0
 50
151.9645009083438083
 51
179.9999999999978115
  0
ARC
  5
11A1
  8
0
  6
VERDECKT
 62
     1
 10
-119.5000000000022027
 20
157.1529737026602902
 30
0.0
 40
12.9000000000019508
210
0.0
220
-0.0000000000000002
230
-1.0
 50
0.0
 51
28.0354990916538007
  0
LINE
  5
11A2
  8
0
  6
VERDECKT
 62
     1
 10
-108.1137305039739971
 20
163.2162126855700137
 30
-0.0000000000000362
 11
-119.7144638537615009
 21
185.0014460640578022
 31
-0.0000000000000411
210
0.0
220
1.0
230
-0.0000000000000002
  0
LINE
  5
11A3
  8
0
  6
VERDECKT
 62
     1
 10
108.113730503974196
 20
163.2162126855697863
 30
-0.0000000000000362
 11
119.7144638537617993
 21
185.0014460640576033
 31
-0.0000000000000411
210
0.0
220
1.0
230
-0.0000000000000002
  0
LINE
  5
11A4
  8
0
  6
VERDECKT
 62
     1
 10
119.7144638537617993
 20
185.0014460640576033
 30
-0.0000000000000411
 11
122.0369905813055027
 21
183.764690285687692
 31
-0.0000000000000408
210
0.0
220
1.0
230
-0.0000000000000002
  0
LINE
  5
11A5
  8
0
  6
VERDECKT
 62
     1
 10
-119.7144638537615009
 20
185.0014460640576885
 30
-0.0000000000000411
 11
-122.0369905813056022
 21
183.764690285687692
 31
-0.0000000000000408
210
0.0
220
1.0
230
-0.0000000000000002
  0
LINE
  5
11A6
  8
0
  6
VERDECKT
 62
     1
 10
-105.7251133647410057
 20
0.0000000000001315
 30
0.0
 11
-106.5999999999998948
 21
9.9999999999955325
 31
-0.0000000000000022
210
0.0
220
1.0
230
-0.0000000000000002
  0
LINE
  5
11A7
  8
0
  6
VERDECKT
 62
     1
 10
105.7251133647410057
 20
-0.0000000000000009
 30
0.0
 11
106.5999999999998948
 21
9.9999999999953975
 31
-0.0000000000000022
210
0.0
220
1.0
230
-0.0000000000000002
  0
ENDBLK
  5
11A9
  8
0
  0
ENDSEC
  0
SECTION
  2
ENTITIES
  0
INSERT
  5
117D
  8
DEFPOINTS
  2
A$C56A77D4E
 10
-0.0000000000001428
 20
-186.500000000000199
 30
0.0
  0
INSERT
  5
11AA
  8
DEFPOINTS
  2
A$C43711529
 10
0.0
 20
0.0
 30
0.0
  0
VIEWPORT
  5
D3E
 67
     1
  8
0
 10
6.5163738846806281
 20
9.3217834849873711
 30
0.0
 40
37.670959257796703
 41
19.1856744692762717
 68
     1
 69
     1
1001
ACAD
1000
MVIEW
1002
{
1070
    16
1010
0.0
1020
0.0
1030
0.0
1010
0.0
1020
0.0
1030
1.0
1040
0.0
1040
19.1856744692762717
1040
6.5163738846806281
1040
9.3217834849873711
1040
50.0
1040
0.0
1040
0.0
1070
     0
1070
  1500
1070
     1
1070
     1
1070
     0
1070
     0
1070
     0
1070
     0
1040
0.0
1040
0.0
1040
0.0
1040
10.0
1040
10.0
1040
10.0
1040
10.0
1070
     0
1002
{
1002
}
1002
}
  0
VIEWPORT
  5
D42
 67
     1
  8
DEFPOINTS
 10
6.5163148923038001
 20
9.3224348629680946
 30
0.0
 40
13.4400939428726005
 41
19.0355077886579096
 68
     2
 69
     2
1001
ACAD
1000
MVIEW
1002
{
1070
    16
1010
938.9688665916794434
1020
331.6632072441611854
1030
-141.1045314132636861
1010
0.0
1020
0.0
1030
1.0
1040
0.0
1040
615.5150838775385864
1040
-730.6210665877865722
1040
-27.8628036475877003
1040
50.0
1040
0.0
1040
0.0
1070
     0
1070
  1500
1070
     1
1070
     0
1070
     0
1070
     0
1070
     0
1070
     0
1040
0.0
1040
0.0
1040
0.0
1040
1.0
1040
1.0
1040
10.0
1040
10.0
1070
     0
1002
{
1002
}
1002
}
  0
VIEWPORT
  5
D46
 67
     1
  8
DEFPOINTS
 10
4.1435972211075258
 20
5.3398054145115452
 30
0.0
 40
3.1252241556079801
 41
3.2744389561081562
 68
     3
 69
     3
1001
ACAD
1000
MVIEW
1002
{
1070
    16
1010
868.550499404517268
1020
336.6817897580962722
1030
-185.5592723393214953
1010
232.9887442117895944
1020
221.5577115248954101
1030
535.2303857187206404
1040
2.3997968616508061
1040
379.4032097832823069
1040
0.0
1040
0.0
1040
50.0
1040
0.0
1040
0.0
1070
     0
1070
  1500
1070
     1
1070
     0
1070
     0
1070
     0
1070
     0
1070
     0
1040
0.0
1040
0.0
1040
0.0
1040
1.0
1040
1.0
1040
10.0
1040
10.0
1070
     0
1002
{
1002
}
1002
}
  0
ENDSEC
  0
EOF
