  0
SECTION
  2
HEADER
  9
$ACADVER
  1
AC1009
  9
$INSBASE
 10
509.9391017861535147
 20
-118.0350180316795985
 30
403.1361558984037856
  9
$EXTMIN
 10
-76.0000005427195902
 20
-176.0000005944498014
 30
-0.0000000116415251
  9
$EXTMAX
 10
76.1634340477480691
 20
259.9999990437162865
 30
-0.0000000116415251
  9
$LIMMIN
 10
0.0
 20
0.000000000000008
  9
$LIMMAX
 10
594.0
 20
840.0
  9
$ORTHOMODE
 70
     1
  9
$REGENMODE
 70
     1
  9
$FILLMODE
 70
     1
  9
$QTEXTMODE
 70
     0
  9
$MIRRTEXT
 70
     1
  9
$DRAGMODE
 70
     2
  9
$LTSCALE
 40
20.0
  9
$OSMODE
 70
   511
  9
$ATTMODE
 70
     1
  9
$TEXTSIZE
 40
2.0
  9
$TRACEWID
 40
1.0
  9
$TEXTSTYLE
  7
STANDARD
  9
$CLAYER
  8
0
  9
$CELTYPE
  6
BYLAYER
  9
$CECOLOR
 62
   256
  9
$DIMSCALE
 40
2.0
  9
$DIMASZ
 40
1.75
  9
$DIMEXO
 40
1.0
  9
$DIMDLI
 40
7.0
  9
$DIMRND
 40
0.0
  9
$DIMDLE
 40
0.0
  9
$DIMEXE
 40
1.0
  9
$DIMTP
 40
0.0
  9
$DIMTM
 40
0.0
  9
$DIMTXT
 40
3.5
  9
$DIMCEN
 40
1.5
  9
$DIMTSZ
 40
0.0
  9
$DIMTOL
 70
     0
  9
$DIMLIM
 70
     0
  9
$DIMTIH
 70
     0
  9
$DIMTOH
 70
     0
  9
$DIMSE1
 70
     0
  9
$DIMSE2
 70
     0
  9
$DIMTAD
 70
     1
  9
$DIMZIN
 70
     8
  9
$DIMBLK
  1

  9
$DIMASO
 70
     1
  9
$DIMSHO
 70
     0
  9
$DIMPOST
  1

  9
$DIMAPOST
  1

  9
$DIMALT
 70
     0
  9
$DIMALTD
 70
     2
  9
$DIMALTF
 40
25.3999999999999986
  9
$DIMLFAC
 40
2.0
  9
$DIMTOFL
 70
     1
  9
$DIMTVP
 40
0.0
  9
$DIMTIX
 70
     0
  9
$DIMSOXD
 70
     0
  9
$DIMSAH
 70
     0
  9
$DIMBLK1
  1

  9
$DIMBLK2
  1

  9
$DIMSTYLE
  2
STANDARD
  9
$DIMCLRD
 70
     0
  9
$DIMCLRE
 70
     0
  9
$DIMCLRT
 70
     1
  9
$DIMTFAC
 40
0.5142857142857143
  9
$DIMGAP
 40
0.75
  9
$LUNITS
 70
     2
  9
$LUPREC
 70
     2
  9
$SKETCHINC
 40
1.0
  9
$FILLETRAD
 40
6.5
  9
$AUNITS
 70
     0
  9
$AUPREC
 70
     0
  9
$MENU
  1
ACAD
  9
$ELEVATION
 40
0.0
  9
$PELEVATION
 40
0.0
  9
$THICKNESS
 40
0.0
  9
$LIMCHECK
 70
     0
  9
$BLIPMODE
 70
     0
  9
$CHAMFERA
 40
0.0
  9
$CHAMFERB
 40
0.0
  9
$SKPOLY
 70
     0
  9
$TDCREATE
 40
2455397.867048610933125
  9
$TDUPDATE
 40
2461013.3233333327807486
  9
$TDINDWG
 40
2.7037569097
  9
$TDUSRTIMER
 40
2.7037569097
  9
$USRTIMER
 70
     1
  9
$ANGBASE
 50
0.0
  9
$ANGDIR
 70
     0
  9
$PDMODE
 70
     0
  9
$PDSIZE
 40
0.0
  9
$PLINEWID
 40
0.0
  9
$COORDS
 70
     1
  9
$SPLFRAME
 70
     0
  9
$SPLINETYPE
 70
     6
  9
$SPLINESEGS
 70
     8
  9
$ATTDIA
 70
     1
  9
$ATTREQ
 70
     1
  9
$HANDLING
 70
     1
  9
$HANDSEED
  5
41D8A
  9
$SURFTAB1
 70
     6
  9
$SURFTAB2
 70
     6
  9
$SURFTYPE
 70
     6
  9
$SURFU
 70
     6
  9
$SURFV
 70
     6
  9
$UCSNAME
  2

  9
$UCSORG
 10
0.0
 20
0.0
 30
0.0
  9
$UCSXDIR
 10
1.0
 20
0.0
 30
0.0
  9
$UCSYDIR
 10
0.0
 20
1.0
 30
0.0
  9
$PUCSNAME
  2

  9
$PUCSORG
 10
0.0
 20
0.0
 30
0.0
  9
$PUCSXDIR
 10
1.0
 20
0.0
 30
0.0
  9
$PUCSYDIR
 10
0.0
 20
1.0
 30
0.0
  9
$USERI1
 70
     0
  9
$USERI2
 70
     0
  9
$USERI3
 70
     0
  9
$USERI4
 70
     0
  9
$USERI5
 70
     0
  9
$USERR1
 40
0.0
  9
$USERR2
 40
0.0
  9
$USERR3
 40
0.0
  9
$USERR4
 40
0.0
  9
$USERR5
 40
0.0
  9
$WORLDVIEW
 70
     1
  9
$SHADEDGE
 70
     3
  9
$SHADEDIF
 70
    70
  9
$TILEMODE
 70
     1
  9
$MAXACTVP
 70
    16
  9
$PLIMCHECK
 70
     0
  9
$PEXTMIN
 10
-0.0000000000001705
 20
-0.0000000000000658
 30
-0.0000000000001227
  9
$PEXTMAX
 10
296.5
 20
419.5000000000001137
 30
0.0000000000000568
  9
$PLIMMIN
 10
-0.2499987925309597
 20
-0.2493755087442651
  9
$PLIMMAX
 10
296.7500012074689835
 20
419.7506244912556781
  9
$UNITMODE
 70
     0
  9
$VISRETAIN
 70
     0
  9
$PLINEGEN
 70
     0
  9
$PSLTSCALE
 70
     0
  0
ENDSEC
  0
SECTION
  2
TABLES
  0
TABLE
  2
VPORT
 70
     1
  0
VPORT
  2
*ACTIVE
 70
     0
 10
0.0
 20
0.0
 11
1.0
 21
1.0
 12
0.0817167525142395
 22
-50.0000007753667433
 13
0.0
 23
0.0
 14
1.0
 24
1.0
 15
10.0
 25
10.0
 16
-0.0000000000008551
 26
0.0
 36
3850.9615614393492251
 17
0.0
 27
92.0
 37
-0.0000000000000289
 40
438.2084838111239833
 41
1.8538851351351351
 42
207.9750642040503124
 43
0.0
 44
0.0
 50
0.0
 51
0.0
 71
     0
 72
  1500
 73
     1
 74
     0
 75
     0
 76
     0
 77
     0
 78
     0
  0
ENDTAB
  0
TABLE
  2
LTYPE
 70
    13
  0
LTYPE
  2
CONTINUOUS
 70
     0
  3
Solid line
 72
    65
 73
     0
 40
0.0
  0
LTYPE
  2
STRICHPUNKT
 70
     0
  3
__ . __ . __ . __ . __ . __ . __ . __ . __ . __
 72
    65
 73
     4
 40
1.0
 49
0.5
 49
-0.25
 49
0.0
 49
-0.25
  0
LTYPE
  2
HIDDEN
 70
     0
  3
Hidden __ __ __ __ __ __ __ __ __ __ __ __ __ __
 72
    65
 73
     2
 40
0.375
 49
0.25
 49
-0.125
  0
LTYPE
  2
PHANTOM2
 70
     0
  3
Phantom (.5x) ___ _ _ ___ _ _ ___ _ _ ___ _ _
 72
    65
 73
     6
 40
1.25
 49
0.625
 49
-0.125
 49
0.125
 49
-0.125
 49
0.125
 49
-0.125
  0
LTYPE
  2
CENTER
 70
     0
  3
Center ____ _ ____ _ ____ _ ____ _ ____ _ ____
 72
    65
 73
     4
 40
2.0
 49
1.25
 49
-0.25
 49
0.25
 49
-0.25
  0
LTYPE
  2
AMCONSTR
 70
     0
  3
_______________________
 72
    65
 73
     2
 40
9999.0
 49
9999.0
 49
0.0
  0
LTYPE
  2
CENTER2
 70
     0
  3
Center (.5x) ___ _ ___ _ ___ _ ___ _ ___ _ ___
 72
    65
 73
     4
 40
1.125
 49
0.75
 49
-0.125
 49
0.125
 49
-0.125
  0
LTYPE
  2
HIDDEN2
 70
     0
  3
Hidden (.5x) _ _ _ _ _ _ _ _ _ _ _ _ _ _ _ _ _
 72
    65
 73
     2
 40
0.1875
 49
0.125
 49
-0.0625
  0
LTYPE
  2
AMZIGZAG2
 70
     0
  3
/\/-/\/-/\/-/\/-/\/-/\/
 72
    65
 73
     2
 40
0.4401
 49
0.0001
 49
-0.4400000000000001
  0
LTYPE
  2
ACANSTGB
 70
     0
  3
__ . . __ . .
 72
    65
 73
     6
 40
0.35433070866
 49
0.15748031496
 49
-0.03937007874
 49
0.03937007874
 49
-0.03937007874
 49
0.03937007874
 49
-0.03937007874
  0
LTYPE
  2
ACANSTGL
 70
     0
  3
_ _ _ _ _
 72
    65
 73
     2
 40
0.11811023622
 49
0.07874015748
 49
-0.03937007874
  0
LTYPE
  2
AUSGEZOGEN
 70
     0
  3
Ausgezogene Linie
 72
    65
 73
     0
 40
0.0
  0
LTYPE
  2
VERDECKT
 70
     0
  3
Verdeckt __ __ __ __ __ __ __ __ __ __ __ __ __
 72
    65
 73
     2
 40
0.375
 49
0.25
 49
-0.125
  0
ENDTAB
  0
TABLE
  2
LAYER
 70
     5
  0
LAYER
  2
0
 70
     0
 62
     7
  6
CONTINUOUS
  0
LAYER
  2
VOLL
 70
     0
 62
     1
  6
CONTINUOUS
  0
LAYER
  2
DEFPOINTS
 70
     0
 62
     7
  6
CONTINUOUS
  0
LAYER
  2
ADSK_ASSOC_ENTITY_BACKUPS
 70
     1
 62
    -7
  6
CONTINUOUS
  0
ENDTAB
  0
TABLE
  2
STYLE
 70
     5
  0
STYLE
  2
STANDARD
 70
     0
 40
3.5
 41
0.8
 50
0.0
 71
     0
 42
2.0
  3
simplex.shx
  4

  0
STYLE
  2
GREEKS
 70
     0
 40
0.0
 41
0.8
 50
0.0
 71
     0
 42
2.5
  3
SIMPLEX.shx
  4

  0
STYLE
  2

 70
     1
 40
0.0
 41
1.0
 50
0.0
 71
     0
 42
2.5
  3
genltshp.shx
  4

  0
STYLE
  2
ACANSGDT
 70
     0
 40
0.0
 41
1.0
 50
0.0
 71
     0
 42
2.5
  3
amgdt.shx
  4

  0
ENDTAB
  0
TABLE
  2
VIEW
 70
     0
  0
ENDTAB
  0
TABLE
  2
UCS
 70
     0
  0
ENDTAB
  0
TABLE
  2
APPID
 70
    50
  0
APPID
  2
ACAD
 70
     0
  0
APPID
  2
ACAD_NAV_VCDISPLAY
 70
     0
  0
APPID
  2
GRADIENTCOLOR1ACI
 70
     0
  0
APPID
  2
GRADIENTCOLOR2ACI
 70
     0
  0
APPID
  2
ACAD_DSTYLE_DIMRADIAL_EXTENSION
 70
     0
  0
APPID
  2
ACADANNOMONITORALERTICONDI
 70
     0
  0
APPID
  2
ACAD_EXEMPT_FROM_CAD_STANDARDS
 70
     0
  0
APPID
  2
ACAD_MLEADERVER
 70
     0
  0
APPID
  2
ACAD_PSEXT
 70
     0
  0
APPID
  2
ACAECLAYERSTANDARD
 70
     0
  0
APPID
  2
ACCMTRANSPARENCY
 70
     0
  0
APPID
  2
ACAD_OBJECT_CHANGE_GUID
 70
     0
  0
APPID
  2
MCAD_NO_VIS
 70
     0
  0
APPID
  2
ACAD_TEMP_GRAPHIC
 70
     0
  0
APPID
  2
ACATTRIBSERVICES
 70
     0
  0
APPID
  2
DESIGNERASSEMBLIES
 70
     0
  0
APPID
  2
ACAD_DSTYLE_DIMJAG
 70
     0
  0
APPID
  2
ACAD_DSTYLE_DIMBREAK
 70
     0
  0
APPID
  2
GENIUS_GENSCREG_15
 70
     0
  0
APPID
  2
GENIUS_GENOBJ-N-SDF_13
 70
     0
  0
APPID
  2
GENIUS_GENODEF_13
 70
     0
  0
APPID
  2
ACAD_STEPID
 70
     0
  0
APPID
  2
ACAD_DSTYLE_DIMARC_LENGTH_
 70
     0
  0
APPID
  2
ACAD_DSTYLE_DIM_LINETYPE
 70
     0
  0
APPID
  2
ACAD_DSTYLE_DIM_EXT1_LINETYPE
 70
     0
  0
APPID
  2
ACAD_DSTYLE_DIM_EXT2_LINETYPE
 70
     0
  0
APPID
  2
RAK
 70
     0
  0
APPID
  2
ACADANNOPO
 70
     0
  0
APPID
  2
ACSYNERGY
 70
     0
  0
APPID
  2
SYNERGY_BODY_TBR_ID
 70
     0
  0
APPID
  2
ACAD_VIEW_EDGE_ID
 70
     0
  0
APPID
  2
ACSYNERGYSKETCH
 70
     0
  0
APPID
  2
ACAD_MODELDOC_XFORM
 70
     0
  0
APPID
  2
GENIUS_GENDTOL_13
 70
     0
  0
APPID
  2
ACAD_DSTYLE_DIMINSPECT
 70
     0
  0
APPID
  2
ACAD_DSTYLE_DIMANGULAR_EXT
 70
     0
  0
APPID
  2
PLOTTRANSPARENCY
 70
     0
  0
APPID
  2
ACAUTHENVIRON
 70
     0
  0
APPID
  2
ACDBDYNAMICBLOCKTRUENAME
 70
     0
  0
APPID
  2
ACDBDYNAMICBLOCKGUID
 70
     0
  0
APPID
  2
PE_URL
 70
     0
  0
APPID
  2
ACADANNOAV
 70
     0
  0
APPID
  2
ACAD_TC
 70
     0
  0
APPID
  2
ACAD_DIMASSOC_CALC_DIMLFAC
 70
     0
  0
APPID
  2
ACAD_DIMASSOC_DIMLFAC
 70
     0
  0
APPID
  2
ACAD_DIMASSOC_OVERRIDDEN_D
 70
     0
  0
APPID
  2
ACAD_DSTYLE_DIMTALN
 70
     0
  0
APPID
  2
ACADANNOTATIVE
 70
     0
  0
APPID
  2
HATCHBACKGROUNDCOLOR
 70
     0
  0
APPID
  2
ACDBDYNAMICBLOCKTRUENAME2
 70
     0
  0
ENDTAB
  0
TABLE
  2
DIMSTYLE
 70
     8
  0
DIMSTYLE
  2
STANDARD
 70
     0
  3

  4

  5

  6

  7

 40
1.0
 41
0.18
 42
0.0625
 43
0.38
 44
0.18
 45
0.0
 46
0.0
 47
0.0
 48
0.0
140
0.18
141
0.09
142
0.0
143
25.3999999999999986
144
1.0
145
0.0
146
1.0
147
0.09
 71
     0
 72
     0
 73
     1
 74
     1
 75
     0
 76
     0
 77
     0
 78
     0
170
     0
171
     2
172
     0
173
     0
174
     0
175
     0
176
     0
177
     0
178
     0
  0
DIMSTYLE
  2
AM_ANSI
 70
     0
  3

  4
mm
  5

  6

  7

 40
1.0
 41
0.12
 42
0.05
 43
0.5
 44
0.1
 45
0.0
 46
0.0
 47
0.1
 48
0.1
140
0.12
141
0.0
142
0.0
143
25.3999999999999986
144
1.0
145
0.0
146
0.71
147
0.06
 71
     0
 72
     0
 73
     1
 74
     1
 75
     0
 76
     0
 77
     0
 78
     7
170
     0
171
     2
172
     0
173
     0
174
     0
175
     0
176
   256
177
   256
178
   255
  0
DIMSTYLE
  2
AM_ANSI$3
 70
     0
  3

  4
mm
  5

  6

  7

 40
1.0
 41
0.12
 42
0.05
 43
0.5
 44
0.1
 45
0.0
 46
0.0
 47
0.1
 48
0.1
140
0.12
141
0.0
142
0.0
143
25.3999999999999986
144
1.0
145
0.0
146
0.71
147
0.06
 71
     0
 72
     0
 73
     1
 74
     1
 75
     0
 76
     0
 77
     0
 78
     7
170
     0
171
     2
172
     0
173
     0
174
     0
175
     0
176
   256
177
   256
178
   255
  0
DIMSTYLE
  2
AM_ANSI$4
 70
     0
  3

  4
mm
  5

  6

  7

 40
1.0
 41
0.12
 42
0.05
 43
0.5
 44
0.1
 45
0.0
 46
0.0
 47
0.1
 48
0.1
140
0.12
141
0.0
142
0.0
143
25.3999999999999986
144
1.0
145
0.0
146
0.71
147
0.06
 71
     0
 72
     0
 73
     1
 74
     1
 75
     0
 76
     0
 77
     0
 78
     7
170
     0
171
     2
172
     0
173
     0
174
     0
175
     0
176
   256
177
   256
178
   255
  0
DIMSTYLE
  2
AM_ANSI$7
 70
     0
  3

  4
mm
  5

  6

  7

 40
1.0
 41
0.12
 42
0.05
 43
0.5
 44
0.1
 45
0.0
 46
0.0
 47
0.1
 48
0.1
140
0.12
141
0.0
142
0.0
143
25.3999999999999986
144
1.0
145
0.0
146
0.71
147
0.06
 71
     0
 72
     0
 73
     1
 74
     1
 75
     0
 76
     0
 77
     0
 78
     7
170
     0
171
     2
172
     0
173
     0
174
     0
175
     0
176
   256
177
   256
178
   255
  0
DIMSTYLE
  2
AM_ANSI$SF
 70
     0
  3

  4
mm
  5

  6

  7

 40
1.0
 41
0.12
 42
0.05
 43
0.5
 44
0.1
 45
0.0
 46
0.0
 47
0.1
 48
0.1
140
0.12
141
0.0
142
0.0
143
25.3999999999999986
144
1.0
145
0.0
146
0.71
147
0.06
 71
     0
 72
     0
 73
     1
 74
     1
 75
     1
 76
     1
 77
     0
 78
     7
170
     0
171
     2
172
     0
173
     0
174
     0
175
     0
176
   256
177
   256
178
   255
  0
DIMSTYLE
  2
AM_ANSI$SH
 70
     0
  3

  4
mm
  5

  6
GENAXEH
  7

 40
1.0
 41
0.12
 42
0.05
 43
0.5
 44
0.1
 45
0.0
 46
0.0
 47
0.1
 48
0.1
140
0.12
141
0.0
142
0.0
143
25.3999999999999986
144
1.0
145
0.0
146
0.71
147
0.06
 71
     0
 72
     0
 73
     1
 74
     1
 75
     1
 76
     1
 77
     0
 78
     7
170
     0
171
     2
172
     0
173
     1
174
     0
175
     0
176
   256
177
   256
178
   255
  0
DIMSTYLE
  2
AM_ANSI$0
 70
     0
  3

  4
"
  5

  6

  7

 40
1.0
 41
3.5
 42
1.0
 43
10.0
 44
1.0
 45
0.0
 46
0.0
 47
0.1
 48
0.1
140
3.5
141
0.0
142
0.0
143
0.0393701
144
1.0
145
0.0
146
0.71
147
1.5
 71
     0
 72
     0
 73
     1
 74
     1
 75
     0
 76
     0
 77
     0
 78
     8
170
     0
171
     2
172
     0
173
     0
174
     0
175
     0
176
   256
177
   256
178
     2
  0
ENDTAB
  0
ENDSEC
  0
SECTION
  2
BLOCKS
  0
BLOCK
  8
0
  2
$MODEL_SPACE
 70
     0
 10
0.0
 20
0.0
 30
0.0
  3
$MODEL_SPACE
  1

  0
ENDBLK
  5
38
  8
0
  0
BLOCK
 67
     1
  8
0
  2
$PAPER_SPACE
 70
     2
 10
0.0
 20
0.0
 30
0.0
  3
$PAPER_SPACE
  1

  0
ENDBLK
  5
36
 67
     1
  8
0
  0
BLOCK
  8
0
  2
GENAXEH
 70
     0
 10
0.0
 20
0.0
 30
0.0
  3
GENAXEH
  1

  0
LINE
  5
1721
  8
0
 10
-1.0
 20
0.0
 30
0.0
 11
1.0
 21
0.0
 31
0.0
  0
ENDBLK
  5
1723
  8
0
  0
BLOCK
  8
0
  2
*S1
 70
     1
 10
0.0
 20
0.0
 30
0.0
  3
*S1
  1

  0
ENDBLK
  5
2101
  8
0
  0
BLOCK
  8
0
  2
*U2
 70
     1
 10
0.0
 20
0.0
 30
0.0
  3
*U2
  1

  0
ENDBLK
  5
3EBB
  8
0
  0
BLOCK
  8
0
  2
A$C65DAC2ED
 70
     0
 10
0.0
 20
0.0
 30
0.0
  3
A$C65DAC2ED
  1

  0
CIRCLE
  5
41CCE
  8
0
  6
CONTINUOUS
 62
     3
 10
0.0000000000000577
 20
0.0000000000000073
 30
0.0
 40
72.7402318613732177
  0
CIRCLE
  5
41CCF
  8
0
  6
CONTINUOUS
 62
     3
 10
0.0000000000000547
 20
0.0000000000000065
 30
0.0
 40
76.0
  0
CIRCLE
  5
41CD0
  8
0
  6
CONTINUOUS
 62
     3
 10
0.0000000000000575
 20
0.0000000000000073
 30
0.0
 40
70.5118792062587829
  0
CIRCLE
  5
41CD1
  8
0
  6
CONTINUOUS
 62
     3
 10
0.0000000000000482
 20
0.0000000000000047
 30
0.0
 40
69.0
  0
CIRCLE
  5
41CD2
  8
0
  6
CONTINUOUS
 62
     3
 10
0.0000000000000394
 20
0.0000000000000023
 30
0.0
 40
64.0
  0
CIRCLE
  5
41CD3
  8
0
  6
CONTINUOUS
 62
     3
 10
0.0000000000000314
 20
0.0000000000000001
 30
0.0
 40
57.0
  0
CIRCLE
  5
41CD4
  8
0
  6
CONTINUOUS
 62
     3
 10
0.0000000000000261
 20
-0.0000000000000014
 30
0.0
 40
49.0
  0
CIRCLE
  5
41CD5
  8
0
  6
CONTINUOUS
 62
     3
 10
0.0
 20
-0.0000000000000086
 30
0.0
 40
48.5069084835102515
  0
CIRCLE
  5
41CD6
  8
0
  6
VERDECKT
 62
     1
 10
0.0000000000000547
 20
0.0000000000000065
 30
0.0
 40
73.4999999999999858
  0
CIRCLE
  5
41CD7
  8
0
  6
VERDECKT
 62
     1
 10
0.0000000000000311
 20
0.0
 30
0.0
 40
59.0
  0
CIRCLE
  5
41CD8
  8
0
  6
VERDECKT
 62
     1
 10
0.0000000000000394
 20
0.0000000000000023
 30
0.0
 40
66.5
  0
CIRCLE
  5
41CD9
  8
0
  6
VERDECKT
 62
     1
 10
0.0000000000000482
 20
0.0000000000000047
 30
0.0
 40
71.5
  0
CIRCLE
  5
41CDA
  8
0
  6
VERDECKT
 62
     1
 10
0.0000000000000262
 20
-0.0000000000000013
 30
0.0
 40
51.0000000000000071
  0
CIRCLE
  5
41CDB
  8
0
  6
VERDECKT
 62
     1
 10
0.0
 20
-0.0000000000000086
 30
0.0
 40
50.5
  0
CIRCLE
  5
41CDC
  8
0
  6
VERDECKT
 62
     1
 10
0.0000000000000311
 20
0.0
 30
0.0
 40
57.1533940052563523
  0
ENDBLK
  5
41CDE
  8
0
  0
BLOCK
  8
0
  2
A$C70F7EB4F
 70
     0
 10
0.0
 20
0.0
 30
0.0
  3
A$C70F7EB4F
  1

  0
LINE
  5
41CE2
  8
0
  6
CONTINUOUS
 62
     3
 10
72.7402318613732177
 20
260.0
 30
-0.0000000000000577
 11
-72.7402318613732177
 21
260.0
 31
-0.0000000000000577
210
0.0
220
1.0
230
-0.0000000000000002
  0
LINE
  5
41CE3
  8
0
  6
CONTINUOUS
 62
     3
 10
59.0000000000000071
 20
140.0
 30
-0.0000000000000311
 11
-58.9999999999999929
 21
140.0
 31
-0.0000000000000311
210
0.0
220
1.0
230
-0.0000000000000002
  0
ARC
  5
41CE4
  8
0
  6
CONTINUOUS
 62
     3
 10
-46.0000000000000426
 20
246.4000000000000057
 30
0.0
 40
29.9999999999999609
210
0.0
220
-0.0000000000000002
230
-1.0
 50
153.0422508607167913
 51
180.0
  0
ARC
  5
41CE5
  8
0
  6
CONTINUOUS
 62
     3
 10
46.0000000000000426
 20
246.4000000000000057
 30
0.0
 40
29.9999999999999503
210
0.0
220
-0.0000000000000002
230
-1.0
 50
0.0
 51
26.9577491392831696
  0
LINE
  5
41CE6
  8
0
  6
CONTINUOUS
 62
     3
 10
-59.0000000000000071
 20
140.0
 30
-0.0000000000000311
 11
-64.0000000000000142
 21
146.666666666666714
 31
-0.0000000000000326
210
0.0
220
1.0
230
-0.0000000000000002
  0
LINE
  5
41CE7
  8
0
  6
CONTINUOUS
 62
     3
 10
58.9999999999999929
 20
140.0
 30
-0.0000000000000311
 11
64.0
 21
146.6666666666666003
 31
-0.0000000000000326
210
0.0
220
1.0
230
-0.0000000000000002
  0
ARC
  5
41CE8
  8
0
  6
CONTINUOUS
 62
     3
 10
-54.0000000000001492
 20
154.1666666666666003
 30
0.0
 40
12.4999999999998508
210
0.0
220
-0.0000000000000002
230
-1.0
 50
179.9999999999996874
 51
216.8698976458441905
  0
ARC
  5
41CE9
  8
0
  6
CONTINUOUS
 62
     3
 10
54.0000000000001492
 20
154.1666666666666003
 30
0.0
 40
12.4999999999998508
210
0.0
220
-0.0000000000000002
230
-1.0
 50
323.1301023541557811
 51
0.0000000000002404
  0
LINE
  5
41CEA
  8
0
  6
CONTINUOUS
 62
     3
 10
-66.5
 20
154.166666666666714
 30
-0.0000000000000342
 11
-66.5
 21
177.4999999999998863
 31
-0.0000000000000394
210
0.0
220
1.0
230
-0.0000000000000002
  0
LINE
  5
41CEB
  8
0
  6
CONTINUOUS
 62
     3
 10
66.5
 20
154.166666666666714
 30
-0.0000000000000342
 11
66.5
 21
177.5
 31
-0.0000000000000394
210
0.0
220
1.0
230
-0.0000000000000002
  0
ARC
  5
41CEC
  8
0
  6
CONTINUOUS
 62
     3
 10
-76.5000000000001847
 20
177.4999999999998863
 30
0.0
 40
10.0000000000002007
210
0.0
220
-0.0000000000000002
230
-1.0
 50
0.0000000000003308
 51
32.779080668069227
  0
ARC
  5
41CED
  8
0
  6
CONTINUOUS
 62
     3
 10
76.5000000000001847
 20
177.4999999999998863
 30
0.0
 40
10.0000000000001901
210
0.0
220
-0.0000000000000002
230
-1.0
 50
147.2209193319307872
 51
179.9999999999996021
  0
LINE
  5
41CEE
  8
0
  6
CONTINUOUS
 62
     3
 10
-68.0923566878980751
 20
182.9140127388535007
 30
-0.0000000000000406
 11
-68.633757961783445
 21
183.7547770700637102
 31
-0.0000000000000408
210
0.0
220
1.0
230
-0.0000000000000002
  0
LINE
  5
41CEF
  8
0
  6
CONTINUOUS
 62
     3
 10
68.0923566878980893
 20
182.9140127388535007
 30
-0.0000000000000406
 11
68.633757961783445
 21
183.7547770700637102
 31
-0.0000000000000408
210
0.0
220
1.0
230
-0.0000000000000002
  0
ARC
  5
41CF0
  8
0
  6
CONTINUOUS
 62
     3
 10
-53.499999999999801
 20
193.5000000000001137
 30
0.0
 40
18.000000000000199
210
0.0
220
-0.0000000000000002
230
-1.0
 50
180.0000000000001137
 51
212.7790806680694118
  0
ARC
  5
41CF1
  8
0
  6
CONTINUOUS
 62
     3
 10
53.499999999999801
 20
193.5000000000001137
 30
0.0
 40
18.000000000000199
210
0.0
220
-0.0000000000000002
230
-1.0
 50
327.2209193319305882
 51
359.9999999999997726
  0
LINE
  5
41CF2
  8
0
  6
CONTINUOUS
 62
     3
 10
-71.5
 20
193.5
 30
-0.000000000000043
 11
-71.5
 21
217.0
 31
-0.0000000000000482
210
0.0
220
1.0
230
-0.0000000000000002
  0
LINE
  5
41CF3
  8
0
  6
CONTINUOUS
 62
     3
 10
71.5
 20
193.5
 30
-0.000000000000043
 11
71.5
 21
217.0
 31
-0.0000000000000482
210
0.0
220
1.0
230
-0.0000000000000002
  0
ARC
  5
41CF4
  8
0
  6
CONTINUOUS
 62
     3
 10
-89.4999999999997158
 20
217.0000000000001137
 30
0.0
 40
17.9999999999997087
210
0.0
220
-0.0000000000000002
230
-1.0
 50
359.9999999999997726
 51
24.3209090993497803
  0
ARC
  5
41CF5
  8
0
  6
CONTINUOUS
 62
     3
 10
89.4999999999997158
 20
217.0000000000001137
 30
0.0
 40
17.9999999999997087
210
0.0
220
-0.0000000000000002
230
-1.0
 50
155.6790909006502091
 51
180.0000000000001137
  0
LINE
  5
41CF6
  8
0
  6
CONTINUOUS
 62
     3
 10
-73.0974452631827631
 20
224.4132447757856994
 30
-0.0000000000000498
 11
-73.3375912280287565
 21
224.9445920403572075
 31
-0.0000000000000499
210
0.0
220
1.0
230
-0.0000000000000002
  0
LINE
  5
41CF7
  8
0
  6
CONTINUOUS
 62
     3
 10
73.0974452631827631
 20
224.4132447757856994
 30
-0.0000000000000498
 11
73.3375912280287565
 21
224.9445920403572075
 31
-0.0000000000000499
210
0.0
220
1.0
230
-0.0000000000000002
  0
ARC
  5
41CF8
  8
0
  6
CONTINUOUS
 62
     3
 10
-45.9999999999996305
 20
237.3000000000000966
 30
0.0
 40
30.0000000000003695
210
0.0
220
-0.0000000000000002
230
-1.0
 50
180.0
 51
204.3209090993493078
  0
ARC
  5
41CF9
  8
0
  6
CONTINUOUS
 62
     3
 10
45.9999999999996305
 20
237.3000000000000966
 30
0.0
 40
30.0000000000003588
210
0.0
220
-0.0000000000000002
230
-1.0
 50
335.6790909006505785
 51
359.9999999999998863
  0
LINE
  5
41CFA
  8
0
  6
CONTINUOUS
 62
     3
 10
-76.0
 20
237.3000000000000966
 30
-0.0000000000000527
 11
-76.0
 21
246.4000000000000057
 31
-0.0000000000000547
210
0.0
220
1.0
230
-0.0000000000000002
  0
LINE
  5
41CFB
  8
0
  6
CONTINUOUS
 62
     3
 10
76.0
 20
237.3000000000000966
 30
-0.0000000000000527
 11
76.0
 21
246.4000000000000057
 31
-0.0000000000000547
210
0.0
220
1.0
230
-0.0000000000000002
  0
LINE
  5
41CFC
  8
0
  6
CONTINUOUS
 62
     3
 10
50.5
 20
0.0
 30
0.0
 11
-50.5
 21
0.0
 31
0.0
210
0.0
220
1.0
230
-0.0000000000000002
  0
LINE
  5
41CFD
  8
0
  6
CONTINUOUS
 62
     3
 10
59.0
 20
139.2318552871051054
 30
-0.0000000000000309
 11
-59.0
 21
139.2318552871051054
 31
-0.0000000000000309
210
0.0
220
1.0
230
-0.0000000000000002
  0
ARC
  5
41CFE
  8
0
  6
CONTINUOUS
 62
     3
 10
-37.0000000000031193
 20
6.5823241030918664
 30
0.0
 40
13.9999999999968807
210
0.0
220
-0.0000000000000002
230
-1.0
 50
179.9999999999992895
 51
184.7636416907263879
  0
ARC
  5
41CFF
  8
0
  6
CONTINUOUS
 62
     3
 10
37.0000000000031903
 20
6.5823241030918647
 30
0.0
 40
13.9999999999968203
210
0.0
220
-0.0000000000000002
230
-1.0
 50
355.2363583092733847
 51
0.0000000000006361
  0
LINE
  5
41D00
  8
0
  6
CONTINUOUS
 62
     3
 10
-51.0000000000000071
 20
6.582324103092021
 30
-0.0000000000000015
 11
-51.0000000000000071
 21
118.0030585041567974
 31
-0.0000000000000262
210
0.0
220
1.0
230
-0.0000000000000002
  0
LINE
  5
41D01
  8
0
  6
CONTINUOUS
 62
     3
 10
51.0000000000000071
 20
6.582324103092021
 30
-0.0000000000000015
 11
51.0000000000000071
 21
118.0030585041567974
 31
-0.0000000000000262
210
0.0
220
1.0
230
-0.0000000000000002
  0
LINE
  5
41D02
  8
0
  6
CONTINUOUS
 62
     3
 10
-50.5000000000000071
 20
-0.0000000000000009
 30
0.0
 11
-50.9516406154283104
 21
5.4196873851396683
 31
-0.0000000000000012
210
0.0
220
1.0
230
-0.0000000000000002
  0
LINE
  5
41D03
  8
0
  6
CONTINUOUS
 62
     3
 10
50.5000000000000071
 20
-0.0000000000000009
 30
0.0
 11
50.9516406154283104
 21
5.4196873851396683
 31
-0.0000000000000012
210
0.0
220
1.0
230
-0.0000000000000002
  0
ARC
  5
41D04
  8
0
  6
CONTINUOUS
 62
     3
 10
-60.9999999999999432
 20
118.0030585041567974
 30
0.0
 40
9.9999999999999361
210
0.0
220
-0.0000000000000002
230
-1.0
 50
0.0
 51
22.5861630860245306
  0
ARC
  5
41D05
  8
0
  6
CONTINUOUS
 62
     3
 10
61.0000000000000426
 20
118.0030585041567974
 30
0.0
 40
10.0000000000000302
210
0.0
220
-0.0000000000000002
230
-1.0
 50
157.4138369139755866
 51
180.0
  0
LINE
  5
41D06
  8
0
  6
CONTINUOUS
 62
     3
 10
-51.766970026018079
 20
121.843782068740893
 30
-0.0000000000000271
 11
-59.0
 21
139.2318552871051054
 31
-0.0000000000000309
210
0.0
220
1.0
230
-0.0000000000000002
  0
LINE
  5
41D07
  8
0
  6
CONTINUOUS
 62
     3
 10
51.7669700260180718
 20
121.843782068740893
 30
-0.0000000000000271
 11
59.0
 21
139.2318552871051054
 31
-0.0000000000000309
210
0.0
220
1.0
230
-0.0000000000000002
  0
LINE
  5
41D08
  8
0
  6
CONTINUOUS
 62
     3
 10
57.1533940052563523
 20
140.0
 30
-0.0000000000000311
 11
59.0
 21
139.2318552871051054
 31
-0.0000000000000309
210
0.0
220
1.0
230
-0.0000000000000002
  0
LINE
  5
41D09
  8
0
  6
CONTINUOUS
 62
     3
 10
-57.1533940052563523
 20
140.0
 30
-0.0000000000000311
 11
-59.0
 21
139.2318552871051054
 31
-0.0000000000000309
210
0.0
220
1.0
230
-0.0000000000000002
  0
LINE
  5
41D0A
  8
0
  6
VERDECKT
 62
     1
 10
70.5118792062587829
 20
258.8666666666667879
 30
-0.0000000000000575
 11
-70.5118792062587829
 21
258.8666666666667879
 31
-0.0000000000000575
210
0.0
220
1.0
230
-0.0000000000000002
  0
LINE
  5
41D0B
  8
0
  6
VERDECKT
 62
     1
 10
57.0
 20
141.5
 30
-0.0000000000000314
 11
-57.0
 21
141.5
 31
-0.0000000000000314
210
0.0
220
1.0
230
-0.0000000000000002
  0
LINE
  5
41D0C
  8
0
  6
VERDECKT
 62
     1
 10
-70.5118792062587829
 20
258.8666666666667879
 30
-0.0000000000000575
 11
-72.7402318613732177
 21
260.0
 31
-0.0000000000000577
210
0.0
220
1.0
230
-0.0000000000000002
  0
LINE
  5
41D0D
  8
0
  6
VERDECKT
 62
     1
 10
70.5118792062587829
 20
258.8666666666667879
 30
-0.0000000000000575
 11
72.7402318613732177
 21
260.0
 31
-0.0000000000000577
210
0.0
220
1.0
230
-0.0000000000000002
  0
ARC
  5
41D0E
  8
0
  6
VERDECKT
 62
     1
 10
-46.0000000000002771
 20
246.4000000000000909
 30
0.0
 40
27.4999999999997193
210
0.0
220
-0.0000000000000002
230
-1.0
 50
153.042250860716706
 51
180.0000000000001137
  0
ARC
  5
41D0F
  8
0
  6
VERDECKT
 62
     1
 10
46.0000000000002771
 20
246.4000000000000909
 30
0.0
 40
27.4999999999997193
210
0.0
220
-0.0000000000000002
230
-1.0
 50
359.9999999999997726
 51
26.9577491392832584
  0
LINE
  5
41D10
  8
0
  6
VERDECKT
 62
     1
 10
-73.5
 20
237.3000000000000966
 30
-0.0000000000000527
 11
-73.5
 21
246.4000000000000057
 31
-0.0000000000000547
210
0.0
220
1.0
230
-0.0000000000000002
  0
LINE
  5
41D11
  8
0
  6
VERDECKT
 62
     1
 10
73.5
 20
237.3000000000000966
 30
-0.0000000000000527
 11
73.5
 21
246.4000000000000057
 31
-0.0000000000000547
210
0.0
220
1.0
230
-0.0000000000000002
  0
ARC
  5
41D12
  8
0
  6
VERDECKT
 62
     1
 10
-46.00000000000027
 20
237.3000000000000114
 30
0.0
 40
27.49999999999973
210
0.0
220
-0.0000000000000002
230
-1.0
 50
179.9999999999998863
 51
204.3209090993497057
  0
ARC
  5
41D13
  8
0
  6
VERDECKT
 62
     1
 10
46.00000000000027
 20
237.3000000000000114
 30
0.0
 40
27.4999999999997193
210
0.0
220
-0.0000000000000002
230
-1.0
 50
335.6790909006502943
 51
0.0000000000000877
  0
LINE
  5
41D14
  8
0
  6
VERDECKT
 62
     1
 10
-70.8193126608470322
 20
225.4428621057560065
 30
-0.0000000000000501
 11
-71.0594586256930114
 21
225.9742093703274008
 31
-0.0000000000000502
210
0.0
220
1.0
230
-0.0000000000000002
  0
LINE
  5
41D15
  8
0
  6
VERDECKT
 62
     1
 10
70.8193126608470322
 20
225.4428621057560065
 30
-0.0000000000000501
 11
71.0594586256930114
 21
225.9742093703274008
 31
-0.0000000000000502
210
0.0
220
1.0
230
-0.0000000000000002
  0
ARC
  5
41D16
  8
0
  6
VERDECKT
 62
     1
 10
-89.4999999999998863
 20
217.0000000000001137
 30
0.0
 40
20.4999999999998899
210
0.0
220
-0.0000000000000002
230
-1.0
 50
359.9999999999997726
 51
24.320909099349489
  0
ARC
  5
41D17
  8
0
  6
VERDECKT
 62
     1
 10
89.4999999999996021
 20
217.0000000000001137
 30
0.0
 40
20.4999999999995985
210
0.0
220
-0.0000000000000002
230
-1.0
 50
155.6790909006502091
 51
180.000000000000199
  0
LINE
  5
41D18
  8
0
  6
VERDECKT
 62
     1
 10
-69.0
 20
193.5
 30
-0.000000000000043
 11
-69.0
 21
217.0
 31
-0.0000000000000482
210
0.0
220
1.0
230
-0.0000000000000002
  0
LINE
  5
41D19
  8
0
  6
VERDECKT
 62
     1
 10
69.0
 20
193.5
 30
-0.000000000000043
 11
69.0
 21
217.0
 31
-0.0000000000000482
210
0.0
220
1.0
230
-0.0000000000000002
  0
ARC
  5
41D1A
  8
0
  6
VERDECKT
 62
     1
 10
-53.5000000000002913
 20
193.4999999999998863
 30
0.0
 40
15.4999999999996998
210
0.0
220
-0.0000000000000002
230
-1.0
 50
179.9999999999996874
 51
212.779080668069895
  0
ARC
  5
41D1B
  8
0
  6
VERDECKT
 62
     1
 10
53.5000000000002913
 20
193.4999999999998863
 30
0.0
 40
15.4999999999996998
210
0.0
220
-0.0000000000000002
230
-1.0
 50
327.2209193319301903
 51
0.0000000000003117
  0
LINE
  5
41D1C
  8
0
  6
VERDECKT
 62
     1
 10
-65.990445859872608
 20
184.26751592356689
 30
-0.0000000000000409
 11
-66.5318471337579922
 21
185.1082802547770996
 31
-0.0000000000000411
210
0.0
220
1.0
230
-0.0000000000000002
  0
LINE
  5
41D1D
  8
0
  6
VERDECKT
 62
     1
 10
65.990445859872608
 20
184.26751592356689
 30
-0.0000000000000409
 11
66.5318471337579638
 21
185.1082802547770996
 31
-0.0000000000000411
210
0.0
220
1.0
230
-0.0000000000000002
  0
ARC
  5
41D1E
  8
0
  6
VERDECKT
 62
     1
 10
-76.5000000000001421
 20
177.4999999999998863
 30
0.0
 40
12.5000000000001403
210
0.0
220
-0.0000000000000002
230
-1.0
 50
0.0000000000001399
 51
32.7790806680693834
  0
ARC
  5
41D1F
  8
0
  6
VERDECKT
 62
     1
 10
76.5000000000001421
 20
177.4999999999998863
 30
0.0
 40
12.5000000000001403
210
0.0
220
-0.0000000000000002
230
-1.0
 50
147.2209193319305882
 51
179.999999999999801
  0
LINE
  5
41D20
  8
0
  6
VERDECKT
 62
     1
 10
-64.0
 20
154.166666666666714
 30
-0.0000000000000342
 11
-64.0
 21
177.4999999999998863
 31
-0.0000000000000394
210
0.0
220
1.0
230
-0.0000000000000002
  0
LINE
  5
41D21
  8
0
  6
VERDECKT
 62
     1
 10
64.0
 20
154.166666666666714
 30
-0.0000000000000342
 11
64.0
 21
177.5
 31
-0.0000000000000394
210
0.0
220
1.0
230
-0.0000000000000002
  0
ARC
  5
41D22
  8
0
  6
VERDECKT
 62
     1
 10
-54.0000000000000213
 20
154.1666666666666003
 30
0.0
 40
9.9999999999999858
210
0.0
220
-0.0000000000000002
230
-1.0
 50
179.999999999999801
 51
216.8698976458439063
  0
ARC
  5
41D23
  8
0
  6
VERDECKT
 62
     1
 10
54.0000000000000213
 20
154.1666666666666003
 30
0.0
 40
9.9999999999999716
210
0.0
220
-0.0000000000000002
230
-1.0
 50
323.1301023541560085
 51
0.0000000000001386
  0
LINE
  5
41D24
  8
0
  6
VERDECKT
 62
     1
 10
-56.9999999999999929
 20
141.5
 30
-0.0000000000000314
 11
-62.0000000000000071
 21
148.1666666666666003
 31
-0.0000000000000329
210
0.0
220
1.0
230
-0.0000000000000002
  0
LINE
  5
41D25
  8
0
  6
VERDECKT
 62
     1
 10
57.0
 20
141.5
 30
-0.0000000000000314
 11
62.0000000000000071
 21
148.1666666666666003
 31
-0.0000000000000329
210
0.0
220
1.0
230
-0.0000000000000002
  0
LINE
  5
41D26
  8
0
  6
VERDECKT
 62
     1
 10
57.0
 20
141.5
 30
-0.0000000000000314
 11
59.0000000000000071
 21
140.0
 31
-0.0000000000000311
210
0.0
220
1.0
230
-0.0000000000000002
  0
LINE
  5
41D27
  8
0
  6
VERDECKT
 62
     1
 10
-57.0
 20
141.5
 30
-0.0000000000000314
 11
-58.9999999999999929
 21
140.0
 31
-0.0000000000000311
210
0.0
220
1.0
230
-0.0000000000000002
  0
LINE
  5
41D28
  8
0
  6
VERDECKT
 62
     1
 10
48.5069084835102302
 20
0.1660909597074749
 30
0.0
 11
-48.5069084835102515
 21
0.1660909597074749
 31
0.0
210
0.0
220
1.0
230
-0.0000000000000002
  0
ARC
  5
41D29
  8
0
  6
VERDECKT
 62
     1
 10
-63.0000000000001421
 20
117.6036702048394034
 30
0.0
 40
14.0000000000001297
210
0.0
220
-0.0000000000000002
230
-1.0
 50
0.0
 51
22.5861630860241718
  0
ARC
  5
41D2A
  8
0
  6
VERDECKT
 62
     1
 10
63.0
 20
117.6036702048394034
 30
0.0
 40
13.9999999999999893
210
0.0
220
-0.0000000000000002
230
-1.0
 50
157.4138369139755866
 51
180.0
  0
LINE
  5
41D2B
  8
0
  6
VERDECKT
 62
     1
 10
-49.0
 20
6.4991349455075929
 30
-0.0000000000000014
 11
-49.0
 21
117.6036702048394034
 31
-0.0000000000000261
210
0.0
220
1.0
230
-0.0000000000000002
  0
LINE
  5
41D2C
  8
0
  6
VERDECKT
 62
     1
 10
49.0
 20
6.4991349455075929
 30
-0.0000000000000014
 11
49.0
 21
117.6036702048394034
 31
-0.0000000000000261
210
0.0
220
1.0
230
-0.0000000000000002
  0
LINE
  5
41D2D
  8
0
  6
VERDECKT
 62
     1
 10
-50.0737580364253176
 20
122.9806831952571002
 30
-0.0000000000000273
 11
-57.1533940052563594
 21
140.0
 31
-0.0000000000000311
210
0.0
220
1.0
230
-0.0000000000000002
  0
LINE
  5
41D2E
  8
0
  6
VERDECKT
 62
     1
 10
50.0737580364253105
 20
122.9806831952571002
 30
-0.0000000000000273
 11
57.1533940052563594
 21
140.0
 31
-0.0000000000000311
210
0.0
220
1.0
230
-0.0000000000000002
  0
ARC
  5
41D2F
  8
0
  6
VERDECKT
 62
     1
 10
-39.0000000000043414
 20
6.4991349455074579
 30
0.0
 40
9.9999999999956657
210
0.0
220
-0.0000000000000002
230
-1.0
 50
179.9999999999992042
 51
184.7636416907274111
  0
ARC
  5
41D30
  8
0
  6
VERDECKT
 62
     1
 10
39.0000000000044125
 20
6.4991349455074561
 30
0.0
 40
9.9999999999955875
210
0.0
220
-0.0000000000000002
230
-1.0
 50
355.2363583092724753
 51
0.0000000000007761
  0
LINE
  5
41D31
  8
0
  6
VERDECKT
 62
     1
 10
-48.5069084835102515
 20
0.1660909597074745
 30
0.0
 11
-48.9654575824487992
 21
5.6686801469701891
 31
-0.0000000000000013
210
0.0
220
1.0
230
-0.0000000000000002
  0
LINE
  5
41D32
  8
0
  6
VERDECKT
 62
     1
 10
48.5069084835102515
 20
0.1660909597074745
 30
0.0
 11
48.9654575824487992
 21
5.6686801469701891
 31
-0.0000000000000013
210
0.0
220
1.0
230
-0.0000000000000002
  0
LINE
  5
41D33
  8
0
  6
VERDECKT
 62
     1
 10
48.5069084835102515
 20
0.1660909597074634
 30
0.0
 11
50.5
 21
-0.0000000000000161
 31
0.0
210
0.0
220
1.0
230
-0.0000000000000002
  0
LINE
  5
41D34
  8
0
  6
VERDECKT
 62
     1
 10
-48.5069084835102515
 20
0.1660909597074634
 30
0.0
 11
-50.5
 21
-0.0000000000000161
 31
0.0
210
0.0
220
1.0
230
-0.0000000000000002
  0
ENDBLK
  5
41D36
  8
0
  0
ENDSEC
  0
SECTION
  2
ENTITIES
  0
TEXT
  5
5DDE
  8
VOLL
 10
78.076754716981128
 20
31.025947764705851
 30
0.0
 40
1.8
  1

  7
GREEKS
  0
INSERT
  5
5DDF
  8
ADSK_ASSOC_ENTITY_BACKUPS
  2
*S1
 10
0.0
 20
0.0
 30
0.0
  0
INSERT
  5
41CDF
  8
0
  2
A$C65DAC2ED
 10
0.0
 20
-100.0
 30
0.0
  0
INSERT
  5
41D37
  8
0
  2
A$C70F7EB4F
 10
0.0
 20
0.0
 30
0.0
  0
VIEWPORT
  5
1571
 67
     1
  8
0
 10
148.2499993416352879
 20
209.7499997404212877
 30
0.0
 40
781.6425601800815457
 41
421.6240506848366749
 68
     1
 69
     1
1001
ACAD
1000
MVIEW
1002
{
1070
    16
1010
0.0
1020
0.0
1030
0.0
1010
0.0
1020
0.0
1030
1.0
1040
0.0
1040
421.6240506848366749
1040
148.2499993416352879
1040
209.7499997404212877
1040
50.0
1040
0.0
1040
0.0
1070
     0
1070
  1500
1070
     1
1070
     1
1070
     0
1070
     0
1070
     0
1070
     0
1040
0.0
1040
0.0
1040
0.0
1040
10.0
1040
10.0
1040
10.0
1040
10.0
1070
     0
1002
{
1002
}
1002
}
1001
GENIUS_GENOBJ-N-SDF_13
1002
{
1000
OWNER
1000
GEN
1002
}
1001
GENIUS_GENODEF_13
1002
{
1000
HIER
1070
     0
1002
}
1002
{
1000
MANEDIT
1070
     0
1002
}
1002
{
1000
NOSEL
1070
     0
1002
}
1002
{
1000
BEHIND
1070
     0
1002
}
1002
{
1000
OTHER
1070
     0
1002
}
1002
{
1000
REACTOR
1002
}
1001
GENIUS_GENSCREG_15
1000
PF
1040
1.0
1000
DF
1040
1.0
1000
MIN
1011
-98.3237311841076007
1021
-84.5929851452383446
1031
0.0
1000
MAX
1011
756.7695330154733711
1021
339.8977580961391141
1031
0.0
1000
FLAGS
1070
     4
  0
ENDSEC
  0
EOF
