  0
SECTION
  2
HEADER
  9
$ACADVER
  1
AC1009
  9
$INSBASE
 10
0.0
 20
0.0
 30
0.0
  9
$EXTMIN
 10
277.4783220694693
 20
-234.971893210935491
 30
-117.4268590201189966
  9
$EXTMAX
 10
400.0478294671198114
 20
141.9202190995308115
 30
-117.4245398850838029
  9
$LIMMIN
 10
0.0
 20
0.0
  9
$LIMMAX
 10
210.0
 20
297.0
  9
$ORTHOMODE
 70
     1
  9
$REGENMODE
 70
     1
  9
$FILLMODE
 70
     1
  9
$QTEXTMODE
 70
     0
  9
$MIRRTEXT
 70
     1
  9
$DRAGMODE
 70
     2
  9
$LTSCALE
 40
10.0
  9
$OSMODE
 70
  2495
  9
$ATTMODE
 70
     1
  9
$TEXTSIZE
 40
3.5
  9
$TRACEWID
 40
0.5
  9
$TEXTSTYLE
  7
STANDARD
  9
$CLAYER
  8
STEMPEL
  9
$CELTYPE
  6
BYLAYER
  9
$CECOLOR
 62
   256
  9
$DIMSCALE
 40
1.0
  9
$DIMASZ
 40
3.5
  9
$DIMEXO
 40
1.0
  9
$DIMDLI
 40
7.0
  9
$DIMRND
 40
0.0
  9
$DIMDLE
 40
0.0
  9
$DIMEXE
 40
1.0
  9
$DIMTP
 40
0.0
  9
$DIMTM
 40
0.0
  9
$DIMTXT
 40
3.5
  9
$DIMCEN
 40
1.5
  9
$DIMTSZ
 40
0.0
  9
$DIMTOL
 70
     0
  9
$DIMLIM
 70
     0
  9
$DIMTIH
 70
     0
  9
$DIMTOH
 70
     0
  9
$DIMSE1
 70
     0
  9
$DIMSE2
 70
     0
  9
$DIMTAD
 70
     1
  9
$DIMZIN
 70
     8
  9
$DIMBLK
  1

  9
$DIMASO
 70
     1
  9
$DIMSHO
 70
     0
  9
$DIMPOST
  1

  9
$DIMAPOST
  1

  9
$DIMALT
 70
     0
  9
$DIMALTD
 70
     2
  9
$DIMALTF
 40
25.3999999999999986
  9
$DIMLFAC
 40
2.0
  9
$DIMTOFL
 70
     1
  9
$DIMTVP
 40
0.0
  9
$DIMTIX
 70
     0
  9
$DIMSOXD
 70
     0
  9
$DIMSAH
 70
     0
  9
$DIMBLK1
  1

  9
$DIMBLK2
  1

  9
$DIMSTYLE
  2
STANDARD
  9
$DIMCLRD
 70
     0
  9
$DIMCLRE
 70
     0
  9
$DIMCLRT
 70
     1
  9
$DIMTFAC
 40
0.5
  9
$DIMGAP
 40
1.5
  9
$LUNITS
 70
     2
  9
$LUPREC
 70
     2
  9
$SKETCHINC
 40
1.0
  9
$FILLETRAD
 40
9.5999999999999996
  9
$AUNITS
 70
     0
  9
$AUPREC
 70
     0
  9
$MENU
  1
ACAD
  9
$ELEVATION
 40
0.0
  9
$PELEVATION
 40
0.0
  9
$THICKNESS
 40
0.0
  9
$LIMCHECK
 70
     0
  9
$BLIPMODE
 70
     0
  9
$CHAMFERA
 40
0.0
  9
$CHAMFERB
 40
0.0
  9
$SKPOLY
 70
     0
  9
$TDCREATE
 40
2455397.8646990740671754
  9
$TDUPDATE
 40
2459807.5444444450549781
  9
$TDINDWG
 40
0.1747031481
  9
$TDUSRTIMER
 40
0.1747031481
  9
$USRTIMER
 70
     1
  9
$ANGBASE
 50
0.0
  9
$ANGDIR
 70
     0
  9
$PDMODE
 70
     0
  9
$PDSIZE
 40
0.0
  9
$PLINEWID
 40
0.0
  9
$COORDS
 70
     1
  9
$SPLFRAME
 70
     0
  9
$SPLINETYPE
 70
     6
  9
$SPLINESEGS
 70
     8
  9
$ATTDIA
 70
     1
  9
$ATTREQ
 70
     1
  9
$HANDLING
 70
     1
  9
$HANDSEED
  5
1A9C
  9
$SURFTAB1
 70
     6
  9
$SURFTAB2
 70
     6
  9
$SURFTYPE
 70
     6
  9
$SURFU
 70
     6
  9
$SURFV
 70
     6
  9
$UCSNAME
  2

  9
$UCSORG
 10
0.0
 20
0.0
 30
0.0
  9
$UCSXDIR
 10
1.0
 20
0.0
 30
0.0
  9
$UCSYDIR
 10
0.0
 20
1.0
 30
0.0
  9
$PUCSNAME
  2

  9
$PUCSORG
 10
0.0
 20
0.0
 30
0.0
  9
$PUCSXDIR
 10
1.0
 20
0.0
 30
0.0
  9
$PUCSYDIR
 10
0.0
 20
1.0
 30
0.0
  9
$USERI1
 70
     0
  9
$USERI2
 70
     0
  9
$USERI3
 70
     0
  9
$USERI4
 70
     0
  9
$USERI5
 70
     0
  9
$USERR1
 40
0.0
  9
$USERR2
 40
0.0
  9
$USERR3
 40
0.0
  9
$USERR4
 40
0.0
  9
$USERR5
 40
0.0
  9
$WORLDVIEW
 70
     1
  9
$SHADEDGE
 70
     3
  9
$SHADEDIF
 70
    70
  9
$TILEMODE
 70
     1
  9
$MAXACTVP
 70
    16
  9
$PLIMCHECK
 70
     0
  9
$PEXTMIN
 10
1.0000000000000000E+20
 20
1.0000000000000000E+20
 30
1.0000000000000000E+20
  9
$PEXTMAX
 10
-1.0000000000000000E+20
 20
-1.0000000000000000E+20
 30
-1.0000000000000000E+20
  9
$PLIMMIN
 10
-0.0674642631973264
 20
-0.0511601294987543
  9
$PLIMMAX
 10
209.9325357368026914
 20
296.9488398705012742
  9
$UNITMODE
 70
     0
  9
$VISRETAIN
 70
     0
  9
$PLINEGEN
 70
     0
  9
$PSLTSCALE
 70
     0
  0
ENDSEC
  0
SECTION
  2
TABLES
  0
TABLE
  2
VPORT
 70
     1
  0
VPORT
  2
*ACTIVE
 70
     0
 10
0.0
 20
0.0
 11
1.0
 21
1.0
 12
0.9075097921228235
 22
-83.4382386301888772
 13
0.0
 23
0.0
 14
1.0
 24
1.0
 15
10.0
 25
10.0
 16
-0.0000000000001137
 26
0.0
 36
606.334262989705735
 17
337.8555659761718175
 27
36.9124015744865517
 37
-102.2270161563922954
 40
379.5874075117330904
 41
1.7852028639618129
 42
50.0
 43
0.0
 44
0.0
 50
0.0
 51
0.0
 71
     0
 72
  1500
 73
     1
 74
     0
 75
     0
 76
     0
 77
     0
 78
     0
  0
ENDTAB
  0
TABLE
  2
LTYPE
 70
     3
  0
LTYPE
  2
CONTINUOUS
 70
     0
  3
Solid line
 72
    65
 73
     0
 40
0.0
  0
LTYPE
  2
PHANTOM2
 70
     0
  3
Phantom (.5x) ___ _ _ ___ _ _ ___ _ _ ___ _ _
 72
    65
 73
     6
 40
1.25
 49
0.625
 49
-0.125
 49
0.125
 49
-0.125
 49
0.125
 49
-0.125
  0
LTYPE
  2
VERDECKT
 70
     0
  3
Verdeckt __ __ __ __ __ __ __ __ __ __ __ __ __
 72
    65
 73
     2
 40
0.375
 49
0.25
 49
-0.125
  0
ENDTAB
  0
TABLE
  2
LAYER
 70
     6
  0
LAYER
  2
0
 70
     0
 62
     7
  6
CONTINUOUS
  0
LAYER
  2
VOLL
 70
     0
 62
     1
  6
CONTINUOUS
  0
LAYER
  2
STEMPEL
 70
     0
 62
     3
  6
CONTINUOUS
  0
LAYER
  2
DEFPOINTS
 70
     0
 62
     7
  6
CONTINUOUS
  0
LAYER
  2
ADSK_ASSOC_ENTITY_BACKUPS
 70
     1
 62
    -7
  6
CONTINUOUS
  0
ENDTAB
  0
TABLE
  2
STYLE
 70
     3
  0
STYLE
  2
STANDARD
 70
     0
 40
0.0
 41
0.8
 50
0.0
 71
     0
 42
3.5
  3
simplex.shx
  4

  0
STYLE
  2
GREEKS
 70
     0
 40
0.0
 41
0.8
 50
0.0
 71
     0
 42
2.5
  3
SIMPLEX.shx
  4

  0
ENDTAB
  0
TABLE
  2
VIEW
 70
     0
  0
ENDTAB
  0
TABLE
  2
UCS
 70
     0
  0
ENDTAB
  0
TABLE
  2
APPID
 70
    22
  0
APPID
  2
ACAD
 70
     0
  0
APPID
  2
ACAD_NAV_VCDISPLAY
 70
     0
  0
APPID
  2
ACAD_MLEADERVER
 70
     0
  0
APPID
  2
ACAD_EXEMPT_FROM_CAD_STANDARDS
 70
     0
  0
APPID
  2
ACAD_PSEXT
 70
     0
  0
APPID
  2
ACAECLAYERSTANDARD
 70
     0
  0
APPID
  2
ACAUTHENVIRON
 70
     0
  0
APPID
  2
ACCMTRANSPARENCY
 70
     0
  0
APPID
  2
ACAD_STEPID
 70
     0
  0
APPID
  2
ACSYNERGY
 70
     0
  0
APPID
  2
SYNERGY_BODY_TBR_ID
 70
     0
  0
APPID
  2
ACAD_VIEW_EDGE_ID
 70
     0
  0
APPID
  2
ACSYNERGYSKETCH
 70
     0
  0
APPID
  2
ACAD_MODELDOC_XFORM
 70
     0
  0
APPID
  2
ACAD_DSTYLE_DIMJAG
 70
     0
  0
APPID
  2
ACAD_DSTYLE_DIMTALN
 70
     0
  0
APPID
  2
ACADANNOMONITORALERTICONDI
 70
     0
  0
APPID
  2
ACAD_DIMASSOC_CALC_DIMLFAC
 70
     0
  0
APPID
  2
ACAD_DIMASSOC_DIMLFAC
 70
     0
  0
APPID
  2
ACAD_DIMASSOC_OVERRIDDEN_D
 70
     0
  0
APPID
  2
ACAD_DSTYLE_DIMRADIAL_EXTENSION
 70
     0
  0
APPID
  2
ACDBDYNAMICBLOCKGUID
 70
     0
  0
ENDTAB
  0
TABLE
  2
DIMSTYLE
 70
     1
  0
DIMSTYLE
  2
STANDARD
 70
     0
  3

  4

  5

  6

  7

 40
1.0
 41
0.18
 42
0.0625
 43
0.38
 44
0.18
 45
0.0
 46
0.0
 47
0.0
 48
0.0
140
0.18
141
0.09
142
0.0
143
25.3999999999999986
144
1.0
145
0.0
146
1.0
147
0.09
 71
     0
 72
     0
 73
     1
 74
     1
 75
     0
 76
     0
 77
     0
 78
     0
170
     0
171
     2
172
     0
173
     0
174
     0
175
     0
176
     0
177
     0
178
     0
  0
ENDTAB
  0
ENDSEC
  0
SECTION
  2
BLOCKS
  0
BLOCK
  8
0
  2
$MODEL_SPACE
 70
     0
 10
0.0
 20
0.0
 30
0.0
  3
$MODEL_SPACE
  1

  0
ENDBLK
  5
36
  8
0
  0
BLOCK
 67
     1
  8
0
  2
$PAPER_SPACE
 70
     0
 10
0.0
 20
0.0
 30
0.0
  3
$PAPER_SPACE
  1

  0
ENDBLK
  5
34
 67
     1
  8
0
  0
BLOCK
  8
0
  2
*S0
 70
     1
 10
0.0
 20
0.0
 30
0.0
  3
*S0
  1

  0
ENDBLK
  5
B3A
  8
0
  0
BLOCK
  8
0
  2
A$C16F23042
 70
     0
 10
0.0
 20
0.0
 30
0.0
  3
A$C16F23042
  1

  0
ARC
  5
19C7
  8
0
 10
169.8465822930988907
 20
33.3755299627929602
 30
0.0000000000000355
 40
48.5904590588971814
 50
180.0
 51
327.4229975130726871
  0
ARC
  5
19C8
  8
0
 10
169.8465822930988907
 20
33.3755299627929602
 30
0.0000000000000355
 40
48.5904590588971672
 50
32.5770024869272419
 51
180.0
  0
CIRCLE
  5
19C9
  8
0
 10
169.8465822930988907
 20
33.3755299627929602
 30
0.0000000000000355
 40
42.900000000000027
  0
CIRCLE
  5
19CA
  8
0
 10
169.8465822930988907
 20
33.3755299627929531
 30
0.0000000000000426
 40
42.0312018477939802
  0
CIRCLE
  5
19CB
  8
0
 10
169.3614039255618025
 20
33.3755299627929602
 30
0.0000000000000426
 40
53.0000000000000568
  0
CIRCLE
  5
19CC
  8
0
 10
169.3614039255618877
 20
33.3755299627929602
 30
0.0000000000000426
 40
53.8941402638516891
  0
CIRCLE
  5
19CD
  8
0
 10
169.3614039255618877
 20
33.3755299627929602
 30
0.0000000000000426
 40
55.7067558379250087
  0
CIRCLE
  5
19CE
  8
0
 10
169.3614039255618877
 20
33.3755299627929602
 30
0.0000000000000426
 40
59.0
  0
CIRCLE
  5
19CF
  8
0
 10
169.3614039255618025
 20
33.3755299627929602
 30
0.0000000000000355
 40
49.0
  0
ARC
  5
19D0
  8
0
  6
VERDECKT
 62
     1
 10
169.8465822930988907
 20
33.3755299627929602
 30
0.0000000000000355
 40
48.5904590588971814
 50
327.4229975130728008
 51
32.5770024869272419
  0
CIRCLE
  5
19D1
  8
0
  6
VERDECKT
 62
     1
 10
169.8465822930988907
 20
33.3755299627929531
 30
0.0000000000000426
 40
43.625113364740848
  0
CIRCLE
  5
19D2
  8
0
  6
VERDECKT
 62
     1
 10
169.8465822930988907
 20
33.3755299627929602
 30
0.0000000000000355
 40
44.4999999999999432
  0
CIRCLE
  5
19D3
  8
0
  6
VERDECKT
 62
     1
 10
169.8465822930988907
 20
33.3755299627929602
 30
0.0000000000000355
 40
49.6147540983603008
  0
CIRCLE
  5
19D4
  8
0
  6
VERDECKT
 62
     1
 10
169.3614039255618877
 20
33.3755299627929602
 30
0.0000000000000426
 40
57.0
  0
CIRCLE
  5
19D5
  8
0
  6
VERDECKT
 62
     1
 10
169.3614039255618025
 20
33.3755299627929602
 30
0.0000000000000426
 40
54.9999999999999929
  0
CIRCLE
  5
19D6
  8
0
  6
VERDECKT
 62
     1
 10
169.3614039255618025
 20
33.3755299627929602
 30
0.0000000000000355
 40
51.0000000000000284
  0
ENDBLK
  5
19D8
  8
0
  0
BLOCK
  8
0
  2
A$C2EDB9B32
 70
     0
 10
0.0
 20
0.0
 30
0.0
  3
A$C2EDB9B32
  1

  0
LINE
  5
19DC
  8
0
 10
213.4716956578398026
 20
-96.7499999999999147
 30
0.0000000000000215
 11
126.2214689283581066
 21
-96.7499999999999147
 31
0.0000000000000215
210
0.0
220
1.0
230
-0.0000000000000002
  0
LINE
  5
19DD
  8
0
 10
219.4613363914592981
 20
17.5122950819670997
 30
-0.0000000000000039
 11
120.2318281947385969
 21
17.5122950819670997
 31
-0.0000000000000039
210
0.0
220
1.0
230
-0.0000000000000002
  0
LINE
  5
19DE
  8
0
 10
126.2214689283581066
 20
-96.7499999999999147
 30
0.0000000000000215
 11
125.3831131914181043
 21
-87.1675500784555908
 31
0.0000000000000194
210
0.0
220
1.0
230
-0.0000000000000002
  0
LINE
  5
19DF
  8
0
 10
213.4716956578398026
 20
-96.7499999999999147
 30
0.0000000000000215
 11
214.3100513947796912
 21
-87.1675500784555908
 31
0.0000000000000194
210
0.0
220
1.0
230
-0.0000000000000002
  0
ARC
  5
19E0
  8
0
 10
-204.7465822931040123
 20
-86.3308549480784677
 30
0.0
 40
9.5999999999949601
210
0.0
220
-0.0000000000000002
230
-1.0
 50
179.9999999999982094
 51
185.000000000000199
  0
ARC
  5
19E1
  8
0
 10
-134.9465822930939112
 20
-86.3308549480784677
 30
0.0
 40
9.5999999999949601
210
0.0
220
-0.0000000000000002
230
-1.0
 50
354.9999999999997726
 51
0.0000000000017811
  0
LINE
  5
19E2
  8
0
 10
125.3465822930990043
 20
-86.3308549480781693
 30
0.0000000000000192
 11
125.3465822930990043
 21
10.4397503240934899
 31
-0.0000000000000023
210
0.0
220
1.0
230
-0.0000000000000002
  0
LINE
  5
19E3
  8
0
 10
214.3465822930988907
 20
-86.3308549480781693
 30
0.0000000000000192
 11
214.3465822930988907
 21
10.4397503240934899
 31
-0.0000000000000023
210
0.0
220
1.0
230
-0.0000000000000002
  0
ARC
  5
19E4
  8
0
 10
-220.3465822930988054
 20
10.4397503240935094
 30
0.0
 40
5.9999999999999432
210
0.0
220
-0.0000000000000002
230
-1.0
 50
359.9999999999997726
 51
50.1944289077338723
  0
ARC
  5
19E5
  8
0
 10
-119.3465822930989049
 20
10.4397503240934597
 30
0.0
 40
6.0000000000000551
210
0.0
220
-0.0000000000000002
230
-1.0
 50
129.8055710922666037
 51
179.9999999999996021
  0
LINE
  5
19E6
  8
0
 10
123.1876886910859952
 20
15.0490780016776799
 30
-0.0000000000000033
 11
120.2318281947385969
 21
17.512295081967121
 31
-0.0000000000000039
210
0.0
220
1.0
230
-0.0000000000000002
  0
LINE
  5
19E7
  8
0
 10
216.505475895111914
 20
15.0490780016776799
 30
-0.0000000000000033
 11
219.4613363914592981
 21
17.5122950819671317
 31
-0.0000000000000039
210
0.0
220
1.0
230
-0.0000000000000002
  0
LINE
  5
19E8
  8
0
 10
218.8465822930988907
 20
18.2499999999994991
 30
-0.0000000000000041
 11
219.4613363914592981
 21
17.5122950819670891
 31
-0.0000000000000039
210
0.0
220
1.0
230
-0.0000000000000002
  0
LINE
  5
19E9
  8
0
 10
120.8465822930989049
 20
18.2499999999995204
 30
-0.0000000000000041
 11
120.2318281947385969
 21
17.5122950819670997
 31
-0.0000000000000039
210
0.0
220
1.0
230
-0.0000000000000002
  0
LINE
  5
19EA
  8
0
 10
113.6546480876368008
 20
113.2499999999994031
 30
-0.0000000000000251
 11
225.0681597634869036
 21
113.2499999999994031
 31
-0.0000000000000251
210
0.0
220
1.0
230
-0.0000000000000002
  0
LINE
  5
19EB
  8
0
 10
118.3614039255619019
 20
18.2499999999995204
 30
-0.0000000000000041
 11
220.3614039255618025
 21
18.2499999999995204
 31
-0.0000000000000041
210
0.0
220
1.0
230
-0.0000000000000002
  0
LINE
  5
19EC
  8
0
 10
225.0681597634869036
 20
113.2499999999994031
 30
-0.0000000000000251
 11
226.019098601478106
 21
111.2107050809457007
 31
-0.0000000000000247
210
0.0
220
1.0
230
-0.0000000000000002
  0
LINE
  5
19ED
  8
0
 10
113.6546480876368008
 20
113.2499999999994031
 30
-0.0000000000000251
 11
112.7037092496454989
 21
111.2107050809457007
 31
-0.0000000000000247
210
0.0
220
1.0
230
-0.0000000000000002
  0
ARC
  5
19EE
  8
0
 10
-135.3614039255620867
 20
100.645248537428202
 30
0.0
 40
25.0000000000002593
210
0.0
220
-0.0000000000000002
230
-1.0
 50
0.0000000000001399
 51
24.9999999999995985
  0
ARC
  5
19EF
  8
0
 10
-203.3614039255616035
 20
100.645248537428202
 30
0.0
 40
25.0000000000002593
210
0.0
220
-0.0000000000000002
230
-1.0
 50
155.0000000000003979
 51
179.999999999999801
  0
LINE
  5
19F0
  8
0
 10
228.3614039255618877
 20
100.6452485374283015
 30
-0.0000000000000223
 11
228.3614039255618877
 21
82.4832005306809464
 31
-0.0000000000000183
210
0.0
220
1.0
230
-0.0000000000000002
  0
LINE
  5
19F1
  8
0
 10
110.3614039255618025
 20
100.6452485374283015
 30
-0.0000000000000223
 11
110.3614039255618025
 21
82.4832005306809464
 31
-0.0000000000000183
210
0.0
220
1.0
230
-0.0000000000000002
  0
ARC
  5
19F2
  8
0
 10
-135.3614039255614898
 20
82.4832005306807901
 30
0.0
 40
24.9999999999996412
210
0.0
220
-0.0000000000000002
230
-1.0
 50
333.1119523822758879
 51
0.0000000000003562
  0
ARC
  5
19F3
  8
0
 10
-203.3614039255620014
 20
82.4832005306809037
 30
0.0
 40
24.9999999999999183
210
0.0
220
-0.0000000000000002
230
-1.0
 50
179.999999999999801
 51
206.8880476177239132
  0
ARC
  5
19F4
  8
0
 10
-102.361403925561703
 20
65.7499999999993463
 30
0.0
 40
12.0000000000001794
210
0.0
220
-0.0000000000000002
230
-1.0
 50
153.1119523822758026
 51
179.9999999999996021
  0
ARC
  5
19F5
  8
0
 10
-236.3614039255614898
 20
65.7499999999995026
 30
0.0
 40
11.9999999999996003
210
0.0
220
-0.0000000000000002
230
-1.0
 50
359.9999999999996021
 51
26.8880476177247694
  0
LINE
  5
19F6
  8
0
 10
224.3614039255618877
 20
65.7499999999994174
 30
-0.0000000000000146
 11
224.3614039255618877
 21
50.1774888769468603
 31
-0.0000000000000111
210
0.0
220
1.0
230
-0.0000000000000002
  0
LINE
  5
19F7
  8
0
 10
114.3614039255618025
 20
65.7499999999994174
 30
-0.0000000000000146
 11
114.3614039255618025
 21
50.1774888769468603
 31
-0.0000000000000111
210
0.0
220
1.0
230
-0.0000000000000002
  0
ARC
  5
19F8
  8
0
 10
-129.3614039255616035
 20
50.1774888769468319
 30
0.0
 40
14.9999999999998206
210
0.0
220
-0.0000000000000002
230
-1.0
 50
325.6988472432063872
 51
0.0000000000001717
  0
ARC
  5
19F9
  8
0
 10
-209.3614039255618877
 20
50.177488876946903
 30
0.0
 40
15.0
210
0.0
220
-0.0000000000000002
230
-1.0
 50
180.0
 51
214.3011527567934138
  0
ARC
  5
19FA
  8
0
 10
-110.3614039255630956
 20
37.2160074801316227
 30
0.0
 40
7.9999999999987104
210
0.0
220
-0.0000000000000002
230
-1.0
 50
145.6988472432093999
 51
180.000000000002899
  0
ARC
  5
19FB
  8
0
 10
-228.3614039255606087
 20
37.2160074801316227
 30
0.0
 40
7.9999999999986917
210
0.0
220
-0.0000000000000002
230
-1.0
 50
359.9999999999969873
 51
34.3011527567906214
  0
LINE
  5
19FC
  8
0
 10
220.3614039255618877
 20
37.2160074801312035
 30
-0.0000000000000083
 11
220.3614039255618877
 21
18.2499999999995204
 31
-0.0000000000000041
210
0.0
220
1.0
230
-0.0000000000000002
  0
LINE
  5
19FD
  8
0
 10
118.3614039255618025
 20
37.2160074801312035
 30
-0.0000000000000083
 11
118.3614039255618025
 21
18.2499999999995204
 31
-0.0000000000000041
210
0.0
220
1.0
230
-0.0000000000000002
  0
LINE
  5
19FE
  8
0
  6
VERDECKT
 62
     1
 10
218.4370413519961005
 20
18.7414491293228913
 30
-0.0000000000000042
 11
121.256123234201695
 21
18.7414491293228913
 31
-0.0000000000000042
210
0.0
220
1.0
230
-0.0000000000000002
  0
LINE
  5
19FF
  8
0
  6
VERDECKT
 62
     1
 10
211.8777841408929135
 20
-96.6105508116036447
 30
0.0000000000000215
 11
127.8153804453048963
 21
-96.6105508116036447
 31
0.0000000000000215
210
0.0
220
1.0
230
-0.0000000000000002
  0
LINE
  5
1A00
  8
0
  6
VERDECKT
 62
     1
 10
124.2119837305492069
 20
16.2782320490334698
 30
-0.0000000000000036
 11
121.2561232342017945
 21
18.7414491293229091
 31
-0.0000000000000042
210
0.0
220
1.0
230
-0.0000000000000002
  0
LINE
  5
1A01
  8
0
  6
VERDECKT
 62
     1
 10
215.4811808556486881
 20
16.2782320490334804
 30
-0.0000000000000036
 11
218.4370413519961005
 21
18.7414491293229091
 31
-0.0000000000000042
210
0.0
220
1.0
230
-0.0000000000000002
  0
ARC
  5
1A02
  8
0
  6
VERDECKT
 62
     1
 10
-220.3465822930986064
 20
10.4397503240937297
 30
0.0
 40
7.5999999999996808
210
0.0
220
-0.0000000000000002
230
-1.0
 50
359.999999999998181
 51
50.19442890773378
  0
ARC
  5
1A03
  8
0
  6
VERDECKT
 62
     1
 10
-119.3465822930990043
 20
10.4397503240936196
 30
0.0
 40
7.5999999999999091
210
0.0
220
-0.0000000000000002
230
-1.0
 50
129.8055710922670016
 51
180.0000000000007958
  0
LINE
  5
1A04
  8
0
  6
VERDECKT
 62
     1
 10
126.9465822930988992
 20
-86.3308549480780556
 30
0.0000000000000192
 11
126.9465822930988992
 21
10.4397503240934899
 31
-0.0000000000000023
210
0.0
220
1.0
230
-0.0000000000000002
  0
LINE
  5
1A05
  8
0
  6
VERDECKT
 62
     1
 10
212.74658229309901
 20
-86.3308549480780556
 30
0.0000000000000192
 11
212.74658229309901
 21
10.4397503240934899
 31
-0.0000000000000023
210
0.0
220
1.0
230
-0.0000000000000002
  0
ARC
  5
1A06
  8
0
  6
VERDECKT
 62
     1
 10
-204.7465822931071955
 20
-86.3308549480784535
 30
0.0
 40
7.9999999999917861
210
0.0
220
-0.0000000000000002
230
-1.0
 50
179.999999999997101
 51
185.0000000000025864
  0
ARC
  5
1A07
  8
0
  6
VERDECKT
 62
     1
 10
-134.9465822931055072
 20
-86.3308549480777856
 30
0.0
 40
8.0000000000066791
210
0.0
220
-0.0000000000000002
230
-1.0
 50
355.0000000000018758
 51
359.999999999998181
  0
LINE
  5
1A08
  8
0
  6
VERDECKT
 62
     1
 10
127.8153804453048963
 20
-96.6105508116036447
 30
0.0000000000000215
 11
126.977024708364894
 21
-87.0281008900593775
 31
0.0000000000000193
210
0.0
220
1.0
230
-0.0000000000000002
  0
LINE
  5
1A09
  8
0
  6
VERDECKT
 62
     1
 10
211.8777841408929135
 20
-96.6105508116036447
 30
0.0000000000000215
 11
212.716139877833001
 21
-87.0281008900593775
 31
0.0000000000000193
210
0.0
220
1.0
230
-0.0000000000000002
  0
LINE
  5
1A0A
  8
0
  6
VERDECKT
 62
     1
 10
211.8777841408929135
 20
-96.6105508116036447
 30
0.0000000000000215
 11
213.4716956578398026
 21
-96.7499999999999147
 31
0.0000000000000215
210
0.0
220
1.0
230
-0.0000000000000002
  0
LINE
  5
1A0B
  8
0
  6
VERDECKT
 62
     1
 10
127.8153804453048963
 20
-96.6105508116036447
 30
0.0000000000000215
 11
126.2214689283581066
 21
-96.7499999999999147
 31
0.0000000000000215
210
0.0
220
1.0
230
-0.0000000000000002
  0
LINE
  5
1A0C
  8
0
  6
VERDECKT
 62
     1
 10
218.4370413519961005
 20
18.7414491293228913
 30
-0.0000000000000042
 11
218.8465822930988907
 21
18.2499999999994991
 31
-0.0000000000000041
210
0.0
220
1.0
230
-0.0000000000000002
  0
LINE
  5
1A0D
  8
0
  6
VERDECKT
 62
     1
 10
121.256123234201695
 20
18.7414491293228913
 30
-0.0000000000000042
 11
120.8465822930989049
 21
18.2499999999995204
 31
-0.0000000000000041
210
0.0
220
1.0
230
-0.0000000000000002
  0
LINE
  5
1A0E
  8
0
  6
VERDECKT
 62
     1
 10
115.4672636617101062
 20
112.4047634765179993
 30
-0.000000000000025
 11
223.2555441894135981
 21
112.4047634765179993
 31
-0.000000000000025
210
0.0
220
1.0
230
-0.0000000000000002
  0
LINE
  5
1A0F
  8
0
  6
VERDECKT
 62
     1
 10
222.3614039255618877
 20
65.7497994693178356
 30
-0.0000000000000146
 11
222.3614039255618877
 21
50.1774888769469811
 31
-0.0000000000000111
210
0.0
220
1.0
230
-0.0000000000000002
  0
LINE
  5
1A10
  8
0
  6
VERDECKT
 62
     1
 10
116.3614039255618025
 20
65.7497994693178356
 30
-0.0000000000000146
 11
116.3614039255618025
 21
50.1774888769469811
 31
-0.0000000000000111
210
0.0
220
1.0
230
-0.0000000000000002
  0
ARC
  5
1A11
  8
0
  6
VERDECKT
 62
     1
 10
-102.3614039255625983
 20
65.7497994693180345
 30
0.0
 40
13.9999999999991793
210
0.0
220
-0.0000000000000002
230
-1.0
 50
153.1119523822758879
 51
180.0000000000007958
  0
ARC
  5
1A12
  8
0
  6
VERDECKT
 62
     1
 10
-236.3614039255616035
 20
65.7497994693179351
 30
0.0
 40
13.9999999999996607
210
0.0
220
-0.0000000000000002
230
-1.0
 50
359.9999999999996021
 51
26.8880476177236396
  0
ARC
  5
1A13
  8
0
  6
VERDECKT
 62
     1
 10
-135.3614039255616888
 20
82.4829999999992651
 30
0.0
 40
22.9999999999998614
210
0.0
220
-0.0000000000000002
230
-1.0
 50
333.1119523822756037
 51
360.0
  0
ARC
  5
1A14
  8
0
  6
VERDECKT
 62
     1
 10
-203.3614039255616035
 20
82.482999999999322
 30
0.0
 40
23.0000000000002487
210
0.0
220
-0.0000000000000002
230
-1.0
 50
180.0000000000001137
 51
206.8880476177241121
  0
LINE
  5
1A15
  8
0
  6
VERDECKT
 62
     1
 10
226.3614039255618877
 20
100.6452485374283015
 30
-0.0000000000000223
 11
226.3614039255618877
 21
82.4829999999992509
 31
-0.0000000000000183
210
0.0
220
1.0
230
-0.0000000000000002
  0
LINE
  5
1A16
  8
0
  6
VERDECKT
 62
     1
 10
112.3614039255618025
 20
100.6452485374283015
 30
-0.0000000000000223
 11
112.3614039255618025
 21
82.4829999999992509
 31
-0.0000000000000183
210
0.0
220
1.0
230
-0.0000000000000002
  0
ARC
  5
1A17
  8
0
  6
VERDECKT
 62
     1
 10
-135.361403925562314
 20
100.6452485374283015
 30
0.0
 40
23.0000000000004796
210
0.0
220
-0.0000000000000002
230
-1.0
 50
359.9999999999998863
 51
24.9999999999996803
  0
ARC
  5
1A18
  8
0
  6
VERDECKT
 62
     1
 10
-203.3614039255616888
 20
100.6452485374284009
 30
0.0
 40
23.000000000000199
210
0.0
220
-0.0000000000000002
230
-1.0
 50
155.000000000000199
 51
180.000000000000199
  0
LINE
  5
1A19
  8
0
  6
VERDECKT
 62
     1
 10
223.2555441894135981
 20
112.4047634765179993
 30
-0.000000000000025
 11
224.2064830274048006
 21
110.3654685574644958
 31
-0.0000000000000245
210
0.0
220
1.0
230
-0.0000000000000002
  0
LINE
  5
1A1A
  8
0
  6
VERDECKT
 62
     1
 10
115.4672636617101062
 20
112.4047634765179993
 30
-0.000000000000025
 11
114.5163248237189038
 21
110.3654685574644958
 31
-0.0000000000000245
210
0.0
220
1.0
230
-0.0000000000000002
  0
LINE
  5
1A1B
  8
0
  6
VERDECKT
 62
     1
 10
115.4672636617101062
 20
112.4047634765179993
 30
-0.000000000000025
 11
113.6546480876368008
 21
113.2499999999994031
 31
-0.0000000000000251
210
0.0
220
1.0
230
-0.0000000000000002
  0
LINE
  5
1A1C
  8
0
  6
VERDECKT
 62
     1
 10
223.2555441894135981
 20
112.4047634765179993
 30
-0.000000000000025
 11
225.0681597634869036
 21
113.2499999999994031
 31
-0.0000000000000251
210
0.0
220
1.0
230
-0.0000000000000002
  0
LINE
  5
1A1D
  8
0
  6
VERDECKT
 62
     1
 10
218.3614039255618025
 20
37.2160074801312035
 30
-0.0000000000000083
 11
218.3614039255618025
 21
18.2499999999995808
 31
-0.0000000000000041
210
0.0
220
1.0
230
-0.0000000000000002
  0
LINE
  5
1A1E
  8
0
  6
VERDECKT
 62
     1
 10
120.3614039255619019
 20
37.2160074801312035
 30
-0.0000000000000083
 11
120.3614039255619019
 21
18.2499999999995808
 31
-0.0000000000000041
210
0.0
220
1.0
230
-0.0000000000000002
  0
ARC
  5
1A1F
  8
0
  6
VERDECKT
 62
     1
 10
-110.3614039255628967
 20
37.2160074801315588
 30
0.0
 40
9.9999999999989786
210
0.0
220
-0.0000000000000002
230
-1.0
 50
145.6988472432088031
 51
180.0000000000019043
  0
ARC
  5
1A20
  8
0
  6
VERDECKT
 62
     1
 10
-228.3614039255606087
 20
37.2160074801316298
 30
0.0
 40
9.999999999998721
210
0.0
220
-0.0000000000000002
230
-1.0
 50
359.9999999999976126
 51
34.3011527567916872
  0
ARC
  5
1A21
  8
0
  6
VERDECKT
 62
     1
 10
-129.3614039255620867
 20
50.177488876947109
 30
0.0
 40
13.0000000000003197
210
0.0
220
-0.0000000000000002
230
-1.0
 50
325.6988472432070125
 51
359.9999999999993747
  0
ARC
  5
1A22
  8
0
  6
VERDECKT
 62
     1
 10
-209.3614039255614898
 20
50.177488876947109
 30
0.0
 40
13.0000000000003393
210
0.0
220
-0.0000000000000002
230
-1.0
 50
180.0000000000005116
 51
214.3011527567929022
  0
ENDBLK
  5
1A24
  8
0
  0
ENDSEC
  0
SECTION
  2
ENTITIES
  0
TEXT
  5
8F
  8
VOLL
 10
78.076754716981128
 20
31.025947764705851
 30
0.0
 40
1.8
  1

  7
GREEKS
  0
INSERT
  5
B3C
  8
ADSK_ASSOC_ENTITY_BACKUPS
  2
*S0
 10
0.0
 20
0.0
 30
0.0
  0
INSERT
  5
19D9
  8
STEMPEL
  2
A$C16F23042
 10
167.4369561774481099
 20
-209.3459968923237113
 30
-117.4259314227252986
  0
INSERT
  5
1A25
  8
STEMPEL
  2
A$C2EDB9B32
 10
169.5513669370047012
 20
28.6624015744865517
 30
-117.4259314227252986
  0
VIEWPORT
  5
928
 67
     1
  8
0
 10
104.9325357368027056
 20
148.4488398705011889
 30
0.0
 40
533.9969448798291296
 41
299.1239570917758783
 68
     1
 69
     1
1001
ACAD
1000
MVIEW
1002
{
1070
    16
1010
0.0
1020
0.0
1030
0.0
1010
0.0
1020
0.0
1030
1.0
1040
0.0
1040
299.1239570917758783
1040
104.9325357368027056
1040
148.4488398705011889
1040
50.0
1040
0.0
1040
0.0
1070
     0
1070
  1500
1070
     1
1070
     1
1070
     0
1070
     0
1070
     0
1070
     0
1040
0.0
1040
0.0
1040
0.0
1040
10.0
1040
10.0
1040
10.0
1040
10.0
1070
     0
1002
{
1002
}
1002
}
  0
ENDSEC
  0
EOF
