  0
SECTION
  2
HEADER
  9
$ACADVER
  1
AC1009
  9
$INSBASE
 10
0.0
 20
0.0
 30
0.0
  9
$EXTMIN
 10
277.3576295895115891
 20
-229.0235802162916912
 30
-12.6552860633134099
  9
$EXTMAX
 10
395.3576295895115891
 20
140.494098009493797
 30
-12.6552860633133495
  9
$LIMMIN
 10
0.0
 20
0.0
  9
$LIMMAX
 10
210.0
 20
297.0
  9
$ORTHOMODE
 70
     1
  9
$REGENMODE
 70
     1
  9
$FILLMODE
 70
     1
  9
$QTEXTMODE
 70
     0
  9
$MIRRTEXT
 70
     1
  9
$DRAGMODE
 70
     2
  9
$LTSCALE
 40
10.0
  9
$OSMODE
 70
  2495
  9
$ATTMODE
 70
     1
  9
$TEXTSIZE
 40
3.5
  9
$TRACEWID
 40
0.5
  9
$TEXTSTYLE
  7
STANDARD
  9
$CLAYER
  8
STEMPEL
  9
$CELTYPE
  6
BYLAYER
  9
$CECOLOR
 62
   256
  9
$DIMSCALE
 40
1.0
  9
$DIMASZ
 40
3.5
  9
$DIMEXO
 40
1.0
  9
$DIMDLI
 40
7.0
  9
$DIMRND
 40
0.0
  9
$DIMDLE
 40
0.0
  9
$DIMEXE
 40
1.0
  9
$DIMTP
 40
0.0
  9
$DIMTM
 40
0.0
  9
$DIMTXT
 40
3.5
  9
$DIMCEN
 40
1.5
  9
$DIMTSZ
 40
0.0
  9
$DIMTOL
 70
     0
  9
$DIMLIM
 70
     0
  9
$DIMTIH
 70
     0
  9
$DIMTOH
 70
     0
  9
$DIMSE1
 70
     0
  9
$DIMSE2
 70
     0
  9
$DIMTAD
 70
     1
  9
$DIMZIN
 70
     8
  9
$DIMBLK
  1

  9
$DIMASO
 70
     1
  9
$DIMSHO
 70
     0
  9
$DIMPOST
  1

  9
$DIMAPOST
  1

  9
$DIMALT
 70
     0
  9
$DIMALTD
 70
     2
  9
$DIMALTF
 40
25.3999999999999986
  9
$DIMLFAC
 40
2.0
  9
$DIMTOFL
 70
     1
  9
$DIMTVP
 40
0.0
  9
$DIMTIX
 70
     0
  9
$DIMSOXD
 70
     0
  9
$DIMSAH
 70
     0
  9
$DIMBLK1
  1

  9
$DIMBLK2
  1

  9
$DIMSTYLE
  2
STANDARD
  9
$DIMCLRD
 70
     0
  9
$DIMCLRE
 70
     0
  9
$DIMCLRT
 70
     1
  9
$DIMTFAC
 40
0.5
  9
$DIMGAP
 40
1.5
  9
$LUNITS
 70
     2
  9
$LUPREC
 70
     2
  9
$SKETCHINC
 40
1.0
  9
$FILLETRAD
 40
8.5999999999999996
  9
$AUNITS
 70
     0
  9
$AUPREC
 70
     0
  9
$MENU
  1
ACAD
  9
$ELEVATION
 40
0.0
  9
$PELEVATION
 40
0.0
  9
$THICKNESS
 40
0.0
  9
$LIMCHECK
 70
     0
  9
$BLIPMODE
 70
     0
  9
$CHAMFERA
 40
0.0
  9
$CHAMFERB
 40
0.0
  9
$SKPOLY
 70
     0
  9
$TDCREATE
 40
2455397.8646990740671754
  9
$TDUPDATE
 40
2459807.5399421299807727
  9
$TDINDWG
 40
0.1648073148
  9
$TDUSRTIMER
 40
0.1648073148
  9
$USRTIMER
 70
     1
  9
$ANGBASE
 50
0.0
  9
$ANGDIR
 70
     0
  9
$PDMODE
 70
     0
  9
$PDSIZE
 40
0.0
  9
$PLINEWID
 40
0.0
  9
$COORDS
 70
     1
  9
$SPLFRAME
 70
     0
  9
$SPLINETYPE
 70
     6
  9
$SPLINESEGS
 70
     8
  9
$ATTDIA
 70
     1
  9
$ATTREQ
 70
     1
  9
$HANDLING
 70
     1
  9
$HANDSEED
  5
187E
  9
$SURFTAB1
 70
     6
  9
$SURFTAB2
 70
     6
  9
$SURFTYPE
 70
     6
  9
$SURFU
 70
     6
  9
$SURFV
 70
     6
  9
$UCSNAME
  2

  9
$UCSORG
 10
0.0
 20
0.0
 30
0.0
  9
$UCSXDIR
 10
1.0
 20
0.0
 30
0.0
  9
$UCSYDIR
 10
0.0
 20
1.0
 30
0.0
  9
$PUCSNAME
  2

  9
$PUCSORG
 10
0.0
 20
0.0
 30
0.0
  9
$PUCSXDIR
 10
1.0
 20
0.0
 30
0.0
  9
$PUCSYDIR
 10
0.0
 20
1.0
 30
0.0
  9
$USERI1
 70
     0
  9
$USERI2
 70
     0
  9
$USERI3
 70
     0
  9
$USERI4
 70
     0
  9
$USERI5
 70
     0
  9
$USERR1
 40
0.0
  9
$USERR2
 40
0.0
  9
$USERR3
 40
0.0
  9
$USERR4
 40
0.0
  9
$USERR5
 40
0.0
  9
$WORLDVIEW
 70
     1
  9
$SHADEDGE
 70
     3
  9
$SHADEDIF
 70
    70
  9
$TILEMODE
 70
     1
  9
$MAXACTVP
 70
    16
  9
$PLIMCHECK
 70
     0
  9
$PEXTMIN
 10
1.0000000000000000E+20
 20
1.0000000000000000E+20
 30
1.0000000000000000E+20
  9
$PEXTMAX
 10
-1.0000000000000000E+20
 20
-1.0000000000000000E+20
 30
-1.0000000000000000E+20
  9
$PLIMMIN
 10
-0.0674642631973264
 20
-0.0511601294987543
  9
$PLIMMAX
 10
209.9325357368026914
 20
296.9488398705012742
  9
$UNITMODE
 70
     0
  9
$VISRETAIN
 70
     0
  9
$PLINEGEN
 70
     0
  9
$PSLTSCALE
 70
     0
  0
ENDSEC
  0
SECTION
  2
TABLES
  0
TABLE
  2
VPORT
 70
     1
  0
VPORT
  2
*ACTIVE
 70
     0
 10
0.0
 20
0.0
 11
1.0
 21
1.0
 12
0.5032288288048222
 22
-79.5088391128933267
 13
0.0
 23
0.0
 14
1.0
 24
1.0
 15
10.0
 25
10.0
 16
-0.0000000000001137
 26
0.0
 36
607.820415665095652
 17
335.8544007607068238
 27
35.2440980094944223
 37
5.1667954701344838
 40
372.1602361153621246
 41
1.785202863961814
 42
50.0
 43
0.0
 44
0.0
 50
0.0
 51
0.0
 71
     0
 72
  1500
 73
     1
 74
     0
 75
     0
 76
     0
 77
     0
 78
     0
  0
ENDTAB
  0
TABLE
  2
LTYPE
 70
     7
  0
LTYPE
  2
CONTINUOUS
 70
     0
  3
Solid line
 72
    65
 73
     0
 40
0.0
  0
LTYPE
  2
PHANTOM2
 70
     0
  3
Phantom (.5x) ___ _ _ ___ _ _ ___ _ _ ___ _ _
 72
    65
 73
     6
 40
1.25
 49
0.625
 49
-0.125
 49
0.125
 49
-0.125
 49
0.125
 49
-0.125
  0
LTYPE
  2
VERDECKT
 70
     0
  3
Verdeckt __ __ __ __ __ __ __ __ __ __ __ __ __
 72
    65
 73
     2
 40
0.375
 49
0.25
 49
-0.125
  0
ENDTAB
  0
TABLE
  2
LAYER
 70
    12
  0
LAYER
  2
0
 70
     0
 62
     7
  6
CONTINUOUS
  0
LAYER
  2
VOLL
 70
     0
 62
     1
  6
CONTINUOUS
  0
LAYER
  2
STEMPEL
 70
     0
 62
     3
  6
CONTINUOUS
  0
LAYER
  2
DEFPOINTS
 70
     0
 62
     7
  6
CONTINUOUS
  0
LAYER
  2
ADSK_ASSOC_ENTITY_BACKUPS
 70
     1
 62
    -7
  6
CONTINUOUS
  0
ENDTAB
  0
TABLE
  2
STYLE
 70
     5
  0
STYLE
  2
STANDARD
 70
     0
 40
0.0
 41
0.8
 50
0.0
 71
     0
 42
3.5
  3
simplex.shx
  4

  0
STYLE
  2
GREEKS
 70
     0
 40
0.0
 41
0.8
 50
0.0
 71
     0
 42
2.5
  3
SIMPLEX.shx
  4

  0
ENDTAB
  0
TABLE
  2
VIEW
 70
     1
  0
ENDTAB
  0
TABLE
  2
UCS
 70
     0
  0
ENDTAB
  0
TABLE
  2
APPID
 70
    23
  0
APPID
  2
ACAD
 70
     0
  0
APPID
  2
ACAD_NAV_VCDISPLAY
 70
     0
  0
APPID
  2
ACAD_MLEADERVER
 70
     0
  0
APPID
  2
ACAD_EXEMPT_FROM_CAD_STANDARDS
 70
     0
  0
APPID
  2
ACAD_PSEXT
 70
     0
  0
APPID
  2
ACAECLAYERSTANDARD
 70
     0
  0
APPID
  2
ACAUTHENVIRON
 70
     0
  0
APPID
  2
ACCMTRANSPARENCY
 70
     0
  0
APPID
  2
ACAD_STEPID
 70
     0
  0
APPID
  2
ACSYNERGY
 70
     0
  0
APPID
  2
SYNERGY_BODY_TBR_ID
 70
     0
  0
APPID
  2
ACAD_VIEW_EDGE_ID
 70
     0
  0
APPID
  2
ACSYNERGYSKETCH
 70
     0
  0
APPID
  2
ACAD_MODELDOC_XFORM
 70
     0
  0
APPID
  2
ACAD_DSTYLE_DIMJAG
 70
     0
  0
APPID
  2
ACAD_DSTYLE_DIMTALN
 70
     0
  0
APPID
  2
ACADANNOMONITORALERTICONDI
 70
     0
  0
APPID
  2
ACAD_DIMASSOC_CALC_DIMLFAC
 70
     0
  0
APPID
  2
ACAD_DIMASSOC_DIMLFAC
 70
     0
  0
APPID
  2
ACAD_DIMASSOC_OVERRIDDEN_D
 70
     0
  0
APPID
  2
ACAD_DSTYLE_DIMRADIAL_EXTENSION
 70
     0
  0
APPID
  2
ACDBDYNAMICBLOCKGUID
 70
     0
  0
APPID
  2
AcDbAttr
 70
     0
  0
ENDTAB
  0
TABLE
  2
DIMSTYLE
 70
     2
  0
DIMSTYLE
  2
STANDARD
 70
     0
  3

  4

  5

  6

  7

 40
1.0
 41
0.18
 42
0.0625
 43
0.38
 44
0.18
 45
0.0
 46
0.0
 47
0.0
 48
0.0
140
0.18
141
0.09
142
0.0
143
25.3999999999999986
144
1.0
145
0.0
146
1.0
147
0.09
 71
     0
 72
     0
 73
     1
 74
     1
 75
     0
 76
     0
 77
     0
 78
     0
170
     0
171
     2
172
     0
173
     0
174
     0
175
     0
176
     0
177
     0
178
     0
  0
ENDTAB
  0
ENDSEC
  0
SECTION
  2
BLOCKS
  0
BLOCK
  8
0
  2
$MODEL_SPACE
 70
     0
 10
0.0
 20
0.0
 30
0.0
  3
$MODEL_SPACE
  1

  0
ENDBLK
  5
36
  8
0
  0
BLOCK
 67
     1
  8
0
  2
$PAPER_SPACE
 70
     0
 10
0.0
 20
0.0
 30
0.0
  3
$PAPER_SPACE
  1

  0
ENDBLK
  5
34
 67
     1
  8
0
  0
BLOCK
  8
0
  2
*S0
 70
     1
 10
0.0
 20
0.0
 30
0.0
  3
*S0
  1

  0
ENDBLK
  5
B3A
  8
0
  0
BLOCK
  8
0
  2
A$C5DC14ADC
 70
     0
 10
0.0
 20
0.0
 30
0.0
  3
A$C5DC14ADC
  1

  0
CIRCLE
  5
17C4
  8
0
 10
169.3614039255618877
 20
33.3755299627929602
 30
0.0000000000000426
 40
53.8941402638516891
  0
CIRCLE
  5
17C5
  8
0
 10
169.3614039255618877
 20
33.3755299627929602
 30
0.0000000000000426
 40
55.7067558379250087
  0
CIRCLE
  5
17C6
  8
0
 10
169.3614039255618877
 20
33.3755299627929602
 30
0.0000000000000426
 40
59.0
  0
CIRCLE
  5
17C7
  8
0
 10
169.3614039255618877
 20
33.3755299627929602
 30
0.0000000000000355
 40
38.6546544120077229
  0
CIRCLE
  5
17C8
  8
0
 10
169.3614039255618877
 20
33.3755299627929602
 30
0.0000000000000355
 40
49.0000000000000213
  0
CIRCLE
  5
17C9
  8
0
 10
169.3614039255618877
 20
33.3755299627929602
 30
0.0000000000000426
 40
53.0
  0
CIRCLE
  5
17CA
  8
0
 10
169.3614039255620014
 20
33.3755299627929602
 30
0.0000000000000355
 40
38.4418540644130786
  0
CIRCLE
  5
17CB
  8
0
 10
169.3614039255618877
 20
33.3755299627929602
 30
0.000000000000036
 40
34.9000000000000412
  0
CIRCLE
  5
17CC
  8
0
 10
169.3614039255618025
 20
33.3755299627929531
 30
0.0000000000000426
 40
34.0373135878632169
  0
CIRCLE
  5
17CD
  8
0
  6
VERDECKT
 62
     1
 10
169.3614039255618877
 20
33.3755299627929602
 30
0.0000000000000426
 40
57.0
  0
CIRCLE
  5
17CE
  8
0
  6
VERDECKT
 62
     1
 10
169.3614039255618877
 20
33.3755299627929602
 30
0.0000000000000426
 40
55.0
  0
CIRCLE
  5
17CF
  8
0
  6
VERDECKT
 62
     1
 10
169.3614039255618877
 20
33.3755299627929602
 30
0.0000000000000355
 40
51.0
  0
CIRCLE
  5
17D0
  8
0
  6
VERDECKT
 62
     1
 10
169.3614039255618877
 20
33.3755299627929602
 30
0.0000000000000355
 40
39.9999999999998934
  0
CIRCLE
  5
17D1
  8
0
  6
VERDECKT
 62
     1
 10
169.3614039255618025
 20
33.3755299627929531
 30
0.0000000000000426
 40
35.6312251048099782
  0
CIRCLE
  5
17D2
  8
0
  6
VERDECKT
 62
     1
 10
169.3614039255618877
 20
33.3755299627929602
 30
0.000000000000036
 40
36.4999999999999503
  0
CIRCLE
  5
17D3
  8
0
  6
VERDECKT
 62
     1
 10
169.3614039255620014
 20
33.3755299627929602
 30
0.0000000000000355
 40
40.0000000000000782
  0
ENDBLK
  5
17D5
  8
0
  0
BLOCK
  8
0
  2
A$CB29CA2D7
 70
     0
 10
0.0
 20
0.0
 30
0.0
  3
A$CB29CA2D7
  1

  0
LINE
  5
17D9
  8
0
 10
113.6546480876369003
 20
113.2499999999994031
 30
-0.0000000000000251
 11
225.0681597634869036
 21
113.2499999999994031
 31
-0.0000000000000251
210
0.0
220
1.0
230
-0.0000000000000002
  0
LINE
  5
17DA
  8
0
 10
129.3614039255620014
 20
17.7499999999993499
 30
-0.0000000000000039
 11
209.3614039255618025
 21
17.7499999999993499
 31
-0.0000000000000039
210
0.0
220
1.0
230
-0.0000000000000002
  0
LINE
  5
17DB
  8
0
 10
225.0681597634869036
 20
113.2499999999994031
 30
-0.0000000000000251
 11
226.019098601478305
 21
111.2107050809454023
 31
-0.0000000000000247
210
0.0
220
1.0
230
-0.0000000000000002
  0
LINE
  5
17DC
  8
0
 10
113.6546480876369003
 20
113.2499999999994031
 30
-0.0000000000000251
 11
112.7037092496453994
 21
111.2107050809454023
 31
-0.0000000000000247
210
0.0
220
1.0
230
-0.0000000000000002
  0
ARC
  5
17DD
  8
0
 10
-135.3614039255612056
 20
100.6452485374284009
 30
0.0
 40
24.9999999999993783
210
0.0
220
-0.0000000000000002
230
-1.0
 50
359.9999999999996021
 51
24.9999999999993392
  0
ARC
  5
17DE
  8
0
 10
-203.3614039255620867
 20
100.6452485374284009
 30
0.0
 40
24.9999999999998295
210
0.0
220
-0.0000000000000002
230
-1.0
 50
155.0000000000009948
 51
180.000000000000199
  0
LINE
  5
17DF
  8
0
 10
228.3614039255618877
 20
100.6452485374283015
 30
-0.0000000000000223
 11
228.3614039255618877
 21
82.4832005306809037
 31
-0.0000000000000183
210
0.0
220
1.0
230
-0.0000000000000002
  0
LINE
  5
17E0
  8
0
 10
110.3614039255619019
 20
100.6452485374283015
 30
-0.0000000000000223
 11
110.3614039255619019
 21
82.4832005306809037
 31
-0.0000000000000183
210
0.0
220
1.0
230
-0.0000000000000002
  0
ARC
  5
17E1
  8
0
 10
-135.3614039255610919
 20
82.4832005306807332
 30
0.0
 40
24.9999999999993108
210
0.0
220
-0.0000000000000002
230
-1.0
 50
333.1119523822757174
 51
0.0000000000003562
  0
ARC
  5
17E2
  8
0
 10
-203.3614039255627972
 20
82.4832005306806337
 30
0.0
 40
24.9999999999990585
210
0.0
220
-0.0000000000000002
230
-1.0
 50
179.9999999999994031
 51
206.8880476177243111
  0
ARC
  5
17E3
  8
0
 10
-102.3614039255621009
 20
65.7499999999993605
 30
0.0
 40
11.9999999999997407
210
0.0
220
-0.0000000000000002
230
-1.0
 50
153.1119523822748079
 51
180.0
  0
ARC
  5
17E4
  8
0
 10
-236.3614039255614898
 20
65.7499999999993747
 30
0.0
 40
11.9999999999996003
210
0.0
220
-0.0000000000000002
230
-1.0
 50
360.0
 51
26.8880476177253094
  0
LINE
  5
17E5
  8
0
 10
224.3614039255618877
 20
65.7499999999993605
 30
-0.0000000000000146
 11
224.3614039255618877
 21
50.1774888769468603
 31
-0.0000000000000111
210
0.0
220
1.0
230
-0.0000000000000002
  0
LINE
  5
17E6
  8
0
 10
114.3614039255619019
 20
65.7499999999993605
 30
-0.0000000000000146
 11
114.3614039255619019
 21
50.1774888769468603
 31
-0.0000000000000111
210
0.0
220
1.0
230
-0.0000000000000002
  0
ARC
  5
17E7
  8
0
 10
-129.3614039255604951
 20
50.1774888769463914
 30
0.0
 40
14.9999999999985896
210
0.0
220
-0.0000000000000002
230
-1.0
 50
325.6988472432082062
 51
0.0000000000018193
  0
ARC
  5
17E8
  8
0
 10
-209.3614039255627972
 20
50.1774888769465619
 30
0.0
 40
14.9999999999990905
210
0.0
220
-0.0000000000000002
230
-1.0
 50
179.9999999999988063
 51
214.3011527567911969
  0
ARC
  5
17E9
  8
0
 10
-110.3614039255620014
 20
37.2160074801311609
 30
0.0
 40
7.9999999999998703
210
0.0
220
-0.0000000000000002
230
-1.0
 50
145.6988472432057051
 51
179.9999999999996021
  0
ARC
  5
17EA
  8
0
 10
-228.3614039255616888
 20
37.2160074801311893
 30
0.0
 40
7.9999999999997717
210
0.0
220
-0.0000000000000002
230
-1.0
 50
0.0000000000001527
 51
34.3011527567946786
  0
LINE
  5
17EB
  8
0
 10
220.3614039255618877
 20
37.2160074801312035
 30
-0.0000000000000083
 11
220.3614039255618877
 21
34.8279181779172191
 31
-0.0000000000000077
210
0.0
220
1.0
230
-0.0000000000000002
  0
LINE
  5
17EC
  8
0
 10
118.3614039255619019
 20
37.2160074801312035
 30
-0.0000000000000083
 11
118.3614039255619019
 21
34.8279181779172191
 31
-0.0000000000000077
210
0.0
220
1.0
230
-0.0000000000000002
  0
ARC
  5
17ED
  8
0
 10
-134.3614039255616888
 20
34.8279181779172617
 30
0.0
 40
15.9999999999998597
210
0.0
220
-0.0000000000000002
230
-1.0
 50
312.2736890060941164
 51
359.9999999999997726
  0
ARC
  5
17EE
  8
0
 10
-204.3614039255618877
 20
34.8279181779172973
 30
0.0
 40
15.9999999999999396
210
0.0
220
-0.0000000000000002
230
-1.0
 50
180.000000000000199
 51
227.7263109939057983
  0
LINE
  5
17EF
  8
0
 10
129.3614039255620014
 20
17.7499999999993392
 30
-0.0000000000000039
 11
123.5986392216207008
 21
22.9888770035823313
 31
-0.0000000000000051
210
0.0
220
1.0
230
-0.0000000000000002
  0
LINE
  5
17F0
  8
0
 10
209.3614039255618025
 20
17.7499999999993392
 30
-0.0000000000000039
 11
215.1241686295030036
 21
22.9888770035823207
 31
-0.0000000000000051
210
0.0
220
1.0
230
-0.0000000000000002
  0
LINE
  5
17F1
  8
0
 10
204.9926290303718019
 20
-97.2500000000000853
 30
0.0000000000000216
 11
133.730178820751803
 21
-97.2499999999999858
 31
0.0000000000000216
210
0.0
220
1.0
230
-0.0000000000000002
  0
LINE
  5
17F2
  8
0
 10
209.3614039255620867
 20
17.7500000000000888
 30
-0.0000000000000039
 11
129.3614039255618877
 21
17.750000000000199
 31
-0.0000000000000039
210
0.0
220
1.0
230
-0.0000000000000002
  0
LINE
  5
17F3
  8
0
 10
133.730178820751803
 20
-97.2499999999999858
 30
0.0000000000000216
 11
132.8941295219730137
 21
-87.6939127872699942
 31
0.0000000000000195
210
0.0
220
1.0
230
-0.0000000000000002
  0
LINE
  5
17F4
  8
0
 10
204.9926290303718019
 20
-97.2500000000000853
 30
0.0000000000000216
 11
205.8286783291507049
 21
-87.6939127872700794
 31
0.0000000000000195
210
0.0
220
1.0
230
-0.0000000000000002
  0
ARC
  5
17F5
  8
0
 10
-197.2614039255687999
 20
-86.9443733996405967
 30
0.0
 40
8.5999999999928605
210
0.0
220
-0.0000000000000002
230
-1.0
 50
179.9999999999978115
 51
185.0000000000017053
  0
ARC
  5
17F6
  8
0
 10
-141.461403925554805
 20
-86.9443733996404973
 30
0.0
 40
8.5999999999928605
210
0.0
220
-0.0000000000000002
230
-1.0
 50
354.9999999999982947
 51
0.0000000000021882
  0
LINE
  5
17F7
  8
0
 10
132.8614039255618877
 20
-86.9443733996401562
 30
0.0000000000000193
 11
132.8614039255620014
 21
1.3685538260024539
 31
-0.0000000000000003
210
0.0
220
1.0
230
-0.0000000000000002
  0
LINE
  5
17F8
  8
0
 10
205.8614039255616888
 20
-86.9443733996402557
 30
0.0000000000000193
 11
205.8614039255618025
 21
1.3685538260023551
 31
-0.0000000000000003
210
0.0
220
1.0
230
-0.0000000000000002
  0
ARC
  5
17F9
  8
0
 10
-217.8614039255622004
 20
1.3685538260023269
 30
0.0
 40
12.0000000000002807
210
0.0
220
-0.0000000000000002
230
-1.0
 50
0.0000000000001145
 51
13.1340223063952699
  0
ARC
  5
17FA
  8
0
 10
-120.8614039255619019
 20
1.368553826002439
 30
0.0
 40
12.0000000000000302
210
0.0
220
-0.0000000000000002
230
-1.0
 50
166.8659776936046057
 51
179.999999999999801
  0
LINE
  5
17FB
  8
0
 10
132.5474984424635068
 20
4.0953092132792781
 30
-0.0000000000000009
 11
129.3614039255618877
 21
17.750000000000199
 31
-0.0000000000000039
210
0.0
220
1.0
230
-0.0000000000000002
  0
LINE
  5
17FC
  8
0
 10
206.1753094086602971
 20
4.0953092132792079
 30
-0.0000000000000009
 11
209.3614039255620014
 21
17.7500000000001101
 31
-0.0000000000000039
210
0.0
220
1.0
230
-0.0000000000000002
  0
LINE
  5
17FD
  8
0
  6
VERDECKT
 62
     1
 10
115.4672636617102057
 20
112.4047634765178998
 30
-0.000000000000025
 11
223.2555441894135981
 21
112.4047634765178998
 31
-0.000000000000025
210
0.0
220
1.0
230
-0.0000000000000002
  0
LINE
  5
17FE
  8
0
  6
VERDECKT
 62
     1
 10
130.7067495135540867
 20
19.2298801467917713
 30
-0.0000000000000043
 11
208.0160583375696035
 21
19.2298801467917713
 31
-0.0000000000000043
210
0.0
220
1.0
230
-0.0000000000000002
  0
ARC
  5
17FF
  8
0
  6
VERDECKT
 62
     1
 10
-135.3614039255612909
 20
82.482999999999123
 30
0.0
 40
22.9999999999994316
210
0.0
220
-0.0000000000000002
230
-1.0
 50
333.1119523822761721
 51
0.0000000000003181
  0
ARC
  5
1800
  8
0
  6
VERDECKT
 62
     1
 10
-203.3614039255623993
 20
82.482999999999123
 30
0.0
 40
22.99999999999946
210
0.0
220
-0.0000000000000002
230
-1.0
 50
179.9999999999996874
 51
206.8880476177236858
  0
LINE
  5
1801
  8
0
  6
VERDECKT
 62
     1
 10
226.3614039255618877
 20
100.6452485374283015
 30
-0.0000000000000223
 11
226.3614039255618877
 21
82.4829999999992509
 31
-0.0000000000000183
210
0.0
220
1.0
230
-0.0000000000000002
  0
LINE
  5
1802
  8
0
  6
VERDECKT
 62
     1
 10
112.3614039255619019
 20
100.6452485374283015
 30
-0.0000000000000223
 11
112.3614039255619019
 21
82.4829999999992509
 31
-0.0000000000000183
210
0.0
220
1.0
230
-0.0000000000000002
  0
ARC
  5
1803
  8
0
  6
VERDECKT
 62
     1
 10
-135.3614039255625983
 20
100.645248537428202
 30
0.0
 40
23.0000000000007709
210
0.0
220
-0.0000000000000002
230
-1.0
 50
0.0000000000001399
 51
24.9999999999995985
  0
ARC
  5
1804
  8
0
  6
VERDECKT
 62
     1
 10
-203.3614039255610919
 20
100.645248537428202
 30
0.0
 40
23.0000000000007709
210
0.0
220
-0.0000000000000002
230
-1.0
 50
155.0000000000003979
 51
179.999999999999801
  0
LINE
  5
1805
  8
0
  6
VERDECKT
 62
     1
 10
223.2555441894135981
 20
112.4047634765179993
 30
-0.000000000000025
 11
224.2064830274048006
 21
110.3654685574644958
 31
-0.0000000000000245
210
0.0
220
1.0
230
-0.0000000000000002
  0
LINE
  5
1806
  8
0
  6
VERDECKT
 62
     1
 10
115.4672636617102057
 20
112.4047634765178998
 30
-0.000000000000025
 11
114.5163248237189038
 21
110.3654685574644958
 31
-0.0000000000000245
210
0.0
220
1.0
230
-0.0000000000000002
  0
LINE
  5
1807
  8
0
  6
VERDECKT
 62
     1
 10
115.4672636617102057
 20
112.4047634765178998
 30
-0.000000000000025
 11
113.6546480876368008
 21
113.2499999999994031
 31
-0.0000000000000251
210
0.0
220
1.0
230
-0.0000000000000002
  0
LINE
  5
1808
  8
0
  6
VERDECKT
 62
     1
 10
223.2555441894135981
 20
112.4047634765178998
 30
-0.000000000000025
 11
225.0681597634869036
 21
113.2499999999994031
 31
-0.0000000000000251
210
0.0
220
1.0
230
-0.0000000000000002
  0
LINE
  5
1809
  8
0
  6
VERDECKT
 62
     1
 10
208.0160583375696035
 20
19.2298801467917784
 30
-0.0000000000000043
 11
209.3614039255618025
 21
17.7499999999993499
 31
-0.0000000000000039
210
0.0
220
1.0
230
-0.0000000000000002
  0
LINE
  5
180A
  8
0
  6
VERDECKT
 62
     1
 10
130.7067495135540867
 20
19.2298801467917784
 30
-0.0000000000000043
 11
129.3614039255620014
 21
17.7499999999993499
 31
-0.0000000000000039
210
0.0
220
1.0
230
-0.0000000000000002
  0
LINE
  5
180B
  8
0
  6
VERDECKT
 62
     1
 10
130.7067495135540867
 20
19.2298801467917713
 30
-0.0000000000000043
 11
124.9439848096136956
 21
24.4687571503739392
 31
-0.0000000000000054
210
0.0
220
1.0
230
-0.0000000000000002
  0
LINE
  5
180C
  8
0
  6
VERDECKT
 62
     1
 10
208.0160583375696035
 20
19.2298801467917713
 30
-0.0000000000000043
 11
213.7788230415100941
 21
24.4687571503739285
 31
-0.0000000000000054
210
0.0
220
1.0
230
-0.0000000000000002
  0
ARC
  5
180D
  8
0
  6
VERDECKT
 62
     1
 10
-134.3614039255616888
 20
34.8279181779170983
 30
0.0
 40
13.99999999999973
210
0.0
220
-0.0000000000000002
230
-1.0
 50
312.2736890060926953
 51
0.0000000000004644
  0
ARC
  5
180E
  8
0
  6
VERDECKT
 62
     1
 10
-204.3614039255620867
 20
34.8279181779170628
 30
0.0
 40
13.9999999999996607
210
0.0
220
-0.0000000000000002
230
-1.0
 50
179.9999999999992895
 51
227.7263109939073047
  0
LINE
  5
180F
  8
0
  6
VERDECKT
 62
     1
 10
218.3614039255618025
 20
37.2160074801312035
 30
-0.0000000000000083
 11
218.3614039255618025
 21
34.8279181779172191
 31
-0.0000000000000077
210
0.0
220
1.0
230
-0.0000000000000002
  0
LINE
  5
1810
  8
0
  6
VERDECKT
 62
     1
 10
120.3614039255619019
 20
37.2160074801312035
 30
-0.0000000000000083
 11
120.3614039255619019
 21
34.8279181779172191
 31
-0.0000000000000077
210
0.0
220
1.0
230
-0.0000000000000002
  0
ARC
  5
1811
  8
0
  6
VERDECKT
 62
     1
 10
-110.361403925561703
 20
37.2160074801311467
 30
0.0
 40
10.0000000000001705
210
0.0
220
-0.0000000000000002
230
-1.0
 50
145.6988472432070125
 51
179.9999999999996874
  0
ARC
  5
1812
  8
0
  6
VERDECKT
 62
     1
 10
-228.3614039255618877
 20
37.2160074801311893
 30
0.0
 40
10.0
210
0.0
220
-0.0000000000000002
230
-1.0
 50
0.0000000000000891
 51
34.3011527567934706
  0
ARC
  5
1813
  8
0
  6
VERDECKT
 62
     1
 10
-129.361403925560893
 20
50.1774888769466187
 30
0.0
 40
12.9999999999990301
210
0.0
220
-0.0000000000000002
230
-1.0
 50
325.6988472432083768
 51
0.0000000000013231
  0
ARC
  5
1814
  8
0
  6
VERDECKT
 62
     1
 10
-209.3614039255627119
 20
50.1774888769466614
 30
0.0
 40
12.9999999999992006
210
0.0
220
-0.0000000000000002
230
-1.0
 50
179.9999999999988063
 51
214.3011527567911969
  0
LINE
  5
1815
  8
0
  6
VERDECKT
 62
     1
 10
222.3614039255618877
 20
65.7497994693178356
 30
-0.0000000000000146
 11
222.3614039255618877
 21
50.1774888769469172
 31
-0.0000000000000111
210
0.0
220
1.0
230
-0.0000000000000002
  0
LINE
  5
1816
  8
0
  6
VERDECKT
 62
     1
 10
116.3614039255619019
 20
65.7497994693178356
 30
-0.0000000000000146
 11
116.3614039255619019
 21
50.1774888769469172
 31
-0.0000000000000111
210
0.0
220
1.0
230
-0.0000000000000002
  0
ARC
  5
1817
  8
0
  6
VERDECKT
 62
     1
 10
-102.3614039255619019
 20
65.7497994693177645
 30
0.0
 40
13.9999999999999698
210
0.0
220
-0.0000000000000002
230
-1.0
 50
153.1119523822748931
 51
179.9999999999996021
  0
ARC
  5
1818
  8
0
  6
VERDECKT
 62
     1
 10
-236.3614039255614898
 20
65.7497994693178498
 30
0.0
 40
13.9999999999995701
210
0.0
220
-0.0000000000000002
230
-1.0
 50
359.9999999999998863
 51
26.888047617725519
  0
LINE
  5
1819
  8
0
  6
VERDECKT
 62
     1
 10
207.8032579899750942
 20
18.1135673849693717
 30
-0.000000000000004
 11
130.9195498611489086
 21
18.1135673849694889
 31
-0.000000000000004
210
0.0
220
1.0
230
-0.0000000000000002
  0
LINE
  5
181A
  8
0
  6
VERDECKT
 62
     1
 10
203.3987175134249981
 20
-97.1105508116038294
 30
0.0000000000000216
 11
135.3240903376986068
 21
-97.1105508116037441
 31
0.0000000000000216
210
0.0
220
1.0
230
-0.0000000000000002
  0
LINE
  5
181B
  8
0
  6
VERDECKT
 62
     1
 10
134.1056443780504139
 20
4.4588765982495291
 30
-0.000000000000001
 11
130.9195498611489086
 21
18.1135673849694889
 31
-0.000000000000004
210
0.0
220
1.0
230
-0.0000000000000002
  0
LINE
  5
181C
  8
0
  6
VERDECKT
 62
     1
 10
204.6171634730733899
 20
4.4588765982494616
 30
-0.000000000000001
 11
207.803257989975009
 21
18.1135673849694001
 31
-0.000000000000004
210
0.0
220
1.0
230
-0.0000000000000002
  0
ARC
  5
181D
  8
0
  6
VERDECKT
 62
     1
 10
-217.8614039255639909
 20
1.368553826002431
 30
0.0
 40
13.6000000000020105
210
0.0
220
-0.0000000000000002
230
-1.0
 50
359.9999999999997726
 51
13.1340223063932093
  0
ARC
  5
181E
  8
0
  6
VERDECKT
 62
     1
 10
-120.8614039255620014
 20
1.368553826002872
 30
0.0
 40
13.5999999999998806
210
0.0
220
-0.0000000000000002
230
-1.0
 50
166.865977693606311
 51
180.0000000000017053
  0
LINE
  5
181F
  8
0
  6
VERDECKT
 62
     1
 10
134.4614039255619105
 20
-86.9443733996400567
 30
0.0000000000000193
 11
134.4614039255619957
 21
1.3685538260024539
 31
-0.0000000000000003
210
0.0
220
1.0
230
-0.0000000000000002
  0
LINE
  5
1820
  8
0
  6
VERDECKT
 62
     1
 10
204.2614039255616945
 20
-86.944373399640142
 30
0.0000000000000193
 11
204.2614039255618934
 21
1.3685538260023831
 31
-0.0000000000000003
210
0.0
220
1.0
230
-0.0000000000000002
  0
ARC
  5
1821
  8
0
  6
VERDECKT
 62
     1
 10
-197.2614039255481089
 20
-86.9443733996393036
 30
0.0
 40
7.0000000000136131
210
0.0
220
-0.0000000000000002
230
-1.0
 50
180.0000000000067928
 51
184.9999999999961062
  0
ARC
  5
1822
  8
0
  6
VERDECKT
 62
     1
 10
-141.4614039255756097
 20
-86.9443733996392183
 30
0.0
 40
7.0000000000136131
210
0.0
220
-0.0000000000000002
230
-1.0
 50
355.0000000000038085
 51
359.9999999999931219
  0
LINE
  5
1823
  8
0
  6
VERDECKT
 62
     1
 10
135.3240903376986068
 20
-97.1105508116037441
 30
0.0000000000000216
 11
134.4880410389197891
 21
-87.5544635988735536
 31
0.0000000000000194
210
0.0
220
1.0
230
-0.0000000000000002
  0
LINE
  5
1824
  8
0
  6
VERDECKT
 62
     1
 10
203.3987175134249981
 20
-97.1105508116038294
 30
0.0000000000000216
 11
204.2347668122039011
 21
-87.5544635988736246
 31
0.0000000000000194
210
0.0
220
1.0
230
-0.0000000000000002
  0
LINE
  5
1825
  8
0
  6
VERDECKT
 62
     1
 10
203.3987175134249981
 20
-97.1105508116038294
 30
0.0000000000000216
 11
204.9926290303718019
 21
-97.2500000000000853
 31
0.0000000000000216
210
0.0
220
1.0
230
-0.0000000000000002
  0
LINE
  5
1826
  8
0
  6
VERDECKT
 62
     1
 10
135.3240903376986068
 20
-97.1105508116037441
 30
0.0000000000000216
 11
133.730178820751803
 21
-97.2499999999999858
 31
0.0000000000000216
210
0.0
220
1.0
230
-0.0000000000000002
  0
LINE
  5
1827
  8
0
  6
VERDECKT
 62
     1
 10
207.8032579899750942
 20
18.1135673849694001
 30
-0.000000000000004
 11
209.3614039255620867
 21
17.7500000000001101
 31
-0.0000000000000039
210
0.0
220
1.0
230
-0.0000000000000002
  0
LINE
  5
1828
  8
0
  6
VERDECKT
 62
     1
 10
130.9195498611489086
 20
18.1135673849694889
 30
-0.000000000000004
 11
129.3614039255618877
 21
17.750000000000199
 31
-0.0000000000000039
210
0.0
220
1.0
230
-0.0000000000000002
  0
ENDBLK
  5
182A
  8
0
  0
ENDSEC
  0
SECTION
  2
ENTITIES
  0
TEXT
  5
8F
  8
VOLL
 10
78.076754716981128
 20
31.025947764705851
 30
0.0
 40
1.8
  1

  7
GREEKS
  0
INSERT
  5
B3C
  8
ADSK_ASSOC_ENTITY_BACKUPS
  2
*S0
 10
0.0
 20
0.0
 30
0.0
  0
INSERT
  5
17D6
  8
STEMPEL
  2
A$C5DC14ADC
 10
166.9962256639497014
 20
-203.3991101790846017
 30
-12.6552860633133903
  0
INSERT
  5
182B
  8
STEMPEL
  2
A$CB29CA2D7
 10
166.9962256639497014
 20
27.2440980094944116
 30
-12.6552860633133797
  0
VIEWPORT
  5
928
 67
     1
  8
0
 10
104.9325357368027056
 20
148.4488398705011889
 30
0.0
 40
533.9969448798291296
 41
299.1239570917758783
 68
     1
 69
     1
1001
ACAD
1000
MVIEW
1002
{
1070
    16
1010
0.0
1020
0.0
1030
0.0
1010
0.0
1020
0.0
1030
1.0
1040
0.0
1040
299.1239570917758783
1040
104.9325357368027056
1040
148.4488398705011889
1040
50.0
1040
0.0
1040
0.0
1070
     0
1070
  1500
1070
     1
1070
     1
1070
     0
1070
     0
1070
     0
1070
     0
1040
0.0
1040
0.0
1040
0.0
1040
10.0
1040
10.0
1040
10.0
1040
10.0
1070
     0
1002
{
1002
}
1002
}
  0
ENDSEC
  0
EOF
