  0
SECTION
  2
HEADER
  9
$ACADVER
  1
AC1009
  9
$INSBASE
 10
0.0
 20
0.0
 30
0.0
  9
$EXTMIN
 10
275.8183516214593283
 20
-227.2194837987401002
 30
-32.0218492975806086
  9
$EXTMAX
 10
393.8183516214594988
 20
124.4966681617772934
 30
-32.0218492975805731
  9
$LIMMIN
 10
0.0
 20
0.0
  9
$LIMMAX
 10
210.0
 20
297.0
  9
$ORTHOMODE
 70
     1
  9
$REGENMODE
 70
     1
  9
$FILLMODE
 70
     1
  9
$QTEXTMODE
 70
     0
  9
$MIRRTEXT
 70
     1
  9
$DRAGMODE
 70
     2
  9
$LTSCALE
 40
10.0
  9
$OSMODE
 70
  2495
  9
$ATTMODE
 70
     1
  9
$TEXTSIZE
 40
3.5
  9
$TRACEWID
 40
0.5
  9
$TEXTSTYLE
  7
STANDARD
  9
$CLAYER
  8
STEMPEL
  9
$CELTYPE
  6
BYLAYER
  9
$CECOLOR
 62
   256
  9
$DIMSCALE
 40
1.0
  9
$DIMASZ
 40
3.5
  9
$DIMEXO
 40
1.0
  9
$DIMDLI
 40
7.0
  9
$DIMRND
 40
0.0
  9
$DIMDLE
 40
0.0
  9
$DIMEXE
 40
1.0
  9
$DIMTP
 40
0.0
  9
$DIMTM
 40
0.0
  9
$DIMTXT
 40
3.5
  9
$DIMCEN
 40
1.5
  9
$DIMTSZ
 40
0.0
  9
$DIMTOL
 70
     0
  9
$DIMLIM
 70
     0
  9
$DIMTIH
 70
     0
  9
$DIMTOH
 70
     0
  9
$DIMSE1
 70
     0
  9
$DIMSE2
 70
     0
  9
$DIMTAD
 70
     1
  9
$DIMZIN
 70
     8
  9
$DIMBLK
  1

  9
$DIMASO
 70
     1
  9
$DIMSHO
 70
     0
  9
$DIMPOST
  1

  9
$DIMAPOST
  1

  9
$DIMALT
 70
     0
  9
$DIMALTD
 70
     2
  9
$DIMALTF
 40
25.3999999999999986
  9
$DIMLFAC
 40
2.0
  9
$DIMTOFL
 70
     1
  9
$DIMTVP
 40
0.0
  9
$DIMTIX
 70
     0
  9
$DIMSOXD
 70
     0
  9
$DIMSAH
 70
     0
  9
$DIMBLK1
  1

  9
$DIMBLK2
  1

  9
$DIMSTYLE
  2
STANDARD
  9
$DIMCLRD
 70
     0
  9
$DIMCLRE
 70
     0
  9
$DIMCLRT
 70
     1
  9
$DIMTFAC
 40
0.5
  9
$DIMGAP
 40
1.5
  9
$LUNITS
 70
     2
  9
$LUPREC
 70
     2
  9
$SKETCHINC
 40
1.0
  9
$FILLETRAD
 40
15.0
  9
$AUNITS
 70
     0
  9
$AUPREC
 70
     0
  9
$MENU
  1
ACAD
  9
$ELEVATION
 40
0.0
  9
$PELEVATION
 40
0.0
  9
$THICKNESS
 40
0.0
  9
$LIMCHECK
 70
     0
  9
$BLIPMODE
 70
     0
  9
$CHAMFERA
 40
2.0
  9
$CHAMFERB
 40
2.0
  9
$SKPOLY
 70
     0
  9
$TDCREATE
 40
2455397.8646990740671754
  9
$TDUPDATE
 40
2459807.5362152778543532
  9
$TDINDWG
 40
0.1411499074
  9
$TDUSRTIMER
 40
0.1411499074
  9
$USRTIMER
 70
     1
  9
$ANGBASE
 50
0.0
  9
$ANGDIR
 70
     0
  9
$PDMODE
 70
     0
  9
$PDSIZE
 40
0.0
  9
$PLINEWID
 40
0.0
  9
$COORDS
 70
     1
  9
$SPLFRAME
 70
     0
  9
$SPLINETYPE
 70
     6
  9
$SPLINESEGS
 70
     8
  9
$ATTDIA
 70
     1
  9
$ATTREQ
 70
     1
  9
$HANDLING
 70
     1
  9
$HANDSEED
  5
15DC
  9
$SURFTAB1
 70
     6
  9
$SURFTAB2
 70
     6
  9
$SURFTYPE
 70
     6
  9
$SURFU
 70
     6
  9
$SURFV
 70
     6
  9
$UCSNAME
  2

  9
$UCSORG
 10
0.0
 20
0.0
 30
0.0
  9
$UCSXDIR
 10
1.0
 20
0.0
 30
0.0
  9
$UCSYDIR
 10
0.0
 20
1.0
 30
0.0
  9
$PUCSNAME
  2

  9
$PUCSORG
 10
0.0
 20
0.0
 30
0.0
  9
$PUCSXDIR
 10
1.0
 20
0.0
 30
0.0
  9
$PUCSYDIR
 10
0.0
 20
1.0
 30
0.0
  9
$USERI1
 70
     0
  9
$USERI2
 70
     0
  9
$USERI3
 70
     0
  9
$USERI4
 70
     0
  9
$USERI5
 70
     0
  9
$USERR1
 40
0.0
  9
$USERR2
 40
0.0
  9
$USERR3
 40
0.0
  9
$USERR4
 40
0.0
  9
$USERR5
 40
0.0
  9
$WORLDVIEW
 70
     1
  9
$SHADEDGE
 70
     3
  9
$SHADEDIF
 70
    70
  9
$TILEMODE
 70
     1
  9
$MAXACTVP
 70
    16
  9
$PLIMCHECK
 70
     0
  9
$PEXTMIN
 10
1.0000000000000000E+20
 20
1.0000000000000000E+20
 30
1.0000000000000000E+20
  9
$PEXTMAX
 10
-1.0000000000000000E+20
 20
-1.0000000000000000E+20
 30
-1.0000000000000000E+20
  9
$PLIMMIN
 10
-0.0674642631973264
 20
-0.0511601294987543
  9
$PLIMMAX
 10
209.9325357368026914
 20
296.9488398705012742
  9
$UNITMODE
 70
     0
  9
$VISRETAIN
 70
     0
  9
$PLINEGEN
 70
     0
  9
$PSLTSCALE
 70
     0
  0
ENDSEC
  0
SECTION
  2
TABLES
  0
TABLE
  2
VPORT
 70
     1
  0
VPORT
  2
*ACTIVE
 70
     0
 10
0.0
 20
0.0
 11
1.0
 21
1.0
 12
-0.2664101552213367
 22
-78.608075980258576
 13
0.0
 23
0.0
 14
1.0
 24
1.0
 15
10.0
 25
10.0
 16
-0.0000000000001137
 26
0.0
 36
574.6586334198209443
 17
335.0847617766806934
 27
27.2466681617772011
 37
-12.51648614699889
 40
354.231404537112212
 41
1.7852028639618129
 42
50.0
 43
0.0
 44
0.0
 50
0.0
 51
0.0
 71
     0
 72
  1500
 73
     1
 74
     0
 75
     0
 76
     0
 77
     0
 78
     0
  0
ENDTAB
  0
TABLE
  2
LTYPE
 70
     7
  0
LTYPE
  2
CONTINUOUS
 70
     0
  3
Solid line
 72
    65
 73
     0
 40
0.0
  0
LTYPE
  2
PHANTOM2
 70
     0
  3
Phantom (.5x) ___ _ _ ___ _ _ ___ _ _ ___ _ _
 72
    65
 73
     6
 40
1.25
 49
0.625
 49
-0.125
 49
0.125
 49
-0.125
 49
0.125
 49
-0.125
  0
LTYPE
  2
VERDECKT
 70
     0
  3
Verdeckt __ __ __ __ __ __ __ __ __ __ __ __ __
 72
    65
 73
     2
 40
0.375
 49
0.25
 49
-0.125
  0
ENDTAB
  0
TABLE
  2
LAYER
 70
    12
  0
LAYER
  2
0
 70
     0
 62
     7
  6
CONTINUOUS
  0
LAYER
  2
VOLL
 70
     0
 62
     1
  6
CONTINUOUS
  0
LAYER
  2
STEMPEL
 70
     0
 62
     3
  6
CONTINUOUS
  0
LAYER
  2
DEFPOINTS
 70
     0
 62
     7
  6
CONTINUOUS
  0
LAYER
  2
ADSK_ASSOC_ENTITY_BACKUPS
 70
     1
 62
    -7
  6
CONTINUOUS
  0
ENDTAB
  0
TABLE
  2
STYLE
 70
     5
  0
STYLE
  2
STANDARD
 70
     0
 40
0.0
 41
0.8
 50
0.0
 71
     0
 42
3.5
  3
simplex.shx
  4

  0
STYLE
  2
GREEKS
 70
     0
 40
0.0
 41
0.8
 50
0.0
 71
     0
 42
2.5
  3
SIMPLEX.shx
  4

  0
ENDTAB
  0
TABLE
  2
VIEW
 70
     1
  0
ENDTAB
  0
TABLE
  2
UCS
 70
     0
  0
ENDTAB
  0
TABLE
  2
APPID
 70
    23
  0
APPID
  2
ACAD
 70
     0
  0
APPID
  2
ACAD_NAV_VCDISPLAY
 70
     0
  0
APPID
  2
ACAD_MLEADERVER
 70
     0
  0
APPID
  2
ACAD_EXEMPT_FROM_CAD_STANDARDS
 70
     0
  0
APPID
  2
ACAD_PSEXT
 70
     0
  0
APPID
  2
ACAECLAYERSTANDARD
 70
     0
  0
APPID
  2
ACAUTHENVIRON
 70
     0
  0
APPID
  2
ACCMTRANSPARENCY
 70
     0
  0
APPID
  2
ACAD_STEPID
 70
     0
  0
APPID
  2
ACSYNERGY
 70
     0
  0
APPID
  2
SYNERGY_BODY_TBR_ID
 70
     0
  0
APPID
  2
ACAD_VIEW_EDGE_ID
 70
     0
  0
APPID
  2
ACSYNERGYSKETCH
 70
     0
  0
APPID
  2
ACAD_MODELDOC_XFORM
 70
     0
  0
APPID
  2
ACAD_DSTYLE_DIMJAG
 70
     0
  0
APPID
  2
ACAD_DSTYLE_DIMTALN
 70
     0
  0
APPID
  2
ACADANNOMONITORALERTICONDI
 70
     0
  0
APPID
  2
ACAD_DIMASSOC_CALC_DIMLFAC
 70
     0
  0
APPID
  2
ACAD_DIMASSOC_DIMLFAC
 70
     0
  0
APPID
  2
ACAD_DIMASSOC_OVERRIDDEN_D
 70
     0
  0
APPID
  2
ACAD_DSTYLE_DIMRADIAL_EXTENSION
 70
     0
  0
APPID
  2
ACDBDYNAMICBLOCKGUID
 70
     0
  0
APPID
  2
AcDbAttr
 70
     0
  0
ENDTAB
  0
TABLE
  2
DIMSTYLE
 70
     2
  0
DIMSTYLE
  2
STANDARD
 70
     0
  3

  4

  5

  6

  7

 40
1.0
 41
0.18
 42
0.0625
 43
0.38
 44
0.18
 45
0.0
 46
0.0
 47
0.0
 48
0.0
140
0.18
141
0.09
142
0.0
143
25.3999999999999986
144
1.0
145
0.0
146
1.0
147
0.09
 71
     0
 72
     0
 73
     1
 74
     1
 75
     0
 76
     0
 77
     0
 78
     0
170
     0
171
     2
172
     0
173
     0
174
     0
175
     0
176
     0
177
     0
178
     0
  0
ENDTAB
  0
ENDSEC
  0
SECTION
  2
BLOCKS
  0
BLOCK
  8
0
  2
$MODEL_SPACE
 70
     0
 10
0.0
 20
0.0
 30
0.0
  3
$MODEL_SPACE
  1

  0
ENDBLK
  5
36
  8
0
  0
BLOCK
 67
     1
  8
0
  2
$PAPER_SPACE
 70
     0
 10
0.0
 20
0.0
 30
0.0
  3
$PAPER_SPACE
  1

  0
ENDBLK
  5
34
 67
     1
  8
0
  0
BLOCK
  8
0
  2
*S0
 70
     1
 10
0.0
 20
0.0
 30
0.0
  3
*S0
  1

  0
ENDBLK
  5
B3A
  8
0
  0
BLOCK
  8
0
  2
A$C58A469C6
 70
     0
 10
0.0
 20
0.0
 30
0.0
  3
A$C58A469C6
  1

  0
CIRCLE
  5
152F
  8
0
 10
169.3614039255618025
 20
33.3755299627929318
 30
0.0000000000000426
 40
24.3000906917921
  0
CIRCLE
  5
1530
  8
0
 10
169.3614039255618877
 20
33.3755299627929389
 30
0.0000000000000391
 40
24.9999999999998614
  0
CIRCLE
  5
1531
  8
0
 10
169.3614039255618877
 20
33.3755299627929389
 30
0.0000000000000377
 40
37.0267862505362473
  0
CIRCLE
  5
1532
  8
0
 10
169.3614039255618877
 20
33.3755299627929389
 30
0.0000000000000391
 40
49.0
  0
CIRCLE
  5
1533
  8
0
 10
169.3614039255618877
 20
33.3755299627929389
 30
0.0000000000000355
 40
53.0
  0
CIRCLE
  5
1534
  8
0
 10
169.3614039255620014
 20
33.3755299627929531
 30
0.0000000000000426
 40
53.5
  0
CIRCLE
  5
1535
  8
0
 10
169.3614039255620014
 20
33.3755299627929531
 30
0.0000000000000426
 40
55.7067558379251295
  0
CIRCLE
  5
1536
  8
0
 10
169.3614039255620014
 20
33.3755299627929531
 30
0.0000000000000426
 40
59.0
  0
CIRCLE
  5
1537
  8
0
  6
VERDECKT
 62
     1
 10
169.3614039255618877
 20
33.3755299627929389
 30
0.0000000000000391
 40
26.4999999999998614
  0
CIRCLE
  5
1538
  8
0
  6
VERDECKT
 62
     1
 10
169.3614039255618025
 20
33.3755299627929318
 30
0.0000000000000426
 40
25.8058204481074007
  0
CIRCLE
  5
1539
  8
0
  6
VERDECKT
 62
     1
 10
169.3614039255618877
 20
33.3755299627929389
 30
0.0000000000000377
 40
38.9999999999998934
  0
CIRCLE
  5
153A
  8
0
  6
VERDECKT
 62
     1
 10
169.3614039255618877
 20
33.3755299627929389
 30
0.0000000000000377
 40
37.2044896712296804
  0
CIRCLE
  5
153B
  8
0
  6
VERDECKT
 62
     1
 10
169.3614039255618877
 20
33.3755299627929389
 30
0.0000000000000377
 40
40.0
  0
CIRCLE
  5
153C
  8
0
  6
VERDECKT
 62
     1
 10
169.3614039255620014
 20
33.3755299627929531
 30
0.0000000000000426
 40
57.0
  0
CIRCLE
  5
153D
  8
0
  6
VERDECKT
 62
     1
 10
169.3614039255618877
 20
33.3755299627929389
 30
0.0000000000000355
 40
55.0
  0
CIRCLE
  5
153E
  8
0
  6
VERDECKT
 62
     1
 10
169.3614039255618877
 20
33.3755299627929389
 30
0.0000000000000391
 40
51.0000000000001208
  0
ENDBLK
  5
1540
  8
0
  0
BLOCK
  8
0
  2
A$CAF95EAE6
 70
     0
 10
0.0
 20
0.0
 30
0.0
  3
A$CAF95EAE6
  1

  0
LINE
  5
1544
  8
0
 10
143.5555834774544053
 20
-97.2499999999999716
 30
0.0000000000000216
 11
195.1672243736691996
 21
-97.2500000000000853
 31
0.0000000000000216
210
0.0
220
1.0
230
-0.0000000000000002
  0
ARC
  5
1545
  8
0
 10
-149.3614039255612909
 20
-89.0316952854571184
 30
0.0
 40
6.499999999999261
210
0.0
220
-0.0000000000000002
230
-1.0
 50
355.0000000000007958
 51
0.0000000000016284
  0
ARC
  5
1546
  8
0
 10
-189.3614039255643036
 20
-89.0316952854572179
 30
0.0
 40
6.499999999997299
210
0.0
220
-0.0000000000000002
230
-1.0
 50
179.9999999999982094
 51
184.999999999999801
  0
LINE
  5
1547
  8
0
 10
195.8614039255616035
 20
-20.8434055978448498
 30
0.0000000000000046
 11
195.8614039255616035
 21
-89.0316952854570047
 31
0.0000000000000198
210
0.0
220
1.0
230
-0.0000000000000002
  0
LINE
  5
1548
  8
0
 10
142.8614039255620867
 20
-20.8434055978447716
 30
0.0000000000000046
 11
142.8614039255620014
 21
-89.0316952854569337
 31
0.0000000000000198
210
0.0
220
1.0
230
-0.0000000000000002
  0
LINE
  5
1549
  8
0
 10
143.5555834774544053
 20
-97.2500000000000284
 30
0.0000000000000216
 11
142.8861383879657012
 21
-89.5982076133167453
 31
0.0000000000000199
210
0.0
220
1.0
230
-0.0000000000000002
  0
LINE
  5
154A
  8
0
 10
195.1672243736691996
 20
-97.2500000000000568
 30
0.0000000000000216
 11
195.8366694631579037
 21
-89.5982076133167453
 31
0.0000000000000199
210
0.0
220
1.0
230
-0.0000000000000002
  0
LINE
  5
154B
  8
0
 10
140.8864089124890882
 20
-14.2480075801291193
 30
0.0000000000000032
 11
130.3614039255620014
 21
1.7500000000000031
 31
-0.0000000000000004
210
0.0
220
1.0
230
-0.0000000000000002
  0
LINE
  5
154C
  8
0
 10
197.8363989386346873
 20
-14.2480075801292099
 30
0.0000000000000032
 11
208.3614039255618025
 21
1.749999999999895
 31
-0.0000000000000004
210
0.0
220
1.0
230
-0.0000000000000002
  0
ARC
  5
154D
  8
0
 10
-130.8614039255616888
 20
-20.8434055978447788
 30
0.0
 40
12.0000000000003393
210
0.0
220
-0.0000000000000002
230
-1.0
 50
146.6592926535219874
 51
179.9999999999998863
  0
ARC
  5
154E
  8
0
 10
-207.8614039255627119
 20
-20.8434055978450594
 30
0.0
 40
12.0000000000008793
210
0.0
220
-0.0000000000000002
230
-1.0
 50
0.0000000000009669
 51
33.3407073464772097
  0
LINE
  5
154F
  8
0
 10
129.3614039255618877
 20
1.75
 30
-0.0000000000000004
 11
209.3614039255618877
 21
1.75
 31
-0.0000000000000004
210
0.0
220
1.0
230
-0.0000000000000002
  0
LINE
  5
1550
  8
0
 10
113.6546480876368008
 20
97.2500000000000853
 30
-0.0000000000000216
 11
225.0681597634871025
 21
97.2500000000000853
 31
-0.0000000000000216
210
0.0
220
1.0
230
-0.0000000000000002
  0
LINE
  5
1551
  8
0
 10
225.0681597634871025
 20
97.2500000000000853
 30
-0.0000000000000216
 11
226.0190986014783903
 21
95.2107050809460844
 31
-0.0000000000000211
210
0.0
220
1.0
230
-0.0000000000000002
  0
LINE
  5
1552
  8
0
 10
113.6546480876368008
 20
97.2500000000000853
 30
-0.0000000000000216
 11
112.7037092496454989
 21
95.2107050809460844
 31
-0.0000000000000211
210
0.0
220
1.0
230
-0.0000000000000002
  0
ARC
  5
1553
  8
0
 10
-135.3614039255614898
 20
84.6452485374290973
 30
0.0
 40
24.9999999999995595
210
0.0
220
-0.0000000000000002
230
-1.0
 50
359.9999999999996021
 51
24.9999999999992291
  0
ARC
  5
1554
  8
0
 10
-203.3614039255616035
 20
84.6452485374288841
 30
0.0
 40
25.0000000000003908
210
0.0
220
-0.0000000000000002
230
-1.0
 50
155.0000000000011084
 51
179.999999999999801
  0
LINE
  5
1555
  8
0
 10
228.3614039255620014
 20
84.6452485374289409
 30
-0.0000000000000188
 11
228.3614039255620014
 21
66.4832005306816001
 31
-0.0000000000000148
210
0.0
220
1.0
230
-0.0000000000000002
  0
LINE
  5
1556
  8
0
 10
110.3614039255619019
 20
84.6452485374289409
 30
-0.0000000000000188
 11
110.3614039255619019
 21
66.4832005306816001
 31
-0.0000000000000148
210
0.0
220
1.0
230
-0.0000000000000002
  0
ARC
  5
1557
  8
0
 10
-135.361403925562314
 20
66.4832005306818417
 30
0.0
 40
25.0000000000004299
210
0.0
220
-0.0000000000000002
230
-1.0
 50
333.1119523822749784
 51
359.9999999999993747
  0
ARC
  5
1558
  8
0
 10
-203.3614039255620867
 20
66.4832005306817138
 30
0.0
 40
24.9999999999998899
210
0.0
220
-0.0000000000000002
230
-1.0
 50
180.000000000000199
 51
206.8880476177251921
  0
ARC
  5
1559
  8
0
 10
-102.3614039255622998
 20
49.7500000000002913
 30
0.0
 40
11.9999999999996003
210
0.0
220
-0.0000000000000002
230
-1.0
 50
153.1119523822779058
 51
180.0000000000013074
  0
ARC
  5
155A
  8
0
 10
-236.3614039255616888
 20
49.7500000000002771
 30
0.0
 40
11.9999999999997407
210
0.0
220
-0.0000000000000002
230
-1.0
 50
359.9999999999988063
 51
26.888047617721881
  0
LINE
  5
155B
  8
0
 10
224.3614039255620014
 20
49.7500000000000071
 30
-0.000000000000011
 11
224.3614039255620014
 21
34.1774888769475069
 31
-0.0000000000000076
210
0.0
220
1.0
230
-0.0000000000000002
  0
LINE
  5
155C
  8
0
 10
114.3614039255619019
 20
49.7500000000000071
 30
-0.000000000000011
 11
114.3614039255619019
 21
34.1774888769475069
 31
-0.0000000000000076
210
0.0
220
1.0
230
-0.0000000000000002
  0
ARC
  5
155D
  8
0
 10
-129.3614039255631099
 20
34.1774888769479901
 30
0.0
 40
15.0000000000012204
210
0.0
220
-0.0000000000000002
230
-1.0
 50
325.6988472432093999
 51
359.999999999998181
  0
ARC
  5
155E
  8
0
 10
-209.3614039255610066
 20
34.1774888769479119
 30
0.0
 40
15.0000000000009592
210
0.0
220
-0.0000000000000002
230
-1.0
 50
180.0000000000015064
 51
214.301152756790998
  0
ARC
  5
155F
  8
0
 10
-110.3614039255631951
 20
21.2160074801324789
 30
0.0
 40
7.9999999999986189
210
0.0
220
-0.0000000000000002
230
-1.0
 50
145.6988472432078083
 51
180.0000000000044054
  0
ARC
  5
1560
  8
0
 10
-228.361403925560694
 20
21.2160074801324789
 30
0.0
 40
7.9999999999986073
210
0.0
220
-0.0000000000000002
230
-1.0
 50
359.9999999999955094
 51
34.3011527567921988
  0
LINE
  5
1561
  8
0
 10
220.3614039255620014
 20
21.2160074801318501
 30
-0.0000000000000047
 11
220.3614039255620014
 21
18.8279181779178693
 31
-0.0000000000000042
210
0.0
220
1.0
230
-0.0000000000000002
  0
LINE
  5
1562
  8
0
 10
118.3614039255619019
 20
21.2160074801318501
 30
-0.0000000000000047
 11
118.3614039255619019
 21
18.8279181779178693
 31
-0.0000000000000042
210
0.0
220
1.0
230
-0.0000000000000002
  0
ARC
  5
1563
  8
0
 10
-134.3614039255627972
 20
18.8279181779182707
 30
0.0
 40
16.0000000000009095
210
0.0
220
-0.0000000000000002
230
-1.0
 50
312.2736890060953101
 51
359.9999999999985789
  0
ARC
  5
1564
  8
0
 10
-204.3614039255610919
 20
18.8279181779182387
 30
0.0
 40
16.0000000000008491
210
0.0
220
-0.0000000000000002
230
-1.0
 50
180.0000000000013074
 51
227.7263109939048888
  0
LINE
  5
1565
  8
0
 10
129.3614039255618877
 20
1.749999999999984
 30
-0.0000000000000004
 11
123.5986392216208998
 21
6.988877003582771
 31
-0.0000000000000016
210
0.0
220
1.0
230
-0.0000000000000002
  0
LINE
  5
1566
  8
0
 10
209.3614039255618877
 20
1.749999999999984
 30
-0.0000000000000004
 11
215.1241686295028899
 21
6.988877003582771
 31
-0.0000000000000016
210
0.0
220
1.0
230
-0.0000000000000002
  0
ARC
  5
1567
  8
0
  6
VERDECKT
 62
     1
 10
-149.361403925557795
 20
-89.0316952854576158
 30
0.0
 40
4.9999999999957652
210
0.0
220
-0.0000000000000002
230
-1.0
 50
354.9999999999973284
 51
0.0000000000032569
  0
ARC
  5
1568
  8
0
  6
VERDECKT
 62
     1
 10
-189.3614039255654973
 20
-89.0316952854577153
 30
0.0
 40
4.9999999999960769
210
0.0
220
-0.0000000000000002
230
-1.0
 50
179.9999999999965894
 51
185.0000000000025011
  0
LINE
  5
1569
  8
0
  6
VERDECKT
 62
     1
 10
145.0613132337697095
 20
-97.2500000000000284
 30
0.0000000000000216
 11
144.3804304351033068
 21
-89.467473999195775
 31
0.0000000000000199
210
0.0
220
1.0
230
-0.0000000000000002
  0
LINE
  5
156A
  8
0
  6
VERDECKT
 62
     1
 10
193.6614946173538954
 20
-97.2500000000000568
 30
0.0000000000000216
 11
194.3423774160202981
 21
-89.4674739991958887
 31
0.0000000000000199
210
0.0
220
1.0
230
-0.0000000000000002
  0
LINE
  5
156B
  8
0
  6
VERDECKT
 62
     1
 10
194.3614039255616035
 20
-20.8434055978448498
 30
0.0000000000000046
 11
194.3614039255614898
 21
-89.0316952854574168
 31
0.0000000000000198
210
0.0
220
1.0
230
-0.0000000000000002
  0
LINE
  5
156C
  8
0
  6
VERDECKT
 62
     1
 10
144.3614039255620867
 20
-20.8434055978447716
 30
0.0000000000000046
 11
144.3614039255620014
 21
-89.0316952854573316
 31
0.0000000000000198
210
0.0
220
1.0
230
-0.0000000000000002
  0
ARC
  5
156D
  8
0
  6
VERDECKT
 62
     1
 10
-130.861403925563593
 20
-20.8434055978443915
 30
0.0
 40
13.4999999999984297
210
0.0
220
-0.0000000000000002
230
-1.0
 50
146.6592926535186905
 51
180.0000000000015064
  0
ARC
  5
156E
  8
0
  6
VERDECKT
 62
     1
 10
-207.8614039255604098
 20
-20.8434055978445301
 30
0.0
 40
13.4999999999986304
210
0.0
220
-0.0000000000000002
230
-1.0
 50
359.9999999999985789
 51
33.3407073464808619
  0
LINE
  5
156F
  8
0
  6
VERDECKT
 62
     1
 10
142.1395345358548923
 20
-13.4235828279146894
 30
0.000000000000003
 11
132.1569142543322073
 21
1.75000000000005
 31
-0.0000000000000004
210
0.0
220
1.0
230
-0.0000000000000002
  0
LINE
  5
1570
  8
0
  6
VERDECKT
 62
     1
 10
196.5832733152689116
 20
-13.42358282791478
 30
0.000000000000003
 11
206.5658935967915966
 21
1.7499999999999449
 31
-0.0000000000000004
210
0.0
220
1.0
230
-0.0000000000000002
  0
LINE
  5
1571
  8
0
  6
VERDECKT
 62
     1
 10
132.3346176750256973
 20
1.7500000000000699
 30
-0.0000000000000004
 11
124.9439848096136956
 21
8.4687571503745982
 31
-0.0000000000000019
210
0.0
220
1.0
230
-0.0000000000000002
  0
LINE
  5
1572
  8
0
  6
VERDECKT
 62
     1
 10
206.3881901760981918
 20
1.7500000000000699
 30
-0.0000000000000004
 11
213.7788230415100941
 21
8.4687571503745982
 31
-0.0000000000000019
210
0.0
220
1.0
230
-0.0000000000000002
  0
ARC
  5
1573
  8
0
  6
VERDECKT
 62
     1
 10
-134.3614039255618877
 20
18.8279181779179687
 30
0.0
 40
13.9999999999999893
210
0.0
220
-0.0000000000000002
230
-1.0
 50
312.2736890060925816
 51
359.9999999999996021
  0
ARC
  5
1574
  8
0
  6
VERDECKT
 62
     1
 10
-204.3614039255620014
 20
18.8279181779179687
 30
0.0
 40
13.9999999999999698
210
0.0
220
-0.0000000000000002
230
-1.0
 50
180.0000000000003979
 51
227.72631099390739
  0
LINE
  5
1575
  8
0
  6
VERDECKT
 62
     1
 10
218.3614039255620014
 20
21.2160074801318501
 30
-0.0000000000000047
 11
218.3614039255620014
 21
18.8279181779178693
 31
-0.0000000000000042
210
0.0
220
1.0
230
-0.0000000000000002
  0
LINE
  5
1576
  8
0
  6
VERDECKT
 62
     1
 10
120.3614039255619019
 20
21.2160074801318501
 30
-0.0000000000000047
 11
120.3614039255619019
 21
18.8279181779178693
 31
-0.0000000000000042
210
0.0
220
1.0
230
-0.0000000000000002
  0
ARC
  5
1577
  8
0
  6
VERDECKT
 62
     1
 10
-110.361403925560893
 20
21.2160074801315304
 30
0.0
 40
10.0000000000010605
210
0.0
220
-0.0000000000000002
230
-1.0
 50
145.6988472432101958
 51
179.9999999999980957
  0
ARC
  5
1578
  8
0
  6
VERDECKT
 62
     1
 10
-228.3614039255629962
 20
21.216007480131541
 30
0.0
 40
10.0000000000010196
210
0.0
220
-0.0000000000000002
230
-1.0
 50
0.0000000000018193
 51
34.3011527567899179
  0
ARC
  5
1579
  8
0
  6
VERDECKT
 62
     1
 10
-129.3614039255620014
 20
34.1774888769475922
 30
0.0
 40
13.0000000000000497
210
0.0
220
-0.0000000000000002
230
-1.0
 50
325.6988472432087178
 51
360.0
  0
ARC
  5
157A
  8
0
  6
VERDECKT
 62
     1
 10
-209.3614039255618877
 20
34.1774888769475922
 30
0.0
 40
13.0000000000000497
210
0.0
220
-0.0000000000000002
230
-1.0
 50
180.0
 51
214.3011527567913106
  0
LINE
  5
157B
  8
0
  6
VERDECKT
 62
     1
 10
222.3614039255620014
 20
49.7497994693184893
 30
-0.000000000000011
 11
222.3614039255620014
 21
34.1774888769475709
 31
-0.0000000000000076
210
0.0
220
1.0
230
-0.0000000000000002
  0
LINE
  5
157C
  8
0
  6
VERDECKT
 62
     1
 10
116.3614039255619019
 20
49.7497994693184893
 30
-0.000000000000011
 11
116.3614039255619019
 21
34.1774888769475709
 31
-0.0000000000000076
210
0.0
220
1.0
230
-0.0000000000000002
  0
ARC
  5
157D
  8
0
  6
VERDECKT
 62
     1
 10
-102.3614039255626977
 20
49.7497994693183614
 30
0.0
 40
13.9999999999992308
210
0.0
220
-0.0000000000000002
230
-1.0
 50
153.1119523822727899
 51
179.9999999999994031
  0
ARC
  5
157E
  8
0
  6
VERDECKT
 62
     1
 10
-236.3614039255612056
 20
49.7497994693183472
 30
0.0
 40
13.9999999999992593
210
0.0
220
-0.0000000000000002
230
-1.0
 50
0.0000000000005598
 51
26.8880476177271284
  0
ARC
  5
157F
  8
0
  6
VERDECKT
 62
     1
 10
-135.3614039255616035
 20
66.4829999999996062
 30
0.0
 40
22.9999999999996589
210
0.0
220
-0.0000000000000002
230
-1.0
 50
333.1119523822771953
 51
0.0000000000007506
  0
ARC
  5
1580
  8
0
  6
VERDECKT
 62
     1
 10
-203.361403925562314
 20
66.4829999999996062
 30
0.0
 40
22.9999999999996589
210
0.0
220
-0.0000000000000002
230
-1.0
 50
179.9999999999992042
 51
206.8880476177228047
  0
LINE
  5
1581
  8
0
  6
VERDECKT
 62
     1
 10
226.3614039255620014
 20
84.6452485374289409
 30
-0.0000000000000188
 11
226.3614039255620014
 21
66.4829999999999046
 31
-0.0000000000000148
210
0.0
220
1.0
230
-0.0000000000000002
  0
LINE
  5
1582
  8
0
  6
VERDECKT
 62
     1
 10
112.3614039255619019
 20
84.6452485374289409
 30
-0.0000000000000188
 11
112.3614039255619019
 21
66.4829999999999046
 31
-0.0000000000000148
210
0.0
220
1.0
230
-0.0000000000000002
  0
ARC
  5
1583
  8
0
  6
VERDECKT
 62
     1
 10
-135.3614039255641899
 20
84.6452485374284436
 30
0.0
 40
23.0000000000022808
210
0.0
220
-0.0000000000000002
230
-1.0
 50
0.0
 51
24.9999999999965787
  0
ARC
  5
1584
  8
0
  6
VERDECKT
 62
     1
 10
-203.3614039255596992
 20
84.6452485374284436
 30
0.0
 40
23.0000000000022808
210
0.0
220
-0.0000000000000002
230
-1.0
 50
155.0000000000021032
 51
179.9999999999986926
  0
LINE
  5
1585
  8
0
  6
VERDECKT
 62
     1
 10
222.8614039255618877
 20
97.2500000000000284
 30
-0.0000000000000216
 11
224.2064830274049996
 21
94.3654685574646948
 31
-0.000000000000021
210
0.0
220
1.0
230
-0.0000000000000002
  0
LINE
  5
1586
  8
0
  6
VERDECKT
 62
     1
 10
115.8614039255619019
 20
97.2500000000000284
 30
-0.0000000000000216
 11
114.5163248237188043
 21
94.3654685574646948
 31
-0.000000000000021
210
0.0
220
1.0
230
-0.0000000000000002
  0
ENDBLK
  5
1588
  8
0
  0
ENDSEC
  0
SECTION
  2
ENTITIES
  0
TEXT
  5
8F
  8
VOLL
 10
78.076754716981128
 20
31.025947764705851
 30
0.0
 40
1.8
  1

  7
GREEKS
  0
INSERT
  5
B3C
  8
ADSK_ASSOC_ENTITY_BACKUPS
  2
*S0
 10
0.0
 20
0.0
 30
0.0
  0
INSERT
  5
1541
  8
STEMPEL
  2
A$C58A469C6
 10
165.4569476958974121
 20
-201.5950137615330107
 30
-32.0218492975806086
  0
INSERT
  5
1589
  8
STEMPEL
  2
A$CAF95EAE6
 10
165.4569476958974121
 20
27.2466681617771904
 30
-32.0218492975805873
  0
VIEWPORT
  5
928
 67
     1
  8
0
 10
104.9325357368027056
 20
148.4488398705011889
 30
0.0
 40
533.9969448798291296
 41
299.1239570917758783
 68
     1
 69
     1
1001
ACAD
1000
MVIEW
1002
{
1070
    16
1010
0.0
1020
0.0
1030
0.0
1010
0.0
1020
0.0
1030
1.0
1040
0.0
1040
299.1239570917758783
1040
104.9325357368027056
1040
148.4488398705011889
1040
50.0
1040
0.0
1040
0.0
1070
     0
1070
  1500
1070
     1
1070
     1
1070
     0
1070
     0
1070
     0
1070
     0
1040
0.0
1040
0.0
1040
0.0
1040
10.0
1040
10.0
1040
10.0
1040
10.0
1070
     0
1002
{
1002
}
1002
}
  0
ENDSEC
  0
EOF
