  0
SECTION
  2
HEADER
  9
$ACADVER
  1
AC1009
  9
$INSBASE
 10
509.9391017861535147
 20
-118.0350180316795985
 30
403.1361558984037856
  9
$EXTMIN
 10
-117.9438171386719034
 20
55.0
 30
-24.6231861114501989
  9
$EXTMAX
 10
-66.943817138671875
 20
55.0
 30
160.8511352539061932
  9
$LIMMIN
 10
0.0
 20
0.000000000000008
  9
$LIMMAX
 10
594.0
 20
840.0
  9
$ORTHOMODE
 70
     1
  9
$REGENMODE
 70
     1
  9
$FILLMODE
 70
     1
  9
$QTEXTMODE
 70
     0
  9
$MIRRTEXT
 70
     1
  9
$DRAGMODE
 70
     2
  9
$LTSCALE
 40
20.0
  9
$OSMODE
 70
  1535
  9
$ATTMODE
 70
     1
  9
$TEXTSIZE
 40
2.0
  9
$TRACEWID
 40
1.0
  9
$TEXTSTYLE
  7
STANDARD
  9
$CLAYER
  8
STEMPEL
  9
$CELTYPE
  6
BYLAYER
  9
$CECOLOR
 62
   256
  9
$DIMSCALE
 40
1.0
  9
$DIMASZ
 40
3.5
  9
$DIMEXO
 40
1.0
  9
$DIMDLI
 40
0.38
  9
$DIMRND
 40
0.0
  9
$DIMDLE
 40
0.0
  9
$DIMEXE
 40
1.0
  9
$DIMTP
 40
0.0
  9
$DIMTM
 40
0.000000001
  9
$DIMTXT
 40
3.5
  9
$DIMCEN
 40
0.09
  9
$DIMTSZ
 40
0.0
  9
$DIMTOL
 70
     0
  9
$DIMLIM
 70
     0
  9
$DIMTIH
 70
     0
  9
$DIMTOH
 70
     0
  9
$DIMSE1
 70
     0
  9
$DIMSE2
 70
     0
  9
$DIMTAD
 70
     1
  9
$DIMZIN
 70
     8
  9
$DIMBLK
  1

  9
$DIMASO
 70
     1
  9
$DIMSHO
 70
     0
  9
$DIMPOST
  1

  9
$DIMAPOST
  1

  9
$DIMALT
 70
     0
  9
$DIMALTD
 70
     2
  9
$DIMALTF
 40
25.3999999999999986
  9
$DIMLFAC
 40
1.0
  9
$DIMTOFL
 70
     1
  9
$DIMTVP
 40
0.0
  9
$DIMTIX
 70
     0
  9
$DIMSOXD
 70
     0
  9
$DIMSAH
 70
     0
  9
$DIMBLK1
  1

  9
$DIMBLK2
  1

  9
$DIMSTYLE
  2
LORO
  9
$DIMCLRD
 70
     0
  9
$DIMCLRE
 70
     0
  9
$DIMCLRT
 70
     1
  9
$DIMTFAC
 40
0.5
  9
$DIMGAP
 40
1.5
  9
$LUNITS
 70
     2
  9
$LUPREC
 70
     2
  9
$SKETCHINC
 40
1.0
  9
$FILLETRAD
 40
11.0
  9
$AUNITS
 70
     0
  9
$AUPREC
 70
     0
  9
$MENU
  1
ACAD
  9
$ELEVATION
 40
0.0
  9
$PELEVATION
 40
0.0
  9
$THICKNESS
 40
0.0
  9
$LIMCHECK
 70
     0
  9
$BLIPMODE
 70
     0
  9
$CHAMFERA
 40
0.0
  9
$CHAMFERB
 40
0.0
  9
$SKPOLY
 70
     0
  9
$TDCREATE
 40
2455397.867048610933125
  9
$TDUPDATE
 40
2460690.4932291670702398
  9
$TDINDWG
 40
1.5686990394
  9
$TDUSRTIMER
 40
1.5686990394
  9
$USRTIMER
 70
     1
  9
$ANGBASE
 50
0.0
  9
$ANGDIR
 70
     0
  9
$PDMODE
 70
     0
  9
$PDSIZE
 40
0.0
  9
$PLINEWID
 40
0.0
  9
$COORDS
 70
     1
  9
$SPLFRAME
 70
     0
  9
$SPLINETYPE
 70
     6
  9
$SPLINESEGS
 70
     8
  9
$ATTDIA
 70
     1
  9
$ATTREQ
 70
     1
  9
$HANDLING
 70
     1
  9
$HANDSEED
  5
224C2
  9
$SURFTAB1
 70
     6
  9
$SURFTAB2
 70
     6
  9
$SURFTYPE
 70
     6
  9
$SURFU
 70
     6
  9
$SURFV
 70
     6
  9
$UCSNAME
  2

  9
$UCSORG
 10
0.0
 20
0.0
 30
0.0
  9
$UCSXDIR
 10
1.0
 20
0.0
 30
0.0
  9
$UCSYDIR
 10
0.0
 20
1.0
 30
0.0
  9
$PUCSNAME
  2

  9
$PUCSORG
 10
0.0
 20
0.0
 30
0.0
  9
$PUCSXDIR
 10
1.0
 20
0.0
 30
0.0
  9
$PUCSYDIR
 10
0.0
 20
1.0
 30
0.0
  9
$USERI1
 70
     0
  9
$USERI2
 70
     0
  9
$USERI3
 70
     0
  9
$USERI4
 70
     0
  9
$USERI5
 70
     0
  9
$USERR1
 40
0.0
  9
$USERR2
 40
0.0
  9
$USERR3
 40
0.0
  9
$USERR4
 40
0.0
  9
$USERR5
 40
0.0
  9
$WORLDVIEW
 70
     1
  9
$SHADEDGE
 70
     3
  9
$SHADEDIF
 70
    70
  9
$TILEMODE
 70
     1
  9
$MAXACTVP
 70
    16
  9
$PLIMCHECK
 70
     0
  9
$PEXTMIN
 10
1.0000000000000000E+20
 20
1.0000000000000000E+20
 30
1.0000000000000000E+20
  9
$PEXTMAX
 10
-1.0000000000000000E+20
 20
-1.0000000000000000E+20
 30
-1.0000000000000000E+20
  9
$PLIMMIN
 10
-0.2049179077148722
 20
-0.2552490234375285
  9
$PLIMMAX
 10
209.7950820922852131
 20
296.7447509765625
  9
$UNITMODE
 70
     0
  9
$VISRETAIN
 70
     0
  9
$PLINEGEN
 70
     0
  9
$PSLTSCALE
 70
     0
  0
ENDSEC
  0
SECTION
  2
TABLES
  0
TABLE
  2
VPORT
 70
     1
  0
VPORT
  2
*ACTIVE
 70
     0
 10
0.0
 20
0.0
 11
1.0
 21
1.0
 12
-41.73467831433382
 22
14.5983162393758192
 13
0.0
 23
0.0
 14
1.0
 24
1.0
 15
10.0
 25
10.0
 16
0.0
 26
-2649.9036926634807969
 36
0.0
 17
-50.7091388243380834
 27
14.75
 37
53.5156583318522081
 40
186.4369908534119133
 41
1.9004329004328999
 42
207.9750642040671949
 43
0.0
 44
0.0
 50
0.0
 51
0.0
 71
     0
 72
  1500
 73
     1
 74
     0
 75
     0
 76
     0
 77
     0
 78
     0
  0
ENDTAB
  0
TABLE
  2
LTYPE
 70
    13
  0
LTYPE
  2
CONTINUOUS
 70
     0
  3
Solid line
 72
    65
 73
     0
 40
0.0
  0
LTYPE
  2
STRICHPUNKT
 70
     0
  3
__ . __ . __ . __ . __ . __ . __ . __ . __ . __
 72
    65
 73
     4
 40
1.0
 49
0.5
 49
-0.25
 49
0.0
 49
-0.25
  0
LTYPE
  2
HIDDEN
 70
     0
  3
Hidden __ __ __ __ __ __ __ __ __ __ __ __ __ __
 72
    65
 73
     2
 40
0.375
 49
0.25
 49
-0.125
  0
LTYPE
  2
PHANTOM2
 70
     0
  3
Phantom (.5x) ___ _ _ ___ _ _ ___ _ _ ___ _ _
 72
    65
 73
     6
 40
1.25
 49
0.625
 49
-0.125
 49
0.125
 49
-0.125
 49
0.125
 49
-0.125
  0
LTYPE
  2
CENTER
 70
     0
  3
Center ____ _ ____ _ ____ _ ____ _ ____ _ ____
 72
    65
 73
     4
 40
2.0
 49
1.25
 49
-0.25
 49
0.25
 49
-0.25
  0
LTYPE
  2
AMCONSTR
 70
     0
  3
_______________________
 72
    65
 73
     2
 40
9999.0
 49
9999.0
 49
0.0
  0
LTYPE
  2
CENTER2
 70
     0
  3
Center (.5x) ___ _ ___ _ ___ _ ___ _ ___ _ ___
 72
    65
 73
     4
 40
1.125
 49
0.75
 49
-0.125
 49
0.125
 49
-0.125
  0
LTYPE
  2
HIDDEN2
 70
     0
  3
Hidden (.5x) _ _ _ _ _ _ _ _ _ _ _ _ _ _ _ _ _
 72
    65
 73
     2
 40
0.1875
 49
0.125
 49
-0.0625
  0
LTYPE
  2
AMZIGZAG2
 70
     0
  3
/\/-/\/-/\/-/\/-/\/-/\/
 72
    65
 73
     2
 40
0.4401
 49
0.0001
 49
-0.4400000000000001
  0
LTYPE
  2
ACANSTGB
 70
     0
  3
__ . . __ . .
 72
    65
 73
     6
 40
0.35433070866
 49
0.15748031496
 49
-0.03937007874
 49
0.03937007874
 49
-0.03937007874
 49
0.03937007874
 49
-0.03937007874
  0
LTYPE
  2
ACANSTGL
 70
     0
  3
_ _ _ _ _
 72
    65
 73
     2
 40
0.11811023622
 49
0.07874015748
 49
-0.03937007874
  0
LTYPE
  2
AUSGEZOGEN
 70
     0
  3
Ausgezogene Linie
 72
    65
 73
     0
 40
0.0
  0
LTYPE
  2
VERDECKT
 70
     0
  3
Verdeckt __ __ __ __ __ __ __ __ __ __ __ __ __
 72
    65
 73
     2
 40
0.375
 49
0.25
 49
-0.125
  0
ENDTAB
  0
TABLE
  2
LAYER
 70
     6
  0
LAYER
  2
0
 70
     0
 62
     7
  6
CONTINUOUS
  0
LAYER
  2
VOLL
 70
     0
 62
     1
  6
CONTINUOUS
  0
LAYER
  2
STEMPEL
 70
     0
 62
     3
  6
CONTINUOUS
  0
LAYER
  2
DEFPOINTS
 70
     0
 62
     7
  6
CONTINUOUS
  0
LAYER
  2
ADSK_ASSOC_ENTITY_BACKUPS
 70
     1
 62
    -7
  6
CONTINUOUS
  0
LAYER
  2
MATERIAL__VERZINKT_
 70
     0
 62
   254
  6
CONTINUOUS
  0
ENDTAB
  0
TABLE
  2
STYLE
 70
     6
  0
STYLE
  2
STANDARD
 70
     0
 40
0.0
 41
0.8
 50
0.0
 71
     0
 42
2.0
  3
simplex.shx
  4

  0
STYLE
  2
GREEKS
 70
     0
 40
0.0
 41
0.8
 50
0.0
 71
     0
 42
2.5
  3
SIMPLEX.shx
  4

  0
STYLE
  2

 70
     1
 40
0.0
 41
1.0
 50
0.0
 71
     0
 42
2.5
  3
genltshp.shx
  4

  0
STYLE
  2
ACANSGDT
 70
     0
 40
0.0
 41
1.0
 50
0.0
 71
     0
 42
2.5
  3
amgdt.shx
  4

  0
STYLE
  2

 70
     1
 40
0.0
 41
1.0
 50
0.0
 71
     0
 42
2.0
  3
ltypeshp.shx
  4

  0
ENDTAB
  0
TABLE
  2
VIEW
 70
     2
  0
ENDTAB
  0
TABLE
  2
UCS
 70
     0
  0
ENDTAB
  0
TABLE
  2
APPID
 70
    49
  0
APPID
  2
ACAD
 70
     0
  0
APPID
  2
ACAD_NAV_VCDISPLAY
 70
     0
  0
APPID
  2
GRADIENTCOLOR1ACI
 70
     0
  0
APPID
  2
GRADIENTCOLOR2ACI
 70
     0
  0
APPID
  2
ACAD_DSTYLE_DIMRADIAL_EXTENSION
 70
     0
  0
APPID
  2
ACADANNOMONITORALERTICONDI
 70
     0
  0
APPID
  2
ACAD_EXEMPT_FROM_CAD_STANDARDS
 70
     0
  0
APPID
  2
ACAD_MLEADERVER
 70
     0
  0
APPID
  2
ACAD_PSEXT
 70
     0
  0
APPID
  2
ACAECLAYERSTANDARD
 70
     0
  0
APPID
  2
ACCMTRANSPARENCY
 70
     0
  0
APPID
  2
ACAD_OBJECT_CHANGE_GUID
 70
     0
  0
APPID
  2
MCAD_NO_VIS
 70
     0
  0
APPID
  2
ACAD_TEMP_GRAPHIC
 70
     0
  0
APPID
  2
ACATTRIBSERVICES
 70
     0
  0
APPID
  2
DESIGNERASSEMBLIES
 70
     0
  0
APPID
  2
ACAD_DSTYLE_DIMJAG
 70
     0
  0
APPID
  2
ACAD_DSTYLE_DIMBREAK
 70
     0
  0
APPID
  2
GENIUS_GENSCREG_15
 70
     0
  0
APPID
  2
GENIUS_GENOBJ-N-SDF_13
 70
     0
  0
APPID
  2
GENIUS_GENODEF_13
 70
     0
  0
APPID
  2
ACAD_STEPID
 70
     0
  0
APPID
  2
ACAD_DSTYLE_DIMARC_LENGTH_
 70
     0
  0
APPID
  2
ACAD_DSTYLE_DIM_LINETYPE
 70
     0
  0
APPID
  2
ACAD_DSTYLE_DIM_EXT1_LINETYPE
 70
     0
  0
APPID
  2
ACAD_DSTYLE_DIM_EXT2_LINETYPE
 70
     0
  0
APPID
  2
RAK
 70
     0
  0
APPID
  2
ACADANNOPO
 70
     0
  0
APPID
  2
ACSYNERGY
 70
     0
  0
APPID
  2
SYNERGY_BODY_TBR_ID
 70
     0
  0
APPID
  2
ACAD_VIEW_EDGE_ID
 70
     0
  0
APPID
  2
ACSYNERGYSKETCH
 70
     0
  0
APPID
  2
ACAD_MODELDOC_XFORM
 70
     0
  0
APPID
  2
GENIUS_GENDTOL_13
 70
     0
  0
APPID
  2
ACAD_DSTYLE_DIMINSPECT
 70
     0
  0
APPID
  2
ACAD_DSTYLE_DIMANGULAR_EXT
 70
     0
  0
APPID
  2
PLOTTRANSPARENCY
 70
     0
  0
APPID
  2
ACAUTHENVIRON
 70
     0
  0
APPID
  2
ACDBDYNAMICBLOCKTRUENAME
 70
     0
  0
APPID
  2
ACDBDYNAMICBLOCKGUID
 70
     0
  0
APPID
  2
PE_URL
 70
     0
  0
APPID
  2
ACADANNOAV
 70
     0
  0
APPID
  2
ACAD_TC
 70
     0
  0
APPID
  2
ACAD_DIMASSOC_CALC_DIMLFAC
 70
     0
  0
APPID
  2
ACAD_DIMASSOC_DIMLFAC
 70
     0
  0
APPID
  2
ACAD_DIMASSOC_OVERRIDDEN_D
 70
     0
  0
APPID
  2
ACAD_DSTYLE_DIMTALN
 70
     0
  0
APPID
  2
ACADANNOTATIVE
 70
     0
  0
APPID
  2
HATCHBACKGROUNDCOLOR
 70
     0
  0
ENDTAB
  0
TABLE
  2
DIMSTYLE
 70
    10
  0
DIMSTYLE
  2
AM_ANSI
 70
     0
  3

  4
mm
  5

  6

  7

 40
1.0
 41
0.12
 42
0.05
 43
0.5
 44
0.1
 45
0.0
 46
0.0
 47
0.1
 48
0.1
140
0.12
141
0.0
142
0.0
143
25.3999999999999986
144
1.0
145
0.0
146
0.71
147
0.06
 71
     0
 72
     0
 73
     1
 74
     1
 75
     0
 76
     0
 77
     0
 78
     7
170
     0
171
     2
172
     0
173
     0
174
     0
175
     0
176
   256
177
   256
178
   255
  0
DIMSTYLE
  2
AM_ANSI$3
 70
     0
  3

  4
mm
  5

  6

  7

 40
1.0
 41
0.12
 42
0.05
 43
0.5
 44
0.1
 45
0.0
 46
0.0
 47
0.1
 48
0.1
140
0.12
141
0.0
142
0.0
143
25.3999999999999986
144
1.0
145
0.0
146
0.71
147
0.06
 71
     0
 72
     0
 73
     1
 74
     1
 75
     0
 76
     0
 77
     0
 78
     7
170
     0
171
     2
172
     0
173
     0
174
     0
175
     0
176
   256
177
   256
178
   255
  0
DIMSTYLE
  2
AM_ANSI$4
 70
     0
  3

  4
mm
  5

  6

  7

 40
1.0
 41
0.12
 42
0.05
 43
0.5
 44
0.1
 45
0.0
 46
0.0
 47
0.1
 48
0.1
140
0.12
141
0.0
142
0.0
143
25.3999999999999986
144
1.0
145
0.0
146
0.71
147
0.06
 71
     0
 72
     0
 73
     1
 74
     1
 75
     0
 76
     0
 77
     0
 78
     7
170
     0
171
     2
172
     0
173
     0
174
     0
175
     0
176
   256
177
   256
178
   255
  0
DIMSTYLE
  2
AM_ANSI$7
 70
     0
  3

  4
mm
  5

  6

  7

 40
1.0
 41
0.12
 42
0.05
 43
0.5
 44
0.1
 45
0.0
 46
0.0
 47
0.1
 48
0.1
140
0.12
141
0.0
142
0.0
143
25.3999999999999986
144
1.0
145
0.0
146
0.71
147
0.06
 71
     0
 72
     0
 73
     1
 74
     1
 75
     0
 76
     0
 77
     0
 78
     7
170
     0
171
     2
172
     0
173
     0
174
     0
175
     0
176
   256
177
   256
178
   255
  0
DIMSTYLE
  2
AM_ANSI$SF
 70
     0
  3

  4
mm
  5

  6

  7

 40
1.0
 41
0.12
 42
0.05
 43
0.5
 44
0.1
 45
0.0
 46
0.0
 47
0.1
 48
0.1
140
0.12
141
0.0
142
0.0
143
25.3999999999999986
144
1.0
145
0.0
146
0.71
147
0.06
 71
     0
 72
     0
 73
     1
 74
     1
 75
     1
 76
     1
 77
     0
 78
     7
170
     0
171
     2
172
     0
173
     0
174
     0
175
     0
176
   256
177
   256
178
   255
  0
DIMSTYLE
  2
AM_ANSI$SH
 70
     0
  3

  4
mm
  5

  6
GENAXEH
  7

 40
1.0
 41
0.12
 42
0.05
 43
0.5
 44
0.1
 45
0.0
 46
0.0
 47
0.1
 48
0.1
140
0.12
141
0.0
142
0.0
143
25.3999999999999986
144
1.0
145
0.0
146
0.71
147
0.06
 71
     0
 72
     0
 73
     1
 74
     1
 75
     1
 76
     1
 77
     0
 78
     7
170
     0
171
     2
172
     0
173
     1
174
     0
175
     0
176
   256
177
   256
178
   255
  0
DIMSTYLE
  2
AM_ANSI$0
 70
     0
  3

  4
"
  5

  6

  7

 40
1.0
 41
3.5
 42
1.0
 43
10.0
 44
1.0
 45
0.0
 46
0.0
 47
0.1
 48
0.1
140
3.5
141
0.0
142
0.0
143
0.0393701
144
1.0
145
0.0
146
0.71
147
1.5
 71
     0
 72
     0
 73
     1
 74
     1
 75
     0
 76
     0
 77
     0
 78
     8
170
     0
171
     2
172
     0
173
     0
174
     0
175
     0
176
   256
177
   256
178
     2
  0
DIMSTYLE
  2
LORO
 70
     0
  3

  4

  5

  6

  7

 40
1.0
 41
3.5
 42
1.0
 43
0.38
 44
1.0
 45
0.0
 46
0.0
 47
0.0
 48
0.000000001
140
3.5
141
0.09
142
0.0
143
25.3999999999999986
144
1.0
145
0.0
146
0.5
147
1.5
 71
     0
 72
     0
 73
     0
 74
     0
 75
     0
 76
     0
 77
     1
 78
     8
170
     0
171
     2
172
     1
173
     0
174
     0
175
     0
176
     0
177
     0
178
     1
  0
DIMSTYLE
  2
STANDARD
 70
     0
  3

  4

  5

  6

  7

 40
1.0
 41
0.18
 42
0.0625
 43
0.38
 44
0.18
 45
0.0
 46
0.0
 47
0.0
 48
0.0
140
0.18
141
0.09
142
0.0
143
25.3999999999999986
144
1.0
145
0.0
146
1.0
147
0.09
 71
     0
 72
     0
 73
     1
 74
     1
 75
     0
 76
     0
 77
     0
 78
     0
170
     0
171
     2
172
     0
173
     0
174
     0
175
     0
176
     0
177
     0
178
     0
  0
ENDTAB
  0
ENDSEC
  0
SECTION
  2
BLOCKS
  0
BLOCK
  8
0
  2
$MODEL_SPACE
 70
     0
 10
0.0
 20
0.0
 30
0.0
  3
$MODEL_SPACE
  1

  0
ENDBLK
  5
38
  8
0
  0
BLOCK
 67
     1
  8
0
  2
$PAPER_SPACE
 70
     2
 10
0.0
 20
0.0
 30
0.0
  3
$PAPER_SPACE
  1

  0
ENDBLK
  5
36
 67
     1
  8
0
  0
BLOCK
  8
0
  2
GENAXEH
 70
     0
 10
0.0
 20
0.0
 30
0.0
  3
GENAXEH
  1

  0
LINE
  5
1721
  8
0
 10
-1.0
 20
0.0
 30
0.0
 11
1.0
 21
0.0
 31
0.0
  0
ENDBLK
  5
1723
  8
0
  0
BLOCK
  8
0
  2
*S1
 70
     1
 10
0.0
 20
0.0
 30
0.0
  3
*S1
  1

  0
ENDBLK
  5
2101
  8
0
  0
BLOCK
  8
0
  2
*U2
 70
     1
 10
0.0
 20
0.0
 30
0.0
  3
*U2
  1

  0
ENDBLK
  5
3EBB
  8
0
  0
BLOCK
  8
0
  2
A$CAB345AF3
 70
     0
 10
0.0
 20
0.0
 30
0.0
  3
A$CAB345AF3
  1

  0
LINE
  5
22410
  8
0
  6
CONTINUOUS
 62
     3
 10
-20.9999999999992504
 20
71.0000000000001137
 30
-0.0000000000000158
 11
21.0000000000007603
 21
71.0000000000001137
 31
-0.0000000000000158
210
0.0000000000000002
220
1.0
230
-0.0000000000000002
  0
LINE
  5
22411
  8
0
  6
CONTINUOUS
 62
     3
 10
-23.8479577973830388
 20
110.0000000000000995
 30
-0.0000000000000244
 11
23.8479577973845593
 21
110.0000000000000995
 31
-0.0000000000000244
210
0.0000000000000002
220
1.0
230
-0.0000000000000002
  0
LINE
  5
22412
  8
0
  6
CONTINUOUS
 62
     3
 10
21.0000000000007603
 20
75.4944463274078004
 30
-0.0000000000000168
 11
21.0000000000007603
 21
71.0000000000001137
 31
-0.0000000000000158
210
0.0000000000000002
220
1.0
230
-0.0000000000000002
  0
LINE
  5
22413
  8
0
  6
CONTINUOUS
 62
     3
 10
-20.9999999999992504
 20
75.4944463274078004
 30
-0.0000000000000168
 11
-20.9999999999992504
 21
71.0000000000001137
 31
-0.0000000000000158
210
0.0000000000000002
220
1.0
230
-0.0000000000000002
  0
ARC
  5
22414
  8
0
  6
CONTINUOUS
 62
     3
 10
26.9999999999996412
 20
75.4944463274076867
 30
0.0
 40
6.0000000000003464
210
0.0
220
-0.0000000000000002
230
-1.0
 50
144.3409123038626092
 51
179.9999999999988916
  0
ARC
  5
22415
  8
0
  6
CONTINUOUS
 62
     3
 10
-27.0000000000011511
 20
75.4944463274076867
 30
0.0
 40
6.0000000000003482
210
0.0
220
-0.0000000000000002
230
-1.0
 50
0.0000000000011068
 51
35.6590876961374477
  0
ARC
  5
22416
  8
0
  6
CONTINUOUS
 62
     3
 10
13.9999999999993108
 20
84.8218253804966622
 30
0.0
 40
9.9999999999999858
210
0.0
220
-0.0000000000000002
230
-1.0
 50
324.3409123038608186
 51
359.9999999999993747
  0
ARC
  5
22417
  8
0
  6
CONTINUOUS
 62
     3
 10
-14.0000000000008296
 20
84.8218253804966622
 30
0.0
 40
9.999999999999984
210
0.0
220
-0.0000000000000002
230
-1.0
 50
180.0000000000005969
 51
215.6590876961392098
  0
LINE
  5
22418
  8
0
  6
CONTINUOUS
 62
     3
 10
24.0000000000008207
 20
89.0000000000001137
 30
-0.0000000000000198
 11
24.0000000000008207
 21
84.8218253804965343
 31
-0.0000000000000188
210
0.0000000000000002
220
1.0
230
-0.0000000000000002
  0
LINE
  5
22419
  8
0
  6
CONTINUOUS
 62
     3
 10
-23.9999999999993001
 20
89.0000000000001137
 30
-0.0000000000000198
 11
-23.9999999999993001
 21
84.8218253804965343
 31
-0.0000000000000188
210
0.0000000000000002
220
1.0
230
-0.0000000000000002
  0
ARC
  5
2241A
  8
0
  6
CONTINUOUS
 62
     3
 10
34.0000000000011866
 20
88.9999999999998863
 30
0.0
 40
10.00000000000189
210
0.0
220
-0.0000000000000002
230
-1.0
 50
161.8060294016189005
 51
179.9999999999986073
  0
ARC
  5
2241B
  8
0
  6
CONTINUOUS
 62
     3
 10
-34.0000000000027214
 20
88.9999999999998721
 30
0.0
 40
10.0000000000019007
210
0.0
220
-0.0000000000000002
230
-1.0
 50
0.0000000000013995
 51
18.1939705983811102
  0
ARC
  5
2241C
  8
0
  6
CONTINUOUS
 62
     3
 10
5.4970507576876022
 20
98.3679693176390657
 30
0.0
 40
20.002949265797529
210
0.0
220
-0.0000000000000002
230
-1.0
 50
341.8060294016171952
 51
359.9972235189420076
  0
ARC
  5
2241D
  8
0
  6
CONTINUOUS
 62
     3
 10
-5.4970507576893688
 20
98.3679693176390089
 30
0.0
 40
20.0029492657972909
210
0.0
220
-0.0000000000000002
230
-1.0
 50
180.0027764810577935
 51
198.1939705983828048
  0
LINE
  5
2241E
  8
0
  6
CONTINUOUS
 62
     3
 10
25.5000000000006999
 20
102.8036016475525969
 30
-0.0000000000000228
 11
25.5000000000006999
 21
98.3670000000001039
 31
-0.0000000000000218
210
0.0000000000000002
220
1.0
230
-0.0000000000000002
  0
LINE
  5
2241F
  8
0
  6
CONTINUOUS
 62
     3
 10
-25.4999999999991793
 20
102.8036016475525969
 30
-0.0000000000000228
 11
-25.4999999999991793
 21
98.3670000000001039
 31
-0.0000000000000218
210
0.0000000000000002
220
1.0
230
-0.0000000000000002
  0
ARC
  5
22420
  8
0
  6
CONTINUOUS
 62
     3
 10
8.9999999999997371
 20
102.8036016475526964
 30
0.0
 40
16.4999999999994991
210
0.0
220
-0.0000000000000002
230
-1.0
 50
359.9999999999996021
 51
25.8581969917358201
  0
ARC
  5
22421
  8
0
  6
CONTINUOUS
 62
     3
 10
-9.0000000000012612
 20
102.8036016475526964
 30
0.0
 40
16.4999999999994991
210
0.0
220
-0.0000000000000002
230
-1.0
 50
154.1418030082641053
 51
180.0000000000003126
  0
LINE
  5
22422
  8
0
  6
CONTINUOUS
 62
     3
 10
-15.4999999999982094
 20
-0.0000000000003494
 30
0.0
 11
15.5000000000015596
 21
-0.0000000000003563
 31
0.0
210
0.0000000000000002
220
1.0
230
-0.0000000000000002
  0
LINE
  5
22423
  8
0
  6
CONTINUOUS
 62
     3
 10
20.99999999999973
 20
70.4999999999998721
 30
-0.0000000000000157
 11
-20.9999999999973106
 21
70.4999999999998721
 31
-0.0000000000000157
210
0.0000000000000002
220
1.0
230
-0.0000000000000002
  0
ARC
  5
22424
  8
0
  6
CONTINUOUS
 62
     3
 10
14.9999999999981295
 20
5.0498756211205222
 30
0.0
 40
1.0000000000000711
210
0.0
220
-0.0000000000000002
230
-1.0
 50
354.2894068625009822
 51
0.0000000000003181
  0
ARC
  5
22425
  8
0
  6
CONTINUOUS
 62
     3
 10
-15.0000000000021796
 20
5.0498756211204983
 30
0.0
 40
0.9999999999993836
210
0.0
220
-0.0000000000000002
230
-1.0
 50
179.9999999999986926
 51
185.7105931375018884
  0
LINE
  5
22426
  8
0
  6
CONTINUOUS
 62
     3
 10
16.0000000000015703
 20
59.1602540378474799
 30
-0.0000000000000131
 11
16.0000000000015596
 21
5.0498756211205169
 31
-0.0000000000000011
210
0.0000000000000002
220
1.0
230
-0.0000000000000002
  0
LINE
  5
22427
  8
0
  6
CONTINUOUS
 62
     3
 10
-15.9999999999982006
 20
59.160254037847487
 30
-0.0000000000000131
 11
-15.9999999999982094
 21
5.049875621120524
 31
-0.0000000000000011
210
0.0000000000000002
220
1.0
230
-0.0000000000000002
  0
LINE
  5
22428
  8
0
  6
CONTINUOUS
 62
     3
 10
-15.4999999999982094
 20
-0.0000000000003501
 30
0.0
 11
-15.9950371902081905
 21
4.950371902099528
 31
-0.0000000000000011
210
0.0000000000000002
220
1.0
230
-0.0000000000000002
  0
LINE
  5
22429
  8
0
  6
CONTINUOUS
 62
     3
 10
15.5000000000015596
 20
-0.0000000000003569
 30
0.0
 11
15.9950371902115496
 21
4.95037190209952
 31
-0.0000000000000011
210
0.0000000000000002
220
1.0
230
-0.0000000000000002
  0
ARC
  5
2242A
  8
0
  6
CONTINUOUS
 62
     3
 10
-26.0000000000014211
 20
59.1602540378474728
 30
0.0
 40
9.9999999999998685
210
0.0
220
-0.0000000000000002
230
-1.0
 50
0.0000000000000127
 51
30.0000000000004512
  0
ARC
  5
2242B
  8
0
  6
CONTINUOUS
 62
     3
 10
25.9999999999991189
 20
59.1602540378474586
 30
0.0
 40
9.9999999999999787
210
0.0
220
-0.0000000000000002
230
-1.0
 50
149.9999999999996874
 51
179.999999999999801
  0
LINE
  5
2242C
  8
0
  6
CONTINUOUS
 62
     3
 10
-17.3397459621547689
 20
64.1602540378474799
 30
-0.0000000000000142
 11
-20.9999999999972999
 21
70.4999999999998721
 31
-0.0000000000000157
210
0.0000000000000002
220
1.0
230
-0.0000000000000002
  0
LINE
  5
2242D
  8
0
  6
CONTINUOUS
 62
     3
 10
17.3397459621571883
 20
64.1602540378474941
 30
-0.0000000000000142
 11
20.9999999999997193
 21
70.4999999999998721
 31
-0.0000000000000157
210
0.0000000000000002
220
1.0
230
-0.0000000000000002
  0
LINE
  5
2242E
  8
0
  6
CONTINUOUS
 62
     3
 10
20.1339745962153387
 20
70.9999999999998153
 30
-0.0000000000000158
 11
20.9999999999997193
 21
70.4999999999998721
 31
-0.0000000000000157
210
0.0000000000000002
220
1.0
230
-0.0000000000000002
  0
LINE
  5
2242F
  8
0
  6
CONTINUOUS
 62
     3
 10
-20.1339745962129086
 20
70.9999999999998153
 30
-0.0000000000000158
 11
-20.9999999999972999
 21
70.4999999999998721
 31
-0.0000000000000157
210
0.0000000000000002
220
1.0
230
-0.0000000000000002
  0
LINE
  5
22430
  8
0
  6
VERDECKT
 62
     1
 10
-22.4981434521663211
 20
109.3457819679593968
 30
-0.0000000000000243
 11
22.4981434521678487
 21
109.3457819679593968
 31
-0.0000000000000243
210
0.0000000000000002
220
1.0
230
-0.0000000000000002
  0
LINE
  5
22431
  8
0
  6
VERDECKT
 62
     1
 10
19.50000000000081
 20
75.4944463274078004
 30
-0.0000000000000168
 11
19.50000000000081
 21
71.0000000000001137
 31
-0.0000000000000158
210
0.0000000000000002
220
1.0
230
-0.0000000000000002
  0
LINE
  5
22432
  8
0
  6
VERDECKT
 62
     1
 10
-19.4999999999993001
 20
75.4944463274078004
 30
-0.0000000000000168
 11
-19.4999999999993001
 21
71.0000000000001137
 31
-0.0000000000000158
210
0.0000000000000002
220
1.0
230
-0.0000000000000002
  0
LINE
  5
22433
  8
0
  6
VERDECKT
 62
     1
 10
-22.4981434521663104
 20
109.3457819679593968
 30
-0.0000000000000243
 11
-23.8479577973830494
 21
110.0000000000000995
 31
-0.0000000000000244
210
0.0000000000000002
220
1.0
230
-0.0000000000000002
  0
LINE
  5
22434
  8
0
  6
VERDECKT
 62
     1
 10
22.4981434521678416
 20
109.3457819679593968
 30
-0.0000000000000243
 11
23.84795779738457
 21
110.0000000000000995
 31
-0.0000000000000244
210
0.0000000000000002
220
1.0
230
-0.0000000000000002
  0
ARC
  5
22435
  8
0
  6
VERDECKT
 62
     1
 10
9.0000000000001474
 20
102.8036016475527958
 30
0.0
 40
14.9999999999990905
210
0.0
220
-0.0000000000000002
230
-1.0
 50
359.9999999999989768
 51
25.8581969917359515
  0
ARC
  5
22436
  8
0
  6
VERDECKT
 62
     1
 10
-9.0000000000016716
 20
102.8036016475527958
 30
0.0
 40
14.9999999999990798
210
0.0
220
-0.0000000000000002
230
-1.0
 50
154.1418030082639916
 51
180.0000000000009095
  0
LINE
  5
22437
  8
0
  6
VERDECKT
 62
     1
 10
24.0000000000007603
 20
102.8036016475525969
 30
-0.0000000000000228
 11
24.0000000000007603
 21
98.3670558145642246
 31
-0.0000000000000218
210
0.0000000000000002
220
1.0
230
-0.0000000000000002
  0
LINE
  5
22438
  8
0
  6
VERDECKT
 62
     1
 10
-23.9999999999992397
 20
102.8036016475525969
 30
-0.0000000000000228
 11
-23.9999999999992397
 21
98.3670558145642246
 31
-0.0000000000000218
210
0.0000000000000002
220
1.0
230
-0.0000000000000002
  0
ARC
  5
22439
  8
0
  6
VERDECKT
 62
     1
 10
5.4967341513472254
 20
98.3680200177761748
 30
0.0
 40
18.5032658737742608
210
0.0
220
-0.0000000000000002
230
-1.0
 50
341.8061262022013125
 51
359.997014323036808
  0
ARC
  5
2243A
  8
0
  6
VERDECKT
 62
     1
 10
-5.4967341513488863
 20
98.3680200177761606
 30
0.0
 40
18.5032658737741187
210
0.0
220
-0.0000000000000002
230
-1.0
 50
180.0029856769631067
 51
198.1938737977988012
  0
ARC
  5
2243B
  8
0
  6
VERDECKT
 62
     1
 10
33.9999999999986287
 20
89.0000000000002558
 30
0.0
 40
11.4999999999993303
210
0.0
220
-0.0000000000000002
230
-1.0
 50
161.806126202200403
 51
180.0000000000005116
  0
ARC
  5
2243C
  8
0
  6
VERDECKT
 62
     1
 10
-33.9999999999997371
 20
89.0000000000002558
 30
0.0
 40
11.49999999999892
210
0.0
220
-0.0000000000000002
230
-1.0
 50
359.9999999999993179
 51
18.1938737978000198
  0
LINE
  5
2243D
  8
0
  6
VERDECKT
 62
     1
 10
22.5000000000008207
 20
89.0000000000001137
 30
-0.0000000000000198
 11
22.50000000000081
 21
84.8218253804965343
 31
-0.0000000000000188
210
0.0000000000000002
220
1.0
230
-0.0000000000000002
  0
LINE
  5
2243E
  8
0
  6
VERDECKT
 62
     1
 10
-22.4999999999993001
 20
89.0000000000001137
 30
-0.0000000000000198
 11
-22.4999999999993001
 21
84.8218253804965343
 31
-0.0000000000000188
210
0.0000000000000002
220
1.0
230
-0.0000000000000002
  0
ARC
  5
2243F
  8
0
  6
VERDECKT
 62
     1
 10
13.9999999999999698
 20
84.8218253804963069
 30
0.0
 40
8.4999999999993712
210
0.0
220
-0.0000000000000002
230
-1.0
 50
324.340912303859227
 51
0.0000000000016475
  0
ARC
  5
22440
  8
0
  6
VERDECKT
 62
     1
 10
-14.0000000000014495
 20
84.8218253804963354
 30
0.0
 40
8.4999999999994085
210
0.0
220
-0.0000000000000002
230
-1.0
 50
179.9999999999984936
 51
215.6590876961406877
  0
ARC
  5
22441
  8
0
  6
VERDECKT
 62
     1
 10
26.99999999999973
 20
75.494446327407573
 30
0.0
 40
7.5000000000004361
210
0.0
220
-0.0000000000000002
230
-1.0
 50
144.3409123038630071
 51
179.9999999999982094
  0
ARC
  5
22442
  8
0
  6
VERDECKT
 62
     1
 10
-27.0000000000012506
 20
75.494446327407573
 30
0.0
 40
7.5000000000004317
210
0.0
220
-0.0000000000000002
230
-1.0
 50
0.0000000000000127
 51
35.6590876961352592
  0
LINE
  5
22443
  8
0
  6
VERDECKT
 62
     1
 10
-14.5049628097882195
 20
0.0995037190206499
 30
0.0
 11
14.5049628097915697
 21
0.0995037190206435
 31
0.0
210
0.0000000000000002
220
1.0
230
-0.0000000000000002
  0
ARC
  5
22444
  8
0
  6
VERDECKT
 62
     1
 10
13.9999999999981899
 20
5.0997512422415641
 30
0.0
 40
1.0000000000000171
210
0.0
220
-0.0000000000000002
230
-1.0
 50
354.2894068625009254
 51
0.0000000000002672
  0
ARC
  5
22445
  8
0
  6
VERDECKT
 62
     1
 10
-14.0000000000015508
 20
5.0997512422415561
 30
0.0
 40
1.0000000000000071
210
0.0
220
-0.0000000000000002
230
-1.0
 50
179.9999999999996874
 51
185.710593137499103
  0
LINE
  5
22446
  8
0
  6
VERDECKT
 62
     1
 10
-14.5049628097882195
 20
0.0995037190206493
 30
0.0
 11
-14.9950371902081994
 21
5.0002475232205716
 31
-0.0000000000000011
210
0.0000000000000002
220
1.0
230
-0.0000000000000002
  0
LINE
  5
22447
  8
0
  6
VERDECKT
 62
     1
 10
14.5049628097915804
 20
0.0995037190206429
 30
0.0
 11
14.9950371902115496
 21
5.0002475232205654
 31
-0.0000000000000011
210
0.0000000000000002
220
1.0
230
-0.0000000000000002
  0
LINE
  5
22448
  8
0
  6
VERDECKT
 62
     1
 10
15.0000000000015703
 20
59.1602540378472526
 30
-0.0000000000000131
 11
15.0000000000015596
 21
5.0997512422415641
 31
-0.0000000000000011
210
0.0000000000000002
220
1.0
230
-0.0000000000000002
  0
LINE
  5
22449
  8
0
  6
VERDECKT
 62
     1
 10
-14.9999999999981899
 20
59.1602540378472526
 30
-0.0000000000000131
 11
-14.9999999999982094
 21
5.0997512422415712
 31
-0.0000000000000011
210
0.0000000000000002
220
1.0
230
-0.0000000000000002
  0
LINE
  5
2244A
  8
0
  6
VERDECKT
 62
     1
 10
-16.4737205583702888
 20
64.6602540378472526
 30
-0.0000000000000144
 11
-20.1339745962129086
 21
70.9999999999998153
 31
-0.0000000000000158
210
0.0000000000000002
220
1.0
230
-0.0000000000000002
  0
LINE
  5
2244B
  8
0
  6
VERDECKT
 62
     1
 10
16.4737205583727118
 20
64.6602540378472668
 30
-0.0000000000000144
 11
20.1339745962153316
 21
70.9999999999998153
 31
-0.0000000000000158
210
0.0000000000000002
220
1.0
230
-0.0000000000000002
  0
ARC
  5
2244C
  8
0
  6
VERDECKT
 62
     1
 10
-26.0000000000016307
 20
59.160254037847217
 30
0.0
 40
11.0000000000000906
210
0.0
220
-0.0000000000000002
230
-1.0
 50
0.0000000000001272
 51
29.9999999999999716
  0
ARC
  5
2244D
  8
0
  6
VERDECKT
 62
     1
 10
25.9999999999991083
 20
59.1602540378472597
 30
0.0
 40
10.9999999999999805
210
0.0
220
-0.0000000000000002
230
-1.0
 50
150.0
 51
180.0
  0
LINE
  5
2244E
  8
0
  6
VERDECKT
 62
     1
 10
14.5049628097915804
 20
0.0995037190206433
 30
0.0
 11
15.5000000000015596
 21
-0.0000000000003562
 31
0.0
210
0.0000000000000002
220
1.0
230
-0.0000000000000002
  0
LINE
  5
2244F
  8
0
  6
VERDECKT
 62
     1
 10
-14.5049628097882195
 20
0.0995037190206498
 30
0.0
 11
-15.4999999999982094
 21
-0.0000000000003493
 31
0.0
210
0.0000000000000002
220
1.0
230
-0.0000000000000002
  0
ENDBLK
  5
22451
  8
0
  0
BLOCK
  8
0
  2
A$CAE3EF12A
 70
     0
 10
0.0
 20
0.0
 30
0.0
  3
A$CAE3EF12A
  1

  0
CIRCLE
  5
22455
  8
0
  6
CONTINUOUS
 62
     3
 10
0.0000000000007558
 20
0.0000000000007716
 30
0.0
 40
19.5000000000000604
  0
CIRCLE
  5
22456
  8
0
  6
CONTINUOUS
 62
     3
 10
0.0000000000007635
 20
0.0000000000007737
 30
0.0
 40
23.8479577973837991
  0
CIRCLE
  5
22457
  8
0
  6
CONTINUOUS
 62
     3
 10
0.0000000000007634
 20
0.0000000000007737
 30
0.0
 40
22.4981434521670884
  0
CIRCLE
  5
22458
  8
0
  6
CONTINUOUS
 62
     3
 10
0.0000000000007619
 20
0.0000000000007733
 30
0.0
 40
25.5
  0
CIRCLE
  5
22459
  8
0
  6
CONTINUOUS
 62
     3
 10
0.0000000000016769
 20
0.0000000000003837
 30
0.0
 40
14.5049628097898999
  0
CIRCLE
  5
2245A
  8
0
  6
CONTINUOUS
 62
     3
 10
0.0000000000012069
 20
0.0000000000005969
 30
0.0
 40
15.0000000000003304
  0
CIRCLE
  5
2245B
  8
0
  6
VERDECKT
 62
     1
 10
0.0000000000007558
 20
0.0000000000007716
 30
0.0
 40
21.0
  0
CIRCLE
  5
2245C
  8
0
  6
VERDECKT
 62
     1
 10
0.0000000000007619
 20
0.0000000000007733
 30
0.0
 40
24.0
  0
CIRCLE
  5
2245D
  8
0
  6
VERDECKT
 62
     1
 10
0.0000000000007588
 20
0.0000000000007724
 30
0.0
 40
22.5000000000000604
  0
CIRCLE
  5
2245E
  8
0
  6
VERDECKT
 62
     1
 10
0.0000000000012069
 20
0.0000000000005969
 30
0.0
 40
16.0000000000003411
  0
CIRCLE
  5
2245F
  8
0
  6
VERDECKT
 62
     1
 10
0.0000000000016769
 20
0.0000000000003837
 30
0.0
 40
15.4999999999998792
  0
CIRCLE
  5
22460
  8
0
  6
VERDECKT
 62
     1
 10
0.0000000000012096
 20
0.0000000000005969
 30
0.0
 40
20.1339745962141201
  0
ENDBLK
  5
22462
  8
0
  0
ENDSEC
  0
SECTION
  2
ENTITIES
  0
TEXT
  5
5DDE
  8
VOLL
 10
78.076754716981128
 20
31.025947764705851
 30
0.0
 40
1.8
  1

  7
GREEKS
  0
INSERT
  5
5DDF
  8
ADSK_ASSOC_ENTITY_BACKUPS
  2
*S1
 10
0.0
 20
0.0
 30
0.0
  0
INSERT
  5
22452
  8
STEMPEL
  2
A$CAB345AF3
 10
-92.4438173379978423
 20
50.8511378662611833
 30
-54.9999999999999218
210
0.0
220
-1.0
230
0.0000000000000001
  0
INSERT
  5
22463
  8
STEMPEL
  2
A$CAE3EF12A
 10
-92.4438173379973733
 20
0.8511378662602345
 30
-54.9999999999999218
210
0.0
220
-1.0
230
0.0000000000000001
  0
VIEWPORT
  5
1571
 67
     1
  8
0
 10
104.7950820922851989
 20
148.2447509765623863
 30
0.0
 40
567.3581314878892954
 41
298.5415224913494967
 68
     1
 69
     1
1001
ACAD
1000
MVIEW
1002
{
1070
    16
1010
0.0
1020
0.0
1030
0.0
1010
0.0
1020
0.0
1030
1.0
1040
0.0
1040
298.5415224913494967
1040
104.7950820922851989
1040
148.2447509765623863
1040
50.0
1040
0.0
1040
0.0
1070
     0
1070
  1500
1070
     1
1070
     1
1070
     0
1070
     0
1070
     0
1070
     0
1040
0.0
1040
0.0
1040
0.0
1040
10.0
1040
10.0
1040
10.0
1040
10.0
1070
     0
1002
{
1002
}
1002
}
1001
GENIUS_GENOBJ-N-SDF_13
1002
{
1000
OWNER
1000
GEN
1002
}
1001
GENIUS_GENODEF_13
1002
{
1000
HIER
1070
     0
1002
}
1002
{
1000
MANEDIT
1070
     0
1002
}
1002
{
1000
NOSEL
1070
     0
1002
}
1002
{
1000
BEHIND
1070
     0
1002
}
1002
{
1000
OTHER
1070
     0
1002
}
1002
{
1000
REACTOR
1002
}
1001
GENIUS_GENSCREG_15
1000
PF
1040
1.0
1000
DF
1040
1.0
1000
MIN
1011
-98.3237311841076007
1021
0.0
1031
0.0
1021
-84.5929851452383446
1031
0.0
1000
MAX
1011
756.7695330154733711
1021
0.0
1031
0.0
1021
339.8977580961391141
1031
0.0
1000
FLAGS
1070
     4
  0
ENDSEC
  0
EOF
