  0
SECTION
  2
HEADER
  9
$ACADVER
  1
AC1009
  9
$INSBASE
 10
0.0
 20
0.0
 30
0.0
  9
$EXTMIN
 10
-274.9999999999997726
 20
-291.080738045495707
 30
-0.0000000000002354
  9
$EXTMAX
 10
1023.7002572309750121
 20
1656.7293949041379619
 30
1060.0
  9
$LIMMIN
 10
0.0
 20
0.0
  9
$LIMMAX
 10
595.0
 20
421.0
  9
$ORTHOMODE
 70
     1
  9
$REGENMODE
 70
     1
  9
$FILLMODE
 70
     1
  9
$QTEXTMODE
 70
     0
  9
$MIRRTEXT
 70
     0
  9
$DRAGMODE
 70
     2
  9
$LTSCALE
 40
10.0
  9
$OSMODE
 70
    39
  9
$ATTMODE
 70
     1
  9
$TEXTSIZE
 40
3.5
  9
$TRACEWID
 40
1.0
  9
$TEXTSTYLE
  7
STANDARD
  9
$CLAYER
  8
INDEX2
  9
$CELTYPE
  6
BYLAYER
  9
$CECOLOR
 62
   256
  9
$DIMSCALE
 40
1.0
  9
$DIMASZ
 40
3.5
  9
$DIMEXO
 40
1.0
  9
$DIMDLI
 40
7.0
  9
$DIMRND
 40
0.0
  9
$DIMDLE
 40
0.0
  9
$DIMEXE
 40
1.0
  9
$DIMTP
 40
0.0
  9
$DIMTM
 40
0.0
  9
$DIMTXT
 40
3.5
  9
$DIMCEN
 40
1.5
  9
$DIMTSZ
 40
0.0
  9
$DIMTOL
 70
     0
  9
$DIMLIM
 70
     0
  9
$DIMTIH
 70
     0
  9
$DIMTOH
 70
     0
  9
$DIMSE1
 70
     0
  9
$DIMSE2
 70
     0
  9
$DIMTAD
 70
     1
  9
$DIMZIN
 70
     8
  9
$DIMBLK
  1

  9
$DIMASO
 70
     1
  9
$DIMSHO
 70
     0
  9
$DIMPOST
  1

  9
$DIMAPOST
  1

  9
$DIMALT
 70
     0
  9
$DIMALTD
 70
     2
  9
$DIMALTF
 40
25.3999999999999986
  9
$DIMLFAC
 40
2.0
  9
$DIMTOFL
 70
     1
  9
$DIMTVP
 40
0.0
  9
$DIMTIX
 70
     0
  9
$DIMSOXD
 70
     0
  9
$DIMSAH
 70
     0
  9
$DIMBLK1
  1

  9
$DIMBLK2
  1

  9
$DIMSTYLE
  2
STANDARD
  9
$DIMCLRD
 70
     0
  9
$DIMCLRE
 70
     0
  9
$DIMCLRT
 70
     1
  9
$DIMTFAC
 40
0.5142857142857143
  9
$DIMGAP
 40
1.5
  9
$LUNITS
 70
     2
  9
$LUPREC
 70
     2
  9
$SKETCHINC
 40
1.0
  9
$FILLETRAD
 40
2.0
  9
$AUNITS
 70
     0
  9
$AUPREC
 70
     0
  9
$MENU
  1
ACAD
  9
$ELEVATION
 40
0.0
  9
$PELEVATION
 40
0.0
  9
$THICKNESS
 40
0.0
  9
$LIMCHECK
 70
     0
  9
$BLIPMODE
 70
     0
  9
$CHAMFERA
 40
0.0
  9
$CHAMFERB
 40
0.0
  9
$SKPOLY
 70
     0
  9
$TDCREATE
 40
2458193.491747684776783
  9
$TDUPDATE
 40
2458591.3175231479108334
  9
$TDINDWG
 40
0.5891087963
  9
$TDUSRTIMER
 40
0.5891087963
  9
$USRTIMER
 70
     1
  9
$ANGBASE
 50
0.0
  9
$ANGDIR
 70
     0
  9
$PDMODE
 70
     0
  9
$PDSIZE
 40
0.0
  9
$PLINEWID
 40
0.0
  9
$COORDS
 70
     1
  9
$SPLFRAME
 70
     0
  9
$SPLINETYPE
 70
     6
  9
$SPLINESEGS
 70
     8
  9
$ATTDIA
 70
     1
  9
$ATTREQ
 70
     1
  9
$HANDLING
 70
     1
  9
$HANDSEED
  5
8B66
  9
$SURFTAB1
 70
     6
  9
$SURFTAB2
 70
     6
  9
$SURFTYPE
 70
     6
  9
$SURFU
 70
     6
  9
$SURFV
 70
     6
  9
$UCSNAME
  2

  9
$UCSORG
 10
0.0
 20
0.0
 30
0.0
  9
$UCSXDIR
 10
1.0
 20
0.0
 30
0.0
  9
$UCSYDIR
 10
0.0
 20
1.0
 30
0.0
  9
$PUCSNAME
  2

  9
$PUCSORG
 10
0.0
 20
0.0
 30
0.0
  9
$PUCSXDIR
 10
1.0
 20
0.0
 30
0.0
  9
$PUCSYDIR
 10
0.0
 20
1.0
 30
0.0
  9
$USERI1
 70
     0
  9
$USERI2
 70
     0
  9
$USERI3
 70
     0
  9
$USERI4
 70
     0
  9
$USERI5
 70
     0
  9
$USERR1
 40
0.0
  9
$USERR2
 40
0.0
  9
$USERR3
 40
0.0
  9
$USERR4
 40
0.0
  9
$USERR5
 40
0.0
  9
$WORLDVIEW
 70
     1
  9
$SHADEDGE
 70
     3
  9
$SHADEDIF
 70
    70
  9
$TILEMODE
 70
     1
  9
$MAXACTVP
 70
    16
  9
$PLIMCHECK
 70
     0
  9
$PEXTMIN
 10
-358.8279882493263813
 20
-329.364740840432205
 30
-0.0000000000004613
  9
$PEXTMAX
 10
415.2989899262428821
 20
706.067424072371864
 30
0.0000000000001202
  9
$PLIMMIN
 10
-3.1749999523162851
 20
-3.1749999523162851
  9
$PLIMMAX
 10
416.8139832019805908
 20
590.8040039539338295
  9
$UNITMODE
 70
     0
  9
$VISRETAIN
 70
     0
  9
$PLINEGEN
 70
     0
  9
$PSLTSCALE
 70
     1
  0
ENDSEC
  0
SECTION
  2
TABLES
  0
TABLE
  2
VPORT
 70
     1
  0
VPORT
  2
*ACTIVE
 70
     0
 10
0.0
 20
0.0
 11
1.0
 21
1.0
 12
0.0
 22
0.0
 13
0.0
 23
0.0
 14
1.0
 24
1.0
 15
10.0
 25
10.0
 16
-0.0000000000015916
 26
0.0
 36
7220.8786777220329895
 17
1403.2377117351838933
 27
670.8400587444892835
 37
530.0
 40
2830.9918025140800637
 41
1.894865525672371
 42
50.0
 43
0.0
 44
0.0
 50
0.0
 51
0.0
 71
     0
 72
  1500
 73
     1
 74
     1
 75
     0
 76
     0
 77
     0
 78
     0
  0
ENDTAB
  0
TABLE
  2
LTYPE
 70
     9
  0
LTYPE
  2
CONTINUOUS
 70
     0
  3
Solid line
 72
    65
 73
     0
 40
0.0
  0
LTYPE
  2
JIS_08_11
 70
     0
  3
1SASEN11 ___ _ ___ _ ___ _ ___ _ ___ _ ___
 72
    65
 73
     4
 40
12.8000000000000007
 49
11.0
 49
-0.6
 49
0.6
 49
-0.6
  0
LTYPE
  2
VERDECKT2
 70
     0
  3
Verdeckt (.5x) _ _ _ _ _ _ _ _ _ _ _ _ _ _ _ _ 
 72
    65
 73
     2
 40
4.7624999999999993
 49
3.1749999999999989
 49
-1.587499999999999
  0
ENDTAB
  0
TABLE
  2
LAYER
 70
    20
  0
LAYER
  2
0
 70
     0
 62
     7
  6
CONTINUOUS
  0
LAYER
  2
BEM
 70
     0
 62
     7
  6
CONTINUOUS
  0
LAYER
  2
ADSK_ASSOC_ENTITY_BACKUPS
 70
     1
 62
    -7
  6
CONTINUOUS
  0
LAYER
  2
DEFPOINTS
 70
     0
 62
     7
  6
CONTINUOUS
  0
LAYER
  2
INDEX2
 70
     0
 62
   150
  6
CONTINUOUS
  0
ENDTAB
  0
TABLE
  2
STYLE
 70
     4
  0
STYLE
  2
STANDARD
 70
     0
 40
0.0
 41
0.8
 50
0.0
 71
     0
 42
3.5
  3
simplex.shx
  4

  0
STYLE
  2
GREEKS
 70
     0
 40
0.0
 41
0.8
 50
0.0
 71
     0
 42
2.5
  3
SIMPLEX.shx
  4

  0
ENDTAB
  0
TABLE
  2
VIEW
 70
     1
  0
ENDTAB
  0
TABLE
  2
UCS
 70
     0
  0
ENDTAB
  0
TABLE
  2
APPID
 70
    48
  0
APPID
  2
ACAD
 70
     0
  0
APPID
  2
ACAD_NAV_VCDISPLAY
 70
     0
  0
APPID
  2
ACAD_EXEMPT_FROM_CAD_STANDARDS
 70
     0
  0
APPID
  2
ACAD_PSEXT
 70
     0
  0
APPID
  2
ACAUTHENVIRON
 70
     0
  0
APPID
  2
ACDBDYNAMICBLOCKTRUENAME
 70
     0
  0
APPID
  2
ACDBDYNAMICBLOCKGUID
 70
     0
  0
APPID
  2
ACAECLAYERSTANDARD
 70
     0
  0
APPID
  2
ACCMTRANSPARENCY
 70
     0
  0
APPID
  2
ACAD_STEPID
 70
     0
  0
APPID
  2
ACSYNERGY
 70
     0
  0
APPID
  2
SYNERGY_BODY_TBR_ID
 70
     0
  0
APPID
  2
ACAD_VIEW_EDGE_ID
 70
     0
  0
APPID
  2
ACAD_DSTYLE_DIMJAG
 70
     0
  0
APPID
  2
ACAD_DSTYLE_DIMTALN
 70
     0
  0
APPID
  2
ACADANNOMONITORALERTICONDI
 70
     0
  0
APPID
  2
ACADANNOTATIVE
 70
     0
  0
APPID
  2
ACADANNOAV
 70
     0
  0
APPID
  2
ACSYNERGYSKETCH
 70
     0
  0
APPID
  2
ACAD_MODELDOC_XFORM
 70
     0
  0
APPID
  2
ACDBBLOCKREPETAG
 70
     0
  0
APPID
  2
ACADANNOPO
 70
     0
  0
APPID
  2
ACAD_ASSOCPERSSUBENTMANAGER
 70
     0
  0
APPID
  2
ACDBDYNAMICBLOCKTRUENAME2
 70
     0
  0
APPID
  2
GRADIENTCOLOR1ACI
 70
     0
  0
APPID
  2
GRADIENTCOLOR2ACI
 70
     0
  0
APPID
  2
ACAD_DSTYLE_DIMRADIAL_EXTENSION
 70
     0
  0
APPID
  2
ACAD_MLEADERVER
 70
     0
  0
APPID
  2
ACAD_OBJECT_CHANGE_GUID
 70
     0
  0
APPID
  2
MCAD_NO_VIS
 70
     0
  0
APPID
  2
ACAD_TEMP_GRAPHIC
 70
     0
  0
APPID
  2
ACATTRIBSERVICES
 70
     0
  0
APPID
  2
DESIGNERASSEMBLIES
 70
     0
  0
APPID
  2
ACAD_DSTYLE_DIMBREAK
 70
     0
  0
APPID
  2
GENIUS_GENSCREG_15
 70
     0
  0
APPID
  2
GENIUS_GENOBJ-N-SDF_13
 70
     0
  0
APPID
  2
GENIUS_GENODEF_13
 70
     0
  0
APPID
  2
ACAD_DSTYLE_DIMARC_LENGTH_
 70
     0
  0
APPID
  2
ACAD_DSTYLE_DIM_LINETYPE
 70
     0
  0
APPID
  2
ACAD_DSTYLE_DIM_EXT1_LINETYPE
 70
     0
  0
APPID
  2
ACAD_DSTYLE_DIM_EXT2_LINETYPE
 70
     0
  0
APPID
  2
RAK
 70
     0
  0
APPID
  2
GENIUS_GENDTOL_13
 70
     0
  0
APPID
  2
ACAD_DSTYLE_DIMINSPECT
 70
     0
  0
APPID
  2
ACAD_DSTYLE_DIMANGULAR_EXT
 70
     0
  0
APPID
  2
PLOTTRANSPARENCY
 70
     0
  0
APPID
  2
PE_URL
 70
     0
  0
APPID
  2
AcDbAttr
 70
     0
  0
ENDTAB
  0
TABLE
  2
DIMSTYLE
 70
     3
  0
DIMSTYLE
  2
STANDARD
 70
     0
  3

  4

  5

  6

  7

 40
1.0
 41
0.18
 42
0.0625
 43
0.38
 44
0.18
 45
0.0
 46
0.0
 47
0.0
 48
0.0
140
0.18
141
0.09
142
0.0
143
25.3999999999999986
144
1.0
145
0.0
146
1.0
147
0.09
 71
     0
 72
     0
 73
     1
 74
     1
 75
     0
 76
     0
 77
     0
 78
     0
170
     0
171
     2
172
     0
173
     0
174
     0
175
     0
176
     0
177
     0
178
     0
  0
ENDTAB
  0
ENDSEC
  0
SECTION
  2
BLOCKS
  0
BLOCK
  8
0
  2
$MODEL_SPACE
 70
     0
 10
0.0
 20
0.0
 30
0.0
  3
$MODEL_SPACE
  1

  0
ENDBLK
  5
38
  8
0
  0
BLOCK
 67
     1
  8
0
  2
$PAPER_SPACE
 70
     0
 10
0.0
 20
0.0
 30
0.0
  3
$PAPER_SPACE
  1

  0
ENDBLK
  5
BC1
 67
     1
  8
0
  0
BLOCK
  8
0
  2
*S0
 70
     1
 10
0.0
 20
0.0
 30
0.0
  3
*S0
  1

  0
ENDBLK
  5
571
  8
0
  0
BLOCK
  8
0
  2
_NONE
 70
     0
 10
0.0
 20
0.0
 30
0.0
  3
_NONE
  1

  0
ENDBLK
  5
11C0
  8
0
  0
BLOCK
  8
0
  2
123
 70
     0
 10
0.0
 20
0.0
 30
0.0
  3
123
  1

  0
LINE
  5
14A3
  8
BEM
 10
0.0
 20
0.0
 30
0.0
 11
15.4991845013463507
 21
-0.0000000000000284
 31
0.0
1001
ACDBBLOCKREPETAG
1070
     1
1071
        0
1005
14A3
  0
LINE
  5
14A4
  8
BEM
 10
2.4991845013463769
 20
-1.500000000000028
 30
0.0
 11
5.4991845013463774
 21
-1.500000000000028
 31
0.0
1001
ACDBBLOCKREPETAG
1070
     1
1071
        1
1005
14A4
  0
LINE
  5
14A5
  8
BEM
 10
7.4991845013463481
 20
-1.500000000000028
 30
0.0
 11
10.4991845013463507
 21
-1.500000000000028
 31
0.0
1001
ACDBBLOCKREPETAG
1070
     1
1071
        2
1005
14A5
  0
LINE
  5
14A6
  8
BEM
 10
12.4991845013463507
 20
-1.500000000000028
 30
0.0
 11
15.4991845013463507
 21
-1.500000000000028
 31
0.0
1001
ACDBBLOCKREPETAG
1070
     1
1071
        3
1005
14A6
  0
POLYLINE
  5
14A7
  8
0
 66
     1
 10
0.0
 20
0.0
 30
0.0
 70
     1
1001
ACDBBLOCKREPETAG
1070
     1
1071
        4
1005
14A7
  0
VERTEX
  5
7DD0
  8
0
 10
10.2127767082253005
 20
-0.0000000000000284
 30
0.0
  0
VERTEX
  5
7DD1
  8
0
 10
6.2864077931210707
 20
3.3928740806512101
 30
0.0
  0
VERTEX
  5
7DD2
  8
0
 10
6.2864077931210707
 20
-0.0000000000000284
 30
0.0
  0
VERTEX
  5
7DD3
  8
0
 10
10.2127767082253005
 20
-0.0000000000000284
 30
0.0
  0
SEQEND
  5
7DD4
  8
0
  0
LINE
  5
14A9
  8
BEM
  6
BYBLOCK
 62
     7
 10
0.0
 20
0.0
 30
0.0
 11
0.0
 21
0.0
 31
0.0
  0
ENDBLK
  5
148D
  8
0
  0
BLOCK
  8
0
  2
A$C72073F10
 70
     0
 10
0.0
 20
0.0
 30
0.0
  3
A$C72073F10
  1

  0
LINE
  5
7D09
  8
0
  6
CONTINUOUS
 62
     3
 10
-161.9500000000001023
 20
-4.7928932188136741
 30
0.0000000000000568
 11
-161.9500000000001023
 21
4.7928932188136741
 31
0.0000000000000568
  0
LINE
  5
7D0A
  8
0
  6
CONTINUOUS
 62
     3
 10
-163.9500000000001023
 20
-2.5
 30
0.0000000000000568
 11
-163.9500000000001023
 21
2.5
 31
0.0000000000000568
  0
LINE
  5
7D0B
  8
0
  6
CONTINUOUS
 62
     3
 10
-162.9500000000001023
 20
-4.7928932188136741
 30
0.0000000000000568
 11
-162.9500000000001023
 21
4.7928932188136741
 31
0.0000000000000568
  0
ARC
  5
7D0C
  8
0
  6
CONTINUOUS
 62
     3
 10
-162.4500000000001023
 20
-4.7928932188136741
 30
0.0000000000000568
 40
0.5
 50
180.0
 51
0.0
  0
ARC
  5
7D0D
  8
0
  6
CONTINUOUS
 62
     3
 10
-162.4500000000001023
 20
4.7928932188136741
 30
0.0000000000000568
 40
0.5
 50
0.0
 51
180.0
  0
LINE
  5
7D0E
  8
0
  6
CONTINUOUS
 62
     3
 10
-163.4500000000001023
 20
3.0
 30
0.0000000000000568
 11
-162.9500000000001023
 21
3.0
 31
0.0000000000000567
  0
LINE
  5
7D0F
  8
0
  6
CONTINUOUS
 62
     3
 10
-163.4500000000001023
 20
-3.0
 30
0.0000000000000568
 11
-162.9500000000001023
 21
-3.0
 31
0.0000000000000567
  0
ARC
  5
7D10
  8
0
  6
CONTINUOUS
 62
     3
 10
-163.4499999999999886
 20
-2.4999999999999001
 30
0.0000000000000568
 40
0.5000000000001
 50
180.0000000000243858
 51
270.0
  0
ARC
  5
7D11
  8
0
  6
CONTINUOUS
 62
     3
 10
-163.4499999999999886
 20
2.4999999999998992
 30
0.0000000000000568
 40
0.5000000000001137
 50
90.0000000000130314
 51
179.9999999999884039
  0
LINE
  5
7D12
  8
0
  6
CONTINUOUS
 62
     3
 10
-161.9500000000001023
 20
3.0
 30
0.0000000000000568
 11
-161.9222112620751943
 21
3.0
 31
0.0000000000000568
  0
LINE
  5
7D13
  8
0
  6
CONTINUOUS
 62
     3
 10
-161.9500000000001023
 20
-3.0
 30
0.0000000000000568
 11
-161.9222112620751943
 21
-3.0
 31
0.0000000000000568
  0
CIRCLE
  5
7D14
  8
0
  6
CONTINUOUS
 62
     3
 10
-0.0000000000002251
 20
0.0
 30
0.0
 40
136.5
  0
CIRCLE
  5
7D15
  8
0
  6
CONTINUOUS
 62
     3
 10
-0.0000000000002251
 20
0.0
 30
0.0
 40
132.5000000000001137
  0
CIRCLE
  5
7D16
  8
0
  6
CONTINUOUS
 62
     3
 10
-0.0000000000000663
 20
0.0
 30
0.0
 40
138.0
  0
CIRCLE
  5
7D17
  8
0
  6
CONTINUOUS
 62
     3
 10
-0.0000000000000663
 20
0.0
 30
0.0
 40
161.9500000000003013
  0
ARC
  5
7D18
  8
0
  6
CONTINUOUS
 62
     3
 10
0.0000000000004051
 20
-0.0000000000000071
 30
0.0
 40
162.5
 50
181.8660858798313029
 51
90.0
  0
ARC
  5
7D19
  8
0
  6
CONTINUOUS
 62
     3
 10
0.0000000000006324
 20
-0.0000000000001705
 30
0.0
 40
162.500000000000199
 50
90.0000000000000711
 51
178.1339141201686118
  0
CIRCLE
  5
7D1A
  8
0
  6
CONTINUOUS
 62
     3
 10
0.0000000000004051
 20
0.0
 30
0.0
 40
275.0000000000002274
  0
CIRCLE
  5
7D1B
  8
0
  6
VERDECKT2
 62
     1
 10
-0.0000000000001791
 20
0.0
 30
0.0
 40
157.9499999999999886
  0
LINE
  5
7D1C
  8
0
  6
VERDECKT2
 62
     1
 10
-157.9144705212287931
 20
-3.3500000000000001
 30
0.0000000000000568
 11
-161.9153482533390047
 21
-3.3500000000000001
 31
0.0000000000000577
  0
LINE
  5
7D1D
  8
0
  6
VERDECKT2
 62
     1
 10
-157.9144705212287931
 20
3.3500000000000001
 30
0.0000000000000568
 11
-161.9153482533390047
 21
3.3500000000000001
 31
0.0000000000000577
  0
LINE
  5
7D1E
  8
0
  6
VERDECKT2
 62
     1
 10
-157.850000000000307
 20
-4.7928932188136173
 30
0.0000000000000568
 11
-157.850000000000307
 21
4.7928932188136173
 31
0.0000000000000568
  0
LINE
  5
7D1F
  8
0
  6
VERDECKT2
 62
     1
 10
-156.850000000000108
 20
-4.7928932188136741
 30
0.0000000000000568
 11
-156.850000000000108
 21
4.7928932188136741
 31
0.0000000000000568
  0
ARC
  5
7D20
  8
0
  6
VERDECKT2
 62
     1
 10
-157.3500000000001933
 20
-4.7928932188136741
 30
0.0000000000000568
 40
0.5000000000001137
 50
180.0
 51
0.0
  0
ARC
  5
7D21
  8
0
  6
VERDECKT2
 62
     1
 10
-157.3500000000001933
 20
4.7928932188136741
 30
0.0000000000000568
 40
0.5000000000001137
 50
0.0000000000065138
 51
180.0000000000065086
  0
LINE
  5
7D22
  8
0
  6
VERDECKT2
 62
     1
 10
-161.9222112620751943
 20
3.0
 30
0.0000000000000568
 11
-157.850000000000307
 21
3.0
 31
0.000000000000056
  0
LINE
  5
7D23
  8
0
  6
VERDECKT2
 62
     1
 10
-161.9222112620751943
 20
-3.0
 30
0.0000000000000568
 11
-157.850000000000307
 21
-3.0
 31
0.000000000000056
  0
LINE
  5
7D24
  8
0
  6
VERDECKT2
 62
     1
 10
-157.8500000000003922
 20
-4.7928932188136173
 30
0.0000000000000568
 11
-157.8500000000003922
 21
4.7928932188136173
 31
0.0000000000000568
  0
LINE
  5
7D25
  8
0
  6
VERDECKT2
 62
     1
 10
-156.8499999999999943
 20
-4.7928932188136741
 30
0.0000000000000568
 11
-156.8499999999999943
 21
4.7928932188136741
 31
0.0000000000000568
  0
CIRCLE
  5
7D26
  8
0
  6
VERDECKT2
 62
     1
 10
0.0000000000003893
 20
0.0
 30
0.0
 40
157.9499999999997897
  0
ARC
  5
7D27
  8
0
  6
VERDECKT2
 62
     1
 10
-157.3500000000001933
 20
-4.7928932188136741
 30
0.0000000000000568
 40
0.5000000000001137
 50
180.0
 51
0.0
  0
ARC
  5
7D28
  8
0
  6
VERDECKT2
 62
     1
 10
-157.3500000000001933
 20
4.7928932188136741
 30
0.0000000000000568
 40
0.5000000000001137
 50
0.0000000000065138
 51
180.0000000000065086
  0
LINE
  5
7D29
  8
0
  6
VERDECKT2
 62
     1
 10
-157.9215074016196922
 20
3.0
 30
0.0000000000000568
 11
-157.8500000000003922
 21
3.0
 31
0.0000000000000568
  0
LINE
  5
7D2A
  8
0
  6
VERDECKT2
 62
     1
 10
-157.9215074016196922
 20
-3.0
 30
0.0000000000000568
 11
-157.8500000000003922
 21
-3.0
 31
0.0000000000000568
  0
ARC
  5
7D2B
  8
0
  6
VERDECKT2
 62
     1
 10
0.0000000000597496
 20
-0.0000000000000342
 30
0.0
 40
162.5000000000592877
 50
178.1339141201692939
 51
181.8660858798305924
  0
ENDBLK
  5
7D2D
  8
0
  0
BLOCK
  8
0
  2
A$C4FD0325F
 70
     0
 10
0.0
 20
0.0
 30
0.0
  3
A$C4FD0325F
  1

  0
LINE
  5
7D31
  8
0
  6
CONTINUOUS
 62
     3
 10
161.9499999999999034
 20
308.0
 30
-0.0000000000000684
 11
-161.9500000000001023
 21
308.0
 31
-0.0000000000000684
210
0.0
220
1.0
230
-0.0000000000000002
  0
POLYLINE
  8
0
  5
7DDA
  62
3
  66
     1
 10
0.000000
 20
0.000000
 30
0.000000
  70
     8
  0
VERTEX
  8
0
  5
7DDB
 10
-161.915
 20
295.650
 30
-6.56000e-14
  70
    32
  0
VERTEX
  8
0
  5
7DDC
 10
-161.915
 20
295.641
 30
-6.56000e-14
  70
    32
  0
VERTEX
  8
0
  5
7DDD
 10
-161.915
 20
295.632
 30
-6.56000e-14
  70
    32
  0
VERTEX
  8
0
  5
7DDE
 10
-161.915
 20
295.624
 30
-6.56000e-14
  70
    32
  0
VERTEX
  8
0
  5
7DDF
 10
-161.915
 20
295.615
 30
-6.56000e-14
  70
    32
  0
VERTEX
  8
0
  5
7DE0
 10
-161.915
 20
295.606
 30
-6.56000e-14
  70
    32
  0
VERTEX
  8
0
  5
7DE1
 10
-161.915
 20
295.597
 30
-6.56000e-14
  70
    32
  0
VERTEX
  8
0
  5
7DE2
 10
-161.915
 20
295.588
 30
-6.56000e-14
  70
    32
  0
VERTEX
  8
0
  5
7DE3
 10
-161.915
 20
295.580
 30
-6.55999e-14
  70
    32
  0
VERTEX
  8
0
  5
7DE4
 10
-161.915
 20
295.571
 30
-6.55999e-14
  70
    32
  0
VERTEX
  8
0
  5
7DE5
 10
-161.915
 20
295.562
 30
-6.55999e-14
  70
    32
  0
VERTEX
  8
0
  5
7DE6
 10
-161.915
 20
295.553
 30
-6.55998e-14
  70
    32
  0
VERTEX
  8
0
  5
7DE7
 10
-161.915
 20
295.544
 30
-6.55998e-14
  70
    32
  0
VERTEX
  8
0
  5
7DE8
 10
-161.915
 20
295.535
 30
-6.55997e-14
  70
    32
  0
VERTEX
  8
0
  5
7DE9
 10
-161.915
 20
295.526
 30
-6.55996e-14
  70
    32
  0
VERTEX
  8
0
  5
7DEA
 10
-161.915
 20
295.517
 30
-6.55995e-14
  70
    32
  0
VERTEX
  8
0
  5
7DEB
 10
-161.915
 20
295.509
 30
-6.55994e-14
  70
    32
  0
VERTEX
  8
0
  5
7DEC
 10
-161.915
 20
295.500
 30
-6.55993e-14
  70
    32
  0
VERTEX
  8
0
  5
7DED
 10
-161.915
 20
295.491
 30
-6.55992e-14
  70
    32
  0
VERTEX
  8
0
  5
7DEE
 10
-161.915
 20
295.482
 30
-6.55991e-14
  70
    32
  0
VERTEX
  8
0
  5
7DEF
 10
-161.915
 20
295.473
 30
-6.55989e-14
  70
    32
  0
VERTEX
  8
0
  5
7DF0
 10
-161.915
 20
295.464
 30
-6.55988e-14
  70
    32
  0
VERTEX
  8
0
  5
7DF1
 10
-161.915
 20
295.455
 30
-6.55986e-14
  70
    32
  0
VERTEX
  8
0
  5
7DF2
 10
-161.915
 20
295.446
 30
-6.55984e-14
  70
    32
  0
VERTEX
  8
0
  5
7DF3
 10
-161.915
 20
295.437
 30
-6.55981e-14
  70
    32
  0
VERTEX
  8
0
  5
7DF4
 10
-161.916
 20
295.428
 30
-6.55979e-14
  70
    32
  0
VERTEX
  8
0
  5
7DF5
 10
-161.916
 20
295.419
 30
-6.55976e-14
  70
    32
  0
VERTEX
  8
0
  5
7DF6
 10
-161.916
 20
295.410
 30
-6.55973e-14
  70
    32
  0
VERTEX
  8
0
  5
7DF7
 10
-161.916
 20
295.401
 30
-6.55970e-14
  70
    32
  0
VERTEX
  8
0
  5
7DF8
 10
-161.916
 20
295.392
 30
-6.55967e-14
  70
    32
  0
VERTEX
  8
0
  5
7DF9
 10
-161.916
 20
295.383
 30
-6.55964e-14
  70
    32
  0
VERTEX
  8
0
  5
7DFA
 10
-161.916
 20
295.375
 30
-6.55960e-14
  70
    32
  0
VERTEX
  8
0
  5
7DFB
 10
-161.916
 20
295.366
 30
-6.55956e-14
  70
    32
  0
VERTEX
  8
0
  5
7DFC
 10
-161.916
 20
295.357
 30
-6.55952e-14
  70
    32
  0
VERTEX
  8
0
  5
7DFD
 10
-161.916
 20
295.348
 30
-6.55947e-14
  70
    32
  0
VERTEX
  8
0
  5
7DFE
 10
-161.916
 20
295.339
 30
-6.55942e-14
  70
    32
  0
VERTEX
  8
0
  5
7DFF
 10
-161.916
 20
295.330
 30
-6.55937e-14
  70
    32
  0
VERTEX
  8
0
  5
7E00
 10
-161.916
 20
295.321
 30
-6.55932e-14
  70
    32
  0
VERTEX
  8
0
  5
7E01
 10
-161.916
 20
295.312
 30
-6.55926e-14
  70
    32
  0
VERTEX
  8
0
  5
7E02
 10
-161.916
 20
295.303
 30
-6.55920e-14
  70
    32
  0
VERTEX
  8
0
  5
7E03
 10
-161.916
 20
295.294
 30
-6.55914e-14
  70
    32
  0
VERTEX
  8
0
  5
7E04
 10
-161.916
 20
295.285
 30
-6.55907e-14
  70
    32
  0
VERTEX
  8
0
  5
7E05
 10
-161.916
 20
295.276
 30
-6.55900e-14
  70
    32
  0
VERTEX
  8
0
  5
7E06
 10
-161.916
 20
295.267
 30
-6.55893e-14
  70
    32
  0
VERTEX
  8
0
  5
7E07
 10
-161.916
 20
295.258
 30
-6.55885e-14
  70
    32
  0
VERTEX
  8
0
  5
7E08
 10
-161.916
 20
295.249
 30
-6.55877e-14
  70
    32
  0
VERTEX
  8
0
  5
7E09
 10
-161.916
 20
295.240
 30
-6.55869e-14
  70
    32
  0
VERTEX
  8
0
  5
7E0A
 10
-161.916
 20
295.231
 30
-6.55860e-14
  70
    32
  0
VERTEX
  8
0
  5
7E0B
 10
-161.916
 20
295.222
 30
-6.55851e-14
  70
    32
  0
VERTEX
  8
0
  5
7E0C
 10
-161.916
 20
295.212
 30
-6.55842e-14
  70
    32
  0
VERTEX
  8
0
  5
7E0D
 10
-161.916
 20
295.203
 30
-6.55832e-14
  70
    32
  0
VERTEX
  8
0
  5
7E0E
 10
-161.916
 20
295.194
 30
-6.55821e-14
  70
    32
  0
VERTEX
  8
0
  5
7E0F
 10
-161.916
 20
295.185
 30
-6.55811e-14
  70
    32
  0
VERTEX
  8
0
  5
7E10
 10
-161.916
 20
295.176
 30
-6.55800e-14
  70
    32
  0
VERTEX
  8
0
  5
7E11
 10
-161.916
 20
295.167
 30
-6.55788e-14
  70
    32
  0
VERTEX
  8
0
  5
7E12
 10
-161.916
 20
295.158
 30
-6.55776e-14
  70
    32
  0
VERTEX
  8
0
  5
7E13
 10
-161.916
 20
295.149
 30
-6.55764e-14
  70
    32
  0
VERTEX
  8
0
  5
7E14
 10
-161.916
 20
295.140
 30
-6.55751e-14
  70
    32
  0
VERTEX
  8
0
  5
7E15
 10
-161.916
 20
295.131
 30
-6.55737e-14
  70
    32
  0
VERTEX
  8
0
  5
7E16
 10
-161.916
 20
295.122
 30
-6.55723e-14
  70
    32
  0
VERTEX
  8
0
  5
7E17
 10
-161.916
 20
295.113
 30
-6.55709e-14
  70
    32
  0
VERTEX
  8
0
  5
7E18
 10
-161.916
 20
295.104
 30
-6.55694e-14
  70
    32
  0
VERTEX
  8
0
  5
7E19
 10
-161.916
 20
295.095
 30
-6.55679e-14
  70
    32
  0
VERTEX
  8
0
  5
7E1A
 10
-161.916
 20
295.086
 30
-6.55663e-14
  70
    32
  0
VERTEX
  8
0
  5
7E1B
 10
-161.916
 20
295.077
 30
-6.55647e-14
  70
    32
  0
VERTEX
  8
0
  5
7E1C
 10
-161.916
 20
295.068
 30
-6.55630e-14
  70
    32
  0
VERTEX
  8
0
  5
7E1D
 10
-161.916
 20
295.059
 30
-6.55613e-14
  70
    32
  0
VERTEX
  8
0
  5
7E1E
 10
-161.916
 20
295.050
 30
-6.55595e-14
  70
    32
  0
VERTEX
  8
0
  5
7E1F
 10
-161.916
 20
295.041
 30
-6.55577e-14
  70
    32
  0
VERTEX
  8
0
  5
7E20
 10
-161.917
 20
295.032
 30
-6.55558e-14
  70
    32
  0
VERTEX
  8
0
  5
7E21
 10
-161.917
 20
295.023
 30
-6.55538e-14
  70
    32
  0
VERTEX
  8
0
  5
7E22
 10
-161.917
 20
295.014
 30
-6.55518e-14
  70
    32
  0
VERTEX
  8
0
  5
7E23
 10
-161.917
 20
295.005
 30
-6.55497e-14
  70
    32
  0
VERTEX
  8
0
  5
7E24
 10
-161.917
 20
294.996
 30
-6.55476e-14
  70
    32
  0
VERTEX
  8
0
  5
7E25
 10
-161.917
 20
294.987
 30
-6.55454e-14
  70
    32
  0
VERTEX
  8
0
  5
7E26
 10
-161.917
 20
294.978
 30
-6.55432e-14
  70
    32
  0
VERTEX
  8
0
  5
7E27
 10
-161.917
 20
294.969
 30
-6.55409e-14
  70
    32
  0
VERTEX
  8
0
  5
7E28
 10
-161.917
 20
294.960
 30
-6.55386e-14
  70
    32
  0
VERTEX
  8
0
  5
7E29
 10
-161.917
 20
294.951
 30
-6.55362e-14
  70
    32
  0
VERTEX
  8
0
  5
7E2A
 10
-161.917
 20
294.942
 30
-6.55338e-14
  70
    32
  0
VERTEX
  8
0
  5
7E2B
 10
-161.917
 20
294.933
 30
-6.55313e-14
  70
    32
  0
VERTEX
  8
0
  5
7E2C
 10
-161.917
 20
294.924
 30
-6.55287e-14
  70
    32
  0
VERTEX
  8
0
  5
7E2D
 10
-161.917
 20
294.915
 30
-6.55262e-14
  70
    32
  0
VERTEX
  8
0
  5
7E2E
 10
-161.917
 20
294.905
 30
-6.55236e-14
  70
    32
  0
VERTEX
  8
0
  5
7E2F
 10
-161.917
 20
294.896
 30
-6.55209e-14
  70
    32
  0
VERTEX
  8
0
  5
7E30
 10
-161.917
 20
294.887
 30
-6.55182e-14
  70
    32
  0
VERTEX
  8
0
  5
7E31
 10
-161.917
 20
294.878
 30
-6.55155e-14
  70
    32
  0
VERTEX
  8
0
  5
7E32
 10
-161.917
 20
294.869
 30
-6.55127e-14
  70
    32
  0
VERTEX
  8
0
  5
7E33
 10
-161.917
 20
294.860
 30
-6.55099e-14
  70
    32
  0
VERTEX
  8
0
  5
7E34
 10
-161.917
 20
294.852
 30
-6.55071e-14
  70
    32
  0
VERTEX
  8
0
  5
7E35
 10
-161.917
 20
294.843
 30
-6.55042e-14
  70
    32
  0
VERTEX
  8
0
  5
7E36
 10
-161.917
 20
294.834
 30
-6.55014e-14
  70
    32
  0
VERTEX
  8
0
  5
7E37
 10
-161.917
 20
294.825
 30
-6.54984e-14
  70
    32
  0
VERTEX
  8
0
  5
7E38
 10
-161.917
 20
294.816
 30
-6.54955e-14
  70
    32
  0
VERTEX
  8
0
  5
7E39
 10
-161.918
 20
294.807
 30
-6.54925e-14
  70
    32
  0
VERTEX
  8
0
  5
7E3A
 10
-161.918
 20
294.798
 30
-6.54895e-14
  70
    32
  0
VERTEX
  8
0
  5
7E3B
 10
-161.918
 20
294.789
 30
-6.54865e-14
  70
    32
  0
VERTEX
  8
0
  5
7E3C
 10
-161.918
 20
294.780
 30
-6.54835e-14
  70
    32
  0
VERTEX
  8
0
  5
7E3D
 10
-161.918
 20
294.771
 30
-6.54805e-14
  70
    32
  0
VERTEX
  8
0
  5
7E3E
 10
-161.918
 20
294.762
 30
-6.54774e-14
  70
    32
  0
VERTEX
  8
0
  5
7E3F
 10
-161.918
 20
294.753
 30
-6.54743e-14
  70
    32
  0
VERTEX
  8
0
  5
7E40
 10
-161.918
 20
294.744
 30
-6.54712e-14
  70
    32
  0
VERTEX
  8
0
  5
7E41
 10
-161.918
 20
294.735
 30
-6.54681e-14
  70
    32
  0
VERTEX
  8
0
  5
7E42
 10
-161.918
 20
294.726
 30
-6.54650e-14
  70
    32
  0
VERTEX
  8
0
  5
7E43
 10
-161.918
 20
294.717
 30
-6.54619e-14
  70
    32
  0
VERTEX
  8
0
  5
7E44
 10
-161.918
 20
294.708
 30
-6.54588e-14
  70
    32
  0
VERTEX
  8
0
  5
7E45
 10
-161.918
 20
294.699
 30
-6.54557e-14
  70
    32
  0
VERTEX
  8
0
  5
7E46
 10
-161.918
 20
294.690
 30
-6.54525e-14
  70
    32
  0
VERTEX
  8
0
  5
7E47
 10
-161.918
 20
294.681
 30
-6.54494e-14
  70
    32
  0
VERTEX
  8
0
  5
7E48
 10
-161.918
 20
294.673
 30
-6.54463e-14
  70
    32
  0
VERTEX
  8
0
  5
7E49
 10
-161.918
 20
294.664
 30
-6.54432e-14
  70
    32
  0
VERTEX
  8
0
  5
7E4A
 10
-161.918
 20
294.655
 30
-6.54400e-14
  70
    32
  0
VERTEX
  8
0
  5
7E4B
 10
-161.918
 20
294.646
 30
-6.54369e-14
  70
    32
  0
VERTEX
  8
0
  5
7E4C
 10
-161.919
 20
294.637
 30
-6.54338e-14
  70
    32
  0
VERTEX
  8
0
  5
7E4D
 10
-161.919
 20
294.628
 30
-6.54307e-14
  70
    32
  0
VERTEX
  8
0
  5
7E4E
 10
-161.919
 20
294.619
 30
-6.54276e-14
  70
    32
  0
VERTEX
  8
0
  5
7E4F
 10
-161.919
 20
294.610
 30
-6.54245e-14
  70
    32
  0
VERTEX
  8
0
  5
7E50
 10
-161.919
 20
294.602
 30
-6.54214e-14
  70
    32
  0
VERTEX
  8
0
  5
7E51
 10
-161.919
 20
294.593
 30
-6.54184e-14
  70
    32
  0
VERTEX
  8
0
  5
7E52
 10
-161.919
 20
294.584
 30
-6.54154e-14
  70
    32
  0
VERTEX
  8
0
  5
7E53
 10
-161.919
 20
294.575
 30
-6.54123e-14
  70
    32
  0
VERTEX
  8
0
  5
7E54
 10
-161.919
 20
294.566
 30
-6.54093e-14
  70
    32
  0
VERTEX
  8
0
  5
7E55
 10
-161.919
 20
294.558
 30
-6.54064e-14
  70
    32
  0
VERTEX
  8
0
  5
7E56
 10
-161.919
 20
294.549
 30
-6.54034e-14
  70
    32
  0
VERTEX
  8
0
  5
7E57
 10
-161.919
 20
294.540
 30
-6.54005e-14
  70
    32
  0
VERTEX
  8
0
  5
7E58
 10
-161.919
 20
294.531
 30
-6.53976e-14
  70
    32
  0
VERTEX
  8
0
  5
7E59
 10
-161.919
 20
294.522
 30
-6.53947e-14
  70
    32
  0
VERTEX
  8
0
  5
7E5A
 10
-161.919
 20
294.514
 30
-6.53918e-14
  70
    32
  0
VERTEX
  8
0
  5
7E5B
 10
-161.919
 20
294.505
 30
-6.53890e-14
  70
    32
  0
VERTEX
  8
0
  5
7E5C
 10
-161.919
 20
294.496
 30
-6.53862e-14
  70
    32
  0
VERTEX
  8
0
  5
7E5D
 10
-161.920
 20
294.487
 30
-6.53835e-14
  70
    32
  0
VERTEX
  8
0
  5
7E5E
 10
-161.920
 20
294.479
 30
-6.53808e-14
  70
    32
  0
VERTEX
  8
0
  5
7E5F
 10
-161.920
 20
294.470
 30
-6.53781e-14
  70
    32
  0
VERTEX
  8
0
  5
7E60
 10
-161.920
 20
294.461
 30
-6.53755e-14
  70
    32
  0
VERTEX
  8
0
  5
7E61
 10
-161.920
 20
294.452
 30
-6.53729e-14
  70
    32
  0
VERTEX
  8
0
  5
7E62
 10
-161.920
 20
294.444
 30
-6.53703e-14
  70
    32
  0
VERTEX
  8
0
  5
7E63
 10
-161.920
 20
294.435
 30
-6.53678e-14
  70
    32
  0
VERTEX
  8
0
  5
7E64
 10
-161.920
 20
294.426
 30
-6.53653e-14
  70
    32
  0
VERTEX
  8
0
  5
7E65
 10
-161.920
 20
294.418
 30
-6.53629e-14
  70
    32
  0
VERTEX
  8
0
  5
7E66
 10
-161.920
 20
294.409
 30
-6.53605e-14
  70
    32
  0
VERTEX
  8
0
  5
7E67
 10
-161.920
 20
294.400
 30
-6.53582e-14
  70
    32
  0
VERTEX
  8
0
  5
7E68
 10
-161.920
 20
294.392
 30
-6.53560e-14
  70
    32
  0
VERTEX
  8
0
  5
7E69
 10
-161.920
 20
294.383
 30
-6.53537e-14
  70
    32
  0
VERTEX
  8
0
  5
7E6A
 10
-161.920
 20
294.374
 30
-6.53516e-14
  70
    32
  0
VERTEX
  8
0
  5
7E6B
 10
-161.920
 20
294.366
 30
-6.53495e-14
  70
    32
  0
VERTEX
  8
0
  5
7E6C
 10
-161.921
 20
294.357
 30
-6.53474e-14
  70
    32
  0
VERTEX
  8
0
  5
7E6D
 10
-161.921
 20
294.349
 30
-6.53454e-14
  70
    32
  0
VERTEX
  8
0
  5
7E6E
 10
-161.921
 20
294.340
 30
-6.53435e-14
  70
    32
  0
VERTEX
  8
0
  5
7E6F
 10
-161.921
 20
294.331
 30
-6.53416e-14
  70
    32
  0
VERTEX
  8
0
  5
7E70
 10
-161.921
 20
294.323
 30
-6.53398e-14
  70
    32
  0
VERTEX
  8
0
  5
7E71
 10
-161.921
 20
294.314
 30
-6.53380e-14
  70
    32
  0
VERTEX
  8
0
  5
7E72
 10
-161.921
 20
294.306
 30
-6.53363e-14
  70
    32
  0
VERTEX
  8
0
  5
7E73
 10
-161.921
 20
294.297
 30
-6.53346e-14
  70
    32
  0
VERTEX
  8
0
  5
7E74
 10
-161.921
 20
294.289
 30
-6.53330e-14
  70
    32
  0
VERTEX
  8
0
  5
7E75
 10
-161.921
 20
294.280
 30
-6.53314e-14
  70
    32
  0
VERTEX
  8
0
  5
7E76
 10
-161.921
 20
294.272
 30
-6.53298e-14
  70
    32
  0
VERTEX
  8
0
  5
7E77
 10
-161.921
 20
294.263
 30
-6.53283e-14
  70
    32
  0
VERTEX
  8
0
  5
7E78
 10
-161.921
 20
294.255
 30
-6.53268e-14
  70
    32
  0
VERTEX
  8
0
  5
7E79
 10
-161.921
 20
294.246
 30
-6.53254e-14
  70
    32
  0
VERTEX
  8
0
  5
7E7A
 10
-161.922
 20
294.238
 30
-6.53240e-14
  70
    32
  0
VERTEX
  8
0
  5
7E7B
 10
-161.922
 20
294.229
 30
-6.53226e-14
  70
    32
  0
VERTEX
  8
0
  5
7E7C
 10
-161.922
 20
294.221
 30
-6.53213e-14
  70
    32
  0
VERTEX
  8
0
  5
7E7D
 10
-161.922
 20
294.213
 30
-6.53199e-14
  70
    32
  0
VERTEX
  8
0
  5
7E7E
 10
-161.922
 20
294.204
 30
-6.53187e-14
  70
    32
  0
VERTEX
  8
0
  5
7E7F
 10
-161.922
 20
294.196
 30
-6.53174e-14
  70
    32
  0
VERTEX
  8
0
  5
7E80
 10
-161.922
 20
294.187
 30
-6.53162e-14
  70
    32
  0
VERTEX
  8
0
  5
7E81
 10
-161.922
 20
294.179
 30
-6.53150e-14
  70
    32
  0
VERTEX
  8
0
  5
7E82
 10
-161.922
 20
294.171
 30
-6.53138e-14
  70
    32
  0
VERTEX
  8
0
  5
7E83
 10
-161.922
 20
294.162
 30
-6.53126e-14
  70
    32
  0
VERTEX
  8
0
  5
7E84
 10
-161.922
 20
294.154
 30
-6.53115e-14
  70
    32
  0
VERTEX
  8
0
  5
7E85
 10
-161.922
 20
294.146
 30
-6.53104e-14
  70
    32
  0
VERTEX
  8
0
  5
7E86
 10
-161.922
 20
294.137
 30
-6.53092e-14
  70
    32
  0
VERTEX
  8
0
  5
7E87
 10
-161.922
 20
294.129
 30
-6.53081e-14
  70
    32
  0
VERTEX
  8
0
  5
7E88
 10
-161.923
 20
294.121
 30
-6.53071e-14
  70
    32
  0
VERTEX
  8
0
  5
7E89
 10
-161.923
 20
294.112
 30
-6.53060e-14
  70
    32
  0
VERTEX
  8
0
  5
7E8A
 10
-161.923
 20
294.104
 30
-6.53049e-14
  70
    32
  0
VERTEX
  8
0
  5
7E8B
 10
-161.923
 20
294.096
 30
-6.53039e-14
  70
    32
  0
VERTEX
  8
0
  5
7E8C
 10
-161.923
 20
294.088
 30
-6.53028e-14
  70
    32
  0
VERTEX
  8
0
  5
7E8D
 10
-161.923
 20
294.079
 30
-6.53018e-14
  70
    32
  0
VERTEX
  8
0
  5
7E8E
 10
-161.923
 20
294.071
 30
-6.53007e-14
  70
    32
  0
VERTEX
  8
0
  5
7E8F
 10
-161.923
 20
294.063
 30
-6.52997e-14
  70
    32
  0
VERTEX
  8
0
  5
7E90
 10
-161.923
 20
294.055
 30
-6.52986e-14
  70
    32
  0
VERTEX
  8
0
  5
7E91
 10
-161.923
 20
294.047
 30
-6.52976e-14
  70
    32
  0
VERTEX
  8
0
  5
7E92
 10
-161.923
 20
294.039
 30
-6.52965e-14
  70
    32
  0
VERTEX
  8
0
  5
7E93
 10
-161.923
 20
294.030
 30
-6.52955e-14
  70
    32
  0
VERTEX
  8
0
  5
7E94
 10
-161.924
 20
294.022
 30
-6.52944e-14
  70
    32
  0
VERTEX
  8
0
  5
7E95
 10
-161.924
 20
294.014
 30
-6.52933e-14
  70
    32
  0
VERTEX
  8
0
  5
7E96
 10
-161.924
 20
294.006
 30
-6.52923e-14
  70
    32
  0
VERTEX
  8
0
  5
7E97
 10
-161.924
 20
293.998
 30
-6.52912e-14
  70
    32
  0
VERTEX
  8
0
  5
7E98
 10
-161.924
 20
293.990
 30
-6.52901e-14
  70
    32
  0
VERTEX
  8
0
  5
7E99
 10
-161.924
 20
293.982
 30
-6.52889e-14
  70
    32
  0
VERTEX
  8
0
  5
7E9A
 10
-161.924
 20
293.974
 30
-6.52878e-14
  70
    32
  0
VERTEX
  8
0
  5
7E9B
 10
-161.924
 20
293.966
 30
-6.52866e-14
  70
    32
  0
VERTEX
  8
0
  5
7E9C
 10
-161.924
 20
293.958
 30
-6.52855e-14
  70
    32
  0
VERTEX
  8
0
  5
7E9D
 10
-161.924
 20
293.950
 30
-6.52843e-14
  70
    32
  0
VERTEX
  8
0
  5
7E9E
 10
-161.924
 20
293.942
 30
-6.52831e-14
  70
    32
  0
VERTEX
  8
0
  5
7E9F
 10
-161.924
 20
293.934
 30
-6.52818e-14
  70
    32
  0
VERTEX
  8
0
  5
7EA0
 10
-161.925
 20
293.926
 30
-6.52805e-14
  70
    32
  0
VERTEX
  8
0
  5
7EA1
 10
-161.925
 20
293.918
 30
-6.52792e-14
  70
    32
  0
VERTEX
  8
0
  5
7EA2
 10
-161.925
 20
293.910
 30
-6.52779e-14
  70
    32
  0
VERTEX
  8
0
  5
7EA3
 10
-161.925
 20
293.902
 30
-6.52765e-14
  70
    32
  0
VERTEX
  8
0
  5
7EA4
 10
-161.925
 20
293.894
 30
-6.52752e-14
  70
    32
  0
VERTEX
  8
0
  5
7EA5
 10
-161.925
 20
293.886
 30
-6.52737e-14
  70
    32
  0
VERTEX
  8
0
  5
7EA6
 10
-161.925
 20
293.879
 30
-6.52723e-14
  70
    32
  0
VERTEX
  8
0
  5
7EA7
 10
-161.925
 20
293.871
 30
-6.52708e-14
  70
    32
  0
VERTEX
  8
0
  5
7EA8
 10
-161.925
 20
293.863
 30
-6.52692e-14
  70
    32
  0
VERTEX
  8
0
  5
7EA9
 10
-161.925
 20
293.855
 30
-6.52676e-14
  70
    32
  0
VERTEX
  8
0
  5
7EAA
 10
-161.925
 20
293.847
 30
-6.52660e-14
  70
    32
  0
VERTEX
  8
0
  5
7EAB
 10
-161.925
 20
293.840
 30
-6.52643e-14
  70
    32
  0
VERTEX
  8
0
  5
7EAC
 10
-161.926
 20
293.832
 30
-6.52626e-14
  70
    32
  0
VERTEX
  8
0
  5
7EAD
 10
-161.926
 20
293.824
 30
-6.52609e-14
  70
    32
  0
VERTEX
  8
0
  5
7EAE
 10
-161.926
 20
293.816
 30
-6.52591e-14
  70
    32
  0
VERTEX
  8
0
  5
7EAF
 10
-161.926
 20
293.809
 30
-6.52572e-14
  70
    32
  0
VERTEX
  8
0
  5
7EB0
 10
-161.926
 20
293.801
 30
-6.52553e-14
  70
    32
  0
VERTEX
  8
0
  5
7EB1
 10
-161.926
 20
293.793
 30
-6.52533e-14
  70
    32
  0
VERTEX
  8
0
  5
7EB2
 10
-161.926
 20
293.786
 30
-6.52513e-14
  70
    32
  0
VERTEX
  8
0
  5
7EB3
 10
-161.926
 20
293.778
 30
-6.52492e-14
  70
    32
  0
VERTEX
  8
0
  5
7EB4
 10
-161.926
 20
293.770
 30
-6.52472e-14
  70
    32
  0
VERTEX
  8
0
  5
7EB5
 10
-161.926
 20
293.763
 30
-6.52452e-14
  70
    32
  0
VERTEX
  8
0
  5
7EB6
 10
-161.926
 20
293.755
 30
-6.52433e-14
  70
    32
  0
VERTEX
  8
0
  5
7EB7
 10
-161.927
 20
293.748
 30
-6.52414e-14
  70
    32
  0
VERTEX
  8
0
  5
7EB8
 10
-161.927
 20
293.740
 30
-6.52396e-14
  70
    32
  0
VERTEX
  8
0
  5
7EB9
 10
-161.927
 20
293.733
 30
-6.52378e-14
  70
    32
  0
VERTEX
  8
0
  5
7EBA
 10
-161.927
 20
293.725
 30
-6.52361e-14
  70
    32
  0
VERTEX
  8
0
  5
7EBB
 10
-161.927
 20
293.718
 30
-6.52344e-14
  70
    32
  0
VERTEX
  8
0
  5
7EBC
 10
-161.927
 20
293.710
 30
-6.52328e-14
  70
    32
  0
VERTEX
  8
0
  5
7EBD
 10
-161.927
 20
293.703
 30
-6.52312e-14
  70
    32
  0
VERTEX
  8
0
  5
7EBE
 10
-161.927
 20
293.695
 30
-6.52296e-14
  70
    32
  0
VERTEX
  8
0
  5
7EBF
 10
-161.927
 20
293.688
 30
-6.52281e-14
  70
    32
  0
VERTEX
  8
0
  5
7EC0
 10
-161.927
 20
293.680
 30
-6.52266e-14
  70
    32
  0
VERTEX
  8
0
  5
7EC1
 10
-161.927
 20
293.673
 30
-6.52252e-14
  70
    32
  0
VERTEX
  8
0
  5
7EC2
 10
-161.928
 20
293.666
 30
-6.52238e-14
  70
    32
  0
VERTEX
  8
0
  5
7EC3
 10
-161.928
 20
293.658
 30
-6.52224e-14
  70
    32
  0
VERTEX
  8
0
  5
7EC4
 10
-161.928
 20
293.651
 30
-6.52211e-14
  70
    32
  0
VERTEX
  8
0
  5
7EC5
 10
-161.928
 20
293.644
 30
-6.52198e-14
  70
    32
  0
VERTEX
  8
0
  5
7EC6
 10
-161.928
 20
293.636
 30
-6.52185e-14
  70
    32
  0
VERTEX
  8
0
  5
7EC7
 10
-161.928
 20
293.629
 30
-6.52173e-14
  70
    32
  0
VERTEX
  8
0
  5
7EC8
 10
-161.928
 20
293.622
 30
-6.52160e-14
  70
    32
  0
VERTEX
  8
0
  5
7EC9
 10
-161.928
 20
293.614
 30
-6.52148e-14
  70
    32
  0
VERTEX
  8
0
  5
7ECA
 10
-161.928
 20
293.607
 30
-6.52136e-14
  70
    32
  0
VERTEX
  8
0
  5
7ECB
 10
-161.928
 20
293.600
 30
-6.52125e-14
  70
    32
  0
VERTEX
  8
0
  5
7ECC
 10
-161.928
 20
293.593
 30
-6.52113e-14
  70
    32
  0
VERTEX
  8
0
  5
7ECD
 10
-161.929
 20
293.586
 30
-6.52102e-14
  70
    32
  0
VERTEX
  8
0
  5
7ECE
 10
-161.929
 20
293.579
 30
-6.52091e-14
  70
    32
  0
VERTEX
  8
0
  5
7ECF
 10
-161.929
 20
293.571
 30
-6.52080e-14
  70
    32
  0
VERTEX
  8
0
  5
7ED0
 10
-161.929
 20
293.564
 30
-6.52069e-14
  70
    32
  0
VERTEX
  8
0
  5
7ED1
 10
-161.929
 20
293.557
 30
-6.52059e-14
  70
    32
  0
VERTEX
  8
0
  5
7ED2
 10
-161.929
 20
293.550
 30
-6.52048e-14
  70
    32
  0
VERTEX
  8
0
  5
7ED3
 10
-161.929
 20
293.543
 30
-6.52037e-14
  70
    32
  0
VERTEX
  8
0
  5
7ED4
 10
-161.929
 20
293.536
 30
-6.52027e-14
  70
    32
  0
VERTEX
  8
0
  5
7ED5
 10
-161.929
 20
293.529
 30
-6.52016e-14
  70
    32
  0
VERTEX
  8
0
  5
7ED6
 10
-161.929
 20
293.522
 30
-6.52006e-14
  70
    32
  0
VERTEX
  8
0
  5
7ED7
 10
-161.929
 20
293.515
 30
-6.51995e-14
  70
    32
  0
VERTEX
  8
0
  5
7ED8
 10
-161.930
 20
293.508
 30
-6.51985e-14
  70
    32
  0
VERTEX
  8
0
  5
7ED9
 10
-161.930
 20
293.501
 30
-6.51975e-14
  70
    32
  0
VERTEX
  8
0
  5
7EDA
 10
-161.930
 20
293.494
 30
-6.51964e-14
  70
    32
  0
VERTEX
  8
0
  5
7EDB
 10
-161.930
 20
293.487
 30
-6.51953e-14
  70
    32
  0
VERTEX
  8
0
  5
7EDC
 10
-161.930
 20
293.481
 30
-6.51943e-14
  70
    32
  0
VERTEX
  8
0
  5
7EDD
 10
-161.930
 20
293.474
 30
-6.51932e-14
  70
    32
  0
VERTEX
  8
0
  5
7EDE
 10
-161.930
 20
293.467
 30
-6.51921e-14
  70
    32
  0
VERTEX
  8
0
  5
7EDF
 10
-161.930
 20
293.460
 30
-6.51910e-14
  70
    32
  0
VERTEX
  8
0
  5
7EE0
 10
-161.930
 20
293.453
 30
-6.51899e-14
  70
    32
  0
VERTEX
  8
0
  5
7EE1
 10
-161.930
 20
293.447
 30
-6.51888e-14
  70
    32
  0
VERTEX
  8
0
  5
7EE2
 10
-161.930
 20
293.440
 30
-6.51877e-14
  70
    32
  0
VERTEX
  8
0
  5
7EE3
 10
-161.931
 20
293.433
 30
-6.51865e-14
  70
    32
  0
VERTEX
  8
0
  5
7EE4
 10
-161.931
 20
293.426
 30
-6.51853e-14
  70
    32
  0
VERTEX
  8
0
  5
7EE5
 10
-161.931
 20
293.420
 30
-6.51841e-14
  70
    32
  0
VERTEX
  8
0
  5
7EE6
 10
-161.931
 20
293.413
 30
-6.51829e-14
  70
    32
  0
VERTEX
  8
0
  5
7EE7
 10
-161.931
 20
293.406
 30
-6.51817e-14
  70
    32
  0
VERTEX
  8
0
  5
7EE8
 10
-161.931
 20
293.400
 30
-6.51804e-14
  70
    32
  0
VERTEX
  8
0
  5
7EE9
 10
-161.931
 20
293.393
 30
-6.51791e-14
  70
    32
  0
VERTEX
  8
0
  5
7EEA
 10
-161.931
 20
293.387
 30
-6.51777e-14
  70
    32
  0
VERTEX
  8
0
  5
7EEB
 10
-161.931
 20
293.380
 30
-6.51764e-14
  70
    32
  0
VERTEX
  8
0
  5
7EEC
 10
-161.931
 20
293.374
 30
-6.51750e-14
  70
    32
  0
VERTEX
  8
0
  5
7EED
 10
-161.931
 20
293.367
 30
-6.51735e-14
  70
    32
  0
VERTEX
  8
0
  5
7EEE
 10
-161.932
 20
293.361
 30
-6.51721e-14
  70
    32
  0
VERTEX
  8
0
  5
7EEF
 10
-161.932
 20
293.354
 30
-6.51706e-14
  70
    32
  0
VERTEX
  8
0
  5
7EF0
 10
-161.932
 20
293.348
 30
-6.51690e-14
  70
    32
  0
VERTEX
  8
0
  5
7EF1
 10
-161.932
 20
293.341
 30
-6.51674e-14
  70
    32
  0
VERTEX
  8
0
  5
7EF2
 10
-161.932
 20
293.335
 30
-6.51658e-14
  70
    32
  0
VERTEX
  8
0
  5
7EF3
 10
-161.932
 20
293.328
 30
-6.51641e-14
  70
    32
  0
VERTEX
  8
0
  5
7EF4
 10
-161.932
 20
293.322
 30
-6.51624e-14
  70
    32
  0
VERTEX
  8
0
  5
7EF5
 10
-161.932
 20
293.316
 30
-6.51606e-14
  70
    32
  0
VERTEX
  8
0
  5
7EF6
 10
-161.932
 20
293.309
 30
-6.51588e-14
  70
    32
  0
VERTEX
  8
0
  5
7EF7
 10
-161.932
 20
293.303
 30
-6.51570e-14
  70
    32
  0
VERTEX
  8
0
  5
7EF8
 10
-161.932
 20
293.297
 30
-6.51550e-14
  70
    32
  0
VERTEX
  8
0
  5
7EF9
 10
-161.933
 20
293.291
 30
-6.51531e-14
  70
    32
  0
VERTEX
  8
0
  5
7EFA
 10
-161.933
 20
293.284
 30
-6.51510e-14
  70
    32
  0
VERTEX
  8
0
  5
7EFB
 10
-161.933
 20
293.278
 30
-6.51490e-14
  70
    32
  0
VERTEX
  8
0
  5
7EFC
 10
-161.933
 20
293.272
 30
-6.51469e-14
  70
    32
  0
VERTEX
  8
0
  5
7EFD
 10
-161.933
 20
293.266
 30
-6.51450e-14
  70
    32
  0
VERTEX
  8
0
  5
7EFE
 10
-161.933
 20
293.260
 30
-6.51430e-14
  70
    32
  0
VERTEX
  8
0
  5
7EFF
 10
-161.933
 20
293.253
 30
-6.51412e-14
  70
    32
  0
VERTEX
  8
0
  5
7F00
 10
-161.933
 20
293.247
 30
-6.51394e-14
  70
    32
  0
VERTEX
  8
0
  5
7F01
 10
-161.933
 20
293.241
 30
-6.51376e-14
  70
    32
  0
VERTEX
  8
0
  5
7F02
 10
-161.933
 20
293.235
 30
-6.51359e-14
  70
    32
  0
VERTEX
  8
0
  5
7F03
 10
-161.933
 20
293.229
 30
-6.51342e-14
  70
    32
  0
VERTEX
  8
0
  5
7F04
 10
-161.934
 20
293.223
 30
-6.51326e-14
  70
    32
  0
VERTEX
  8
0
  5
7F05
 10
-161.934
 20
293.217
 30
-6.51310e-14
  70
    32
  0
VERTEX
  8
0
  5
7F06
 10
-161.934
 20
293.211
 30
-6.51294e-14
  70
    32
  0
VERTEX
  8
0
  5
7F07
 10
-161.934
 20
293.204
 30
-6.51279e-14
  70
    32
  0
VERTEX
  8
0
  5
7F08
 10
-161.934
 20
293.198
 30
-6.51265e-14
  70
    32
  0
VERTEX
  8
0
  5
7F09
 10
-161.934
 20
293.192
 30
-6.51250e-14
  70
    32
  0
VERTEX
  8
0
  5
7F0A
 10
-161.934
 20
293.186
 30
-6.51236e-14
  70
    32
  0
VERTEX
  8
0
  5
7F0B
 10
-161.934
 20
293.180
 30
-6.51223e-14
  70
    32
  0
VERTEX
  8
0
  5
7F0C
 10
-161.934
 20
293.174
 30
-6.51209e-14
  70
    32
  0
VERTEX
  8
0
  5
7F0D
 10
-161.934
 20
293.168
 30
-6.51196e-14
  70
    32
  0
VERTEX
  8
0
  5
7F0E
 10
-161.934
 20
293.162
 30
-6.51183e-14
  70
    32
  0
VERTEX
  8
0
  5
7F0F
 10
-161.935
 20
293.156
 30
-6.51171e-14
  70
    32
  0
VERTEX
  8
0
  5
7F10
 10
-161.935
 20
293.150
 30
-6.51159e-14
  70
    32
  0
VERTEX
  8
0
  5
7F11
 10
-161.935
 20
293.144
 30
-6.51147e-14
  70
    32
  0
VERTEX
  8
0
  5
7F12
 10
-161.935
 20
293.139
 30
-6.51135e-14
  70
    32
  0
VERTEX
  8
0
  5
7F13
 10
-161.935
 20
293.133
 30
-6.51123e-14
  70
    32
  0
VERTEX
  8
0
  5
7F14
 10
-161.935
 20
293.127
 30
-6.51112e-14
  70
    32
  0
VERTEX
  8
0
  5
7F15
 10
-161.935
 20
293.121
 30
-6.51101e-14
  70
    32
  0
VERTEX
  8
0
  5
7F16
 10
-161.935
 20
293.115
 30
-6.51090e-14
  70
    32
  0
VERTEX
  8
0
  5
7F17
 10
-161.935
 20
293.109
 30
-6.51079e-14
  70
    32
  0
VERTEX
  8
0
  5
7F18
 10
-161.935
 20
293.103
 30
-6.51068e-14
  70
    32
  0
VERTEX
  8
0
  5
7F19
 10
-161.935
 20
293.097
 30
-6.51057e-14
  70
    32
  0
VERTEX
  8
0
  5
7F1A
 10
-161.936
 20
293.092
 30
-6.51047e-14
  70
    32
  0
VERTEX
  8
0
  5
7F1B
 10
-161.936
 20
293.086
 30
-6.51036e-14
  70
    32
  0
VERTEX
  8
0
  5
7F1C
 10
-161.936
 20
293.080
 30
-6.51025e-14
  70
    32
  0
VERTEX
  8
0
  5
7F1D
 10
-161.936
 20
293.074
 30
-6.51015e-14
  70
    32
  0
VERTEX
  8
0
  5
7F1E
 10
-161.936
 20
293.068
 30
-6.51005e-14
  70
    32
  0
VERTEX
  8
0
  5
7F1F
 10
-161.936
 20
293.063
 30
-6.50994e-14
  70
    32
  0
VERTEX
  8
0
  5
7F20
 10
-161.936
 20
293.057
 30
-6.50984e-14
  70
    32
  0
VERTEX
  8
0
  5
7F21
 10
-161.936
 20
293.051
 30
-6.50973e-14
  70
    32
  0
VERTEX
  8
0
  5
7F22
 10
-161.936
 20
293.046
 30
-6.50963e-14
  70
    32
  0
VERTEX
  8
0
  5
7F23
 10
-161.936
 20
293.040
 30
-6.50952e-14
  70
    32
  0
VERTEX
  8
0
  5
7F24
 10
-161.936
 20
293.034
 30
-6.50941e-14
  70
    32
  0
VERTEX
  8
0
  5
7F25
 10
-161.937
 20
293.029
 30
-6.50931e-14
  70
    32
  0
VERTEX
  8
0
  5
7F26
 10
-161.937
 20
293.023
 30
-6.50920e-14
  70
    32
  0
VERTEX
  8
0
  5
7F27
 10
-161.937
 20
293.017
 30
-6.50909e-14
  70
    32
  0
VERTEX
  8
0
  5
7F28
 10
-161.937
 20
293.012
 30
-6.50898e-14
  70
    32
  0
VERTEX
  8
0
  5
7F29
 10
-161.937
 20
293.006
 30
-6.50887e-14
  70
    32
  0
VERTEX
  8
0
  5
7F2A
 10
-161.937
 20
293.000
 30
-6.50875e-14
  70
    32
  0
VERTEX
  8
0
  5
7F2B
 10
-161.937
 20
292.995
 30
-6.50864e-14
  70
    32
  0
VERTEX
  8
0
  5
7F2C
 10
-161.937
 20
292.989
 30
-6.50852e-14
  70
    32
  0
VERTEX
  8
0
  5
7F2D
 10
-161.937
 20
292.984
 30
-6.50840e-14
  70
    32
  0
VERTEX
  8
0
  5
7F2E
 10
-161.937
 20
292.978
 30
-6.50827e-14
  70
    32
  0
VERTEX
  8
0
  5
7F2F
 10
-161.937
 20
292.973
 30
-6.50815e-14
  70
    32
  0
VERTEX
  8
0
  5
7F30
 10
-161.938
 20
292.967
 30
-6.50802e-14
  70
    32
  0
VERTEX
  8
0
  5
7F31
 10
-161.938
 20
292.962
 30
-6.50789e-14
  70
    32
  0
VERTEX
  8
0
  5
7F32
 10
-161.938
 20
292.956
 30
-6.50776e-14
  70
    32
  0
VERTEX
  8
0
  5
7F33
 10
-161.938
 20
292.951
 30
-6.50762e-14
  70
    32
  0
VERTEX
  8
0
  5
7F34
 10
-161.938
 20
292.946
 30
-6.50748e-14
  70
    32
  0
VERTEX
  8
0
  5
7F35
 10
-161.938
 20
292.940
 30
-6.50734e-14
  70
    32
  0
VERTEX
  8
0
  5
7F36
 10
-161.938
 20
292.935
 30
-6.50719e-14
  70
    32
  0
VERTEX
  8
0
  5
7F37
 10
-161.938
 20
292.930
 30
-6.50704e-14
  70
    32
  0
VERTEX
  8
0
  5
7F38
 10
-161.938
 20
292.924
 30
-6.50688e-14
  70
    32
  0
VERTEX
  8
0
  5
7F39
 10
-161.938
 20
292.919
 30
-6.50672e-14
  70
    32
  0
VERTEX
  8
0
  5
7F3A
 10
-161.938
 20
292.914
 30
-6.50656e-14
  70
    32
  0
VERTEX
  8
0
  5
7F3B
 10
-161.939
 20
292.908
 30
-6.50639e-14
  70
    32
  0
VERTEX
  8
0
  5
7F3C
 10
-161.939
 20
292.903
 30
-6.50622e-14
  70
    32
  0
VERTEX
  8
0
  5
7F3D
 10
-161.939
 20
292.898
 30
-6.50604e-14
  70
    32
  0
VERTEX
  8
0
  5
7F3E
 10
-161.939
 20
292.893
 30
-6.50586e-14
  70
    32
  0
VERTEX
  8
0
  5
7F3F
 10
-161.939
 20
292.887
 30
-6.50567e-14
  70
    32
  0
VERTEX
  8
0
  5
7F40
 10
-161.939
 20
292.882
 30
-6.50548e-14
  70
    32
  0
VERTEX
  8
0
  5
7F41
 10
-161.939
 20
292.877
 30
-6.50528e-14
  70
    32
  0
VERTEX
  8
0
  5
7F42
 10
-161.939
 20
292.872
 30
-6.50508e-14
  70
    32
  0
VERTEX
  8
0
  5
7F43
 10
-161.939
 20
292.867
 30
-6.50487e-14
  70
    32
  0
VERTEX
  8
0
  5
7F44
 10
-161.939
 20
292.862
 30
-6.50467e-14
  70
    32
  0
VERTEX
  8
0
  5
7F45
 10
-161.939
 20
292.857
 30
-6.50447e-14
  70
    32
  0
VERTEX
  8
0
  5
7F46
 10
-161.940
 20
292.851
 30
-6.50428e-14
  70
    32
  0
VERTEX
  8
0
  5
7F47
 10
-161.940
 20
292.846
 30
-6.50409e-14
  70
    32
  0
VERTEX
  8
0
  5
7F48
 10
-161.940
 20
292.841
 30
-6.50391e-14
  70
    32
  0
VERTEX
  8
0
  5
7F49
 10
-161.940
 20
292.836
 30
-6.50374e-14
  70
    32
  0
VERTEX
  8
0
  5
7F4A
 10
-161.940
 20
292.831
 30
-6.50357e-14
  70
    32
  0
VERTEX
  8
0
  5
7F4B
 10
-161.940
 20
292.826
 30
-6.50340e-14
  70
    32
  0
VERTEX
  8
0
  5
7F4C
 10
-161.940
 20
292.821
 30
-6.50324e-14
  70
    32
  0
VERTEX
  8
0
  5
7F4D
 10
-161.940
 20
292.816
 30
-6.50308e-14
  70
    32
  0
VERTEX
  8
0
  5
7F4E
 10
-161.940
 20
292.812
 30
-6.50292e-14
  70
    32
  0
VERTEX
  8
0
  5
7F4F
 10
-161.940
 20
292.807
 30
-6.50277e-14
  70
    32
  0
VERTEX
  8
0
  5
7F50
 10
-161.940
 20
292.802
 30
-6.50263e-14
  70
    32
  0
VERTEX
  8
0
  5
7F51
 10
-161.940
 20
292.797
 30
-6.50248e-14
  70
    32
  0
VERTEX
  8
0
  5
7F52
 10
-161.941
 20
292.792
 30
-6.50235e-14
  70
    32
  0
VERTEX
  8
0
  5
7F53
 10
-161.941
 20
292.787
 30
-6.50221e-14
  70
    32
  0
VERTEX
  8
0
  5
7F54
 10
-161.941
 20
292.782
 30
-6.50208e-14
  70
    32
  0
VERTEX
  8
0
  5
7F55
 10
-161.941
 20
292.778
 30
-6.50195e-14
  70
    32
  0
VERTEX
  8
0
  5
7F56
 10
-161.941
 20
292.773
 30
-6.50182e-14
  70
    32
  0
VERTEX
  8
0
  5
7F57
 10
-161.941
 20
292.768
 30
-6.50169e-14
  70
    32
  0
VERTEX
  8
0
  5
7F58
 10
-161.941
 20
292.764
 30
-6.50157e-14
  70
    32
  0
VERTEX
  8
0
  5
7F59
 10
-161.941
 20
292.759
 30
-6.50145e-14
  70
    32
  0
VERTEX
  8
0
  5
7F5A
 10
-161.941
 20
292.754
 30
-6.50134e-14
  70
    32
  0
VERTEX
  8
0
  5
7F5B
 10
-161.941
 20
292.750
 30
-6.50122e-14
  70
    32
  0
VERTEX
  8
0
  5
7F5C
 10
-161.941
 20
292.745
 30
-6.50111e-14
  70
    32
  0
VERTEX
  8
0
  5
7F5D
 10
-161.941
 20
292.740
 30
-6.50099e-14
  70
    32
  0
VERTEX
  8
0
  5
7F5E
 10
-161.942
 20
292.736
 30
-6.50088e-14
  70
    32
  0
VERTEX
  8
0
  5
7F5F
 10
-161.942
 20
292.731
 30
-6.50077e-14
  70
    32
  0
VERTEX
  8
0
  5
7F60
 10
-161.942
 20
292.727
 30
-6.50067e-14
  70
    32
  0
VERTEX
  8
0
  5
7F61
 10
-161.942
 20
292.722
 30
-6.50056e-14
  70
    32
  0
VERTEX
  8
0
  5
7F62
 10
-161.942
 20
292.718
 30
-6.50045e-14
  70
    32
  0
VERTEX
  8
0
  5
7F63
 10
-161.942
 20
292.713
 30
-6.50035e-14
  70
    32
  0
VERTEX
  8
0
  5
7F64
 10
-161.942
 20
292.709
 30
-6.50024e-14
  70
    32
  0
VERTEX
  8
0
  5
7F65
 10
-161.942
 20
292.704
 30
-6.50014e-14
  70
    32
  0
VERTEX
  8
0
  5
7F66
 10
-161.942
 20
292.700
 30
-6.50003e-14
  70
    32
  0
VERTEX
  8
0
  5
7F67
 10
-161.942
 20
292.695
 30
-6.49993e-14
  70
    32
  0
VERTEX
  8
0
  5
7F68
 10
-161.942
 20
292.691
 30
-6.49982e-14
  70
    32
  0
VERTEX
  8
0
  5
7F69
 10
-161.942
 20
292.687
 30
-6.49972e-14
  70
    32
  0
VERTEX
  8
0
  5
7F6A
 10
-161.943
 20
292.682
 30
-6.49961e-14
  70
    32
  0
VERTEX
  8
0
  5
7F6B
 10
-161.943
 20
292.678
 30
-6.49951e-14
  70
    32
  0
VERTEX
  8
0
  5
7F6C
 10
-161.943
 20
292.674
 30
-6.49940e-14
  70
    32
  0
VERTEX
  8
0
  5
7F6D
 10
-161.943
 20
292.669
 30
-6.49929e-14
  70
    32
  0
VERTEX
  8
0
  5
7F6E
 10
-161.943
 20
292.665
 30
-6.49919e-14
  70
    32
  0
VERTEX
  8
0
  5
7F6F
 10
-161.943
 20
292.661
 30
-6.49908e-14
  70
    32
  0
VERTEX
  8
0
  5
7F70
 10
-161.943
 20
292.657
 30
-6.49896e-14
  70
    32
  0
VERTEX
  8
0
  5
7F71
 10
-161.943
 20
292.653
 30
-6.49885e-14
  70
    32
  0
VERTEX
  8
0
  5
7F72
 10
-161.943
 20
292.649
 30
-6.49874e-14
  70
    32
  0
VERTEX
  8
0
  5
7F73
 10
-161.943
 20
292.644
 30
-6.49862e-14
  70
    32
  0
VERTEX
  8
0
  5
7F74
 10
-161.943
 20
292.640
 30
-6.49850e-14
  70
    32
  0
VERTEX
  8
0
  5
7F75
 10
-161.943
 20
292.636
 30
-6.49838e-14
  70
    32
  0
VERTEX
  8
0
  5
7F76
 10
-161.943
 20
292.632
 30
-6.49826e-14
  70
    32
  0
VERTEX
  8
0
  5
7F77
 10
-161.944
 20
292.628
 30
-6.49813e-14
  70
    32
  0
VERTEX
  8
0
  5
7F78
 10
-161.944
 20
292.624
 30
-6.49801e-14
  70
    32
  0
VERTEX
  8
0
  5
7F79
 10
-161.944
 20
292.620
 30
-6.49787e-14
  70
    32
  0
VERTEX
  8
0
  5
7F7A
 10
-161.944
 20
292.616
 30
-6.49774e-14
  70
    32
  0
VERTEX
  8
0
  5
7F7B
 10
-161.944
 20
292.612
 30
-6.49760e-14
  70
    32
  0
VERTEX
  8
0
  5
7F7C
 10
-161.944
 20
292.608
 30
-6.49746e-14
  70
    32
  0
VERTEX
  8
0
  5
7F7D
 10
-161.944
 20
292.604
 30
-6.49732e-14
  70
    32
  0
VERTEX
  8
0
  5
7F7E
 10
-161.944
 20
292.601
 30
-6.49717e-14
  70
    32
  0
VERTEX
  8
0
  5
7F7F
 10
-161.944
 20
292.597
 30
-6.49702e-14
  70
    32
  0
VERTEX
  8
0
  5
7F80
 10
-161.944
 20
292.593
 30
-6.49686e-14
  70
    32
  0
VERTEX
  8
0
  5
7F81
 10
-161.944
 20
292.589
 30
-6.49670e-14
  70
    32
  0
VERTEX
  8
0
  5
7F82
 10
-161.944
 20
292.585
 30
-6.49654e-14
  70
    32
  0
VERTEX
  8
0
  5
7F83
 10
-161.944
 20
292.582
 30
-6.49637e-14
  70
    32
  0
VERTEX
  8
0
  5
7F84
 10
-161.944
 20
292.578
 30
-6.49620e-14
  70
    32
  0
VERTEX
  8
0
  5
7F85
 10
-161.945
 20
292.574
 30
-6.49602e-14
  70
    32
  0
VERTEX
  8
0
  5
7F86
 10
-161.945
 20
292.570
 30
-6.49584e-14
  70
    32
  0
VERTEX
  8
0
  5
7F87
 10
-161.945
 20
292.567
 30
-6.49565e-14
  70
    32
  0
VERTEX
  8
0
  5
7F88
 10
-161.945
 20
292.563
 30
-6.49546e-14
  70
    32
  0
VERTEX
  8
0
  5
7F89
 10
-161.945
 20
292.559
 30
-6.49526e-14
  70
    32
  0
VERTEX
  8
0
  5
7F8A
 10
-161.945
 20
292.556
 30
-6.49505e-14
  70
    32
  0
VERTEX
  8
0
  5
7F8B
 10
-161.945
 20
292.552
 30
-6.49485e-14
  70
    32
  0
VERTEX
  8
0
  5
7F8C
 10
-161.945
 20
292.549
 30
-6.49464e-14
  70
    32
  0
VERTEX
  8
0
  5
7F8D
 10
-161.945
 20
292.545
 30
-6.49445e-14
  70
    32
  0
VERTEX
  8
0
  5
7F8E
 10
-161.945
 20
292.542
 30
-6.49426e-14
  70
    32
  0
VERTEX
  8
0
  5
7F8F
 10
-161.945
 20
292.538
 30
-6.49407e-14
  70
    32
  0
VERTEX
  8
0
  5
7F90
 10
-161.945
 20
292.535
 30
-6.49389e-14
  70
    32
  0
VERTEX
  8
0
  5
7F91
 10
-161.945
 20
292.531
 30
-6.49372e-14
  70
    32
  0
VERTEX
  8
0
  5
7F92
 10
-161.945
 20
292.528
 30
-6.49355e-14
  70
    32
  0
VERTEX
  8
0
  5
7F93
 10
-161.946
 20
292.525
 30
-6.49339e-14
  70
    32
  0
VERTEX
  8
0
  5
7F94
 10
-161.946
 20
292.521
 30
-6.49323e-14
  70
    32
  0
VERTEX
  8
0
  5
7F95
 10
-161.946
 20
292.518
 30
-6.49308e-14
  70
    32
  0
VERTEX
  8
0
  5
7F96
 10
-161.946
 20
292.515
 30
-6.49293e-14
  70
    32
  0
VERTEX
  8
0
  5
7F97
 10
-161.946
 20
292.511
 30
-6.49278e-14
  70
    32
  0
VERTEX
  8
0
  5
7F98
 10
-161.946
 20
292.508
 30
-6.49264e-14
  70
    32
  0
VERTEX
  8
0
  5
7F99
 10
-161.946
 20
292.505
 30
-6.49251e-14
  70
    32
  0
VERTEX
  8
0
  5
7F9A
 10
-161.946
 20
292.502
 30
-6.49238e-14
  70
    32
  0
VERTEX
  8
0
  5
7F9B
 10
-161.946
 20
292.499
 30
-6.49226e-14
  70
    32
  0
VERTEX
  8
0
  5
7F9C
 10
-161.946
 20
292.496
 30
-6.49214e-14
  70
    32
  0
VERTEX
  8
0
  5
7F9D
 10
-161.946
 20
292.492
 30
-6.49202e-14
  70
    32
  0
VERTEX
  8
0
  5
7F9E
 10
-161.946
 20
292.489
 30
-6.49191e-14
  70
    32
  0
VERTEX
  8
0
  5
7F9F
 10
-161.946
 20
292.486
 30
-6.49180e-14
  70
    32
  0
VERTEX
  8
0
  5
7FA0
 10
-161.946
 20
292.483
 30
-6.49170e-14
  70
    32
  0
VERTEX
  8
0
  5
7FA1
 10
-161.946
 20
292.480
 30
-6.49160e-14
  70
    32
  0
VERTEX
  8
0
  5
7FA2
 10
-161.946
 20
292.477
 30
-6.49150e-14
  70
    32
  0
VERTEX
  8
0
  5
7FA3
 10
-161.946
 20
292.474
 30
-6.49141e-14
  70
    32
  0
VERTEX
  8
0
  5
7FA4
 10
-161.947
 20
292.471
 30
-6.49132e-14
  70
    32
  0
VERTEX
  8
0
  5
7FA5
 10
-161.947
 20
292.468
 30
-6.49124e-14
  70
    32
  0
VERTEX
  8
0
  5
7FA6
 10
-161.947
 20
292.465
 30
-6.49116e-14
  70
    32
  0
VERTEX
  8
0
  5
7FA7
 10
-161.947
 20
292.463
 30
-6.49108e-14
  70
    32
  0
VERTEX
  8
0
  5
7FA8
 10
-161.947
 20
292.460
 30
-6.49101e-14
  70
    32
  0
VERTEX
  8
0
  5
7FA9
 10
-161.947
 20
292.457
 30
-6.49094e-14
  70
    32
  0
VERTEX
  8
0
  5
7FAA
 10
-161.947
 20
292.454
 30
-6.49087e-14
  70
    32
  0
VERTEX
  8
0
  5
7FAB
 10
-161.947
 20
292.451
 30
-6.49081e-14
  70
    32
  0
VERTEX
  8
0
  5
7FAC
 10
-161.947
 20
292.449
 30
-6.49075e-14
  70
    32
  0
VERTEX
  8
0
  5
7FAD
 10
-161.947
 20
292.446
 30
-6.49069e-14
  70
    32
  0
VERTEX
  8
0
  5
7FAE
 10
-161.947
 20
292.443
 30
-6.49063e-14
  70
    32
  0
VERTEX
  8
0
  5
7FAF
 10
-161.947
 20
292.440
 30
-6.49058e-14
  70
    32
  0
VERTEX
  8
0
  5
7FB0
 10
-161.947
 20
292.438
 30
-6.49054e-14
  70
    32
  0
VERTEX
  8
0
  5
7FB1
 10
-161.947
 20
292.435
 30
-6.49049e-14
  70
    32
  0
VERTEX
  8
0
  5
7FB2
 10
-161.947
 20
292.433
 30
-6.49045e-14
  70
    32
  0
VERTEX
  8
0
  5
7FB3
 10
-161.947
 20
292.430
 30
-6.49041e-14
  70
    32
  0
VERTEX
  8
0
  5
7FB4
 10
-161.947
 20
292.427
 30
-6.49037e-14
  70
    32
  0
VERTEX
  8
0
  5
7FB5
 10
-161.947
 20
292.425
 30
-6.49033e-14
  70
    32
  0
VERTEX
  8
0
  5
7FB6
 10
-161.948
 20
292.422
 30
-6.49030e-14
  70
    32
  0
VERTEX
  8
0
  5
7FB7
 10
-161.948
 20
292.420
 30
-6.49027e-14
  70
    32
  0
VERTEX
  8
0
  5
7FB8
 10
-161.948
 20
292.417
 30
-6.49024e-14
  70
    32
  0
VERTEX
  8
0
  5
7FB9
 10
-161.948
 20
292.415
 30
-6.49021e-14
  70
    32
  0
VERTEX
  8
0
  5
7FBA
 10
-161.948
 20
292.413
 30
-6.49019e-14
  70
    32
  0
VERTEX
  8
0
  5
7FBB
 10
-161.948
 20
292.410
 30
-6.49017e-14
  70
    32
  0
VERTEX
  8
0
  5
7FBC
 10
-161.948
 20
292.408
 30
-6.49015e-14
  70
    32
  0
VERTEX
  8
0
  5
7FBD
 10
-161.948
 20
292.406
 30
-6.49013e-14
  70
    32
  0
VERTEX
  8
0
  5
7FBE
 10
-161.948
 20
292.403
 30
-6.49011e-14
  70
    32
  0
VERTEX
  8
0
  5
7FBF
 10
-161.948
 20
292.401
 30
-6.49009e-14
  70
    32
  0
VERTEX
  8
0
  5
7FC0
 10
-161.948
 20
292.399
 30
-6.49008e-14
  70
    32
  0
VERTEX
  8
0
  5
7FC1
 10
-161.948
 20
292.397
 30
-6.49007e-14
  70
    32
  0
VERTEX
  8
0
  5
7FC2
 10
-161.948
 20
292.394
 30
-6.49006e-14
  70
    32
  0
VERTEX
  8
0
  5
7FC3
 10
-161.948
 20
292.392
 30
-6.49005e-14
  70
    32
  0
VERTEX
  8
0
  5
7FC4
 10
-161.948
 20
292.390
 30
-6.49004e-14
  70
    32
  0
VERTEX
  8
0
  5
7FC5
 10
-161.948
 20
292.388
 30
-6.49003e-14
  70
    32
  0
VERTEX
  8
0
  5
7FC6
 10
-161.948
 20
292.386
 30
-6.49002e-14
  70
    32
  0
VERTEX
  8
0
  5
7FC7
 10
-161.948
 20
292.384
 30
-6.49002e-14
  70
    32
  0
VERTEX
  8
0
  5
7FC8
 10
-161.948
 20
292.382
 30
-6.49001e-14
  70
    32
  0
VERTEX
  8
0
  5
7FC9
 10
-161.948
 20
292.380
 30
-6.49001e-14
  70
    32
  0
VERTEX
  8
0
  5
7FCA
 10
-161.948
 20
292.378
 30
-6.49001e-14
  70
    32
  0
VERTEX
  8
0
  5
7FCB
 10
-161.948
 20
292.376
 30
-6.49000e-14
  70
    32
  0
VERTEX
  8
0
  5
7FCC
 10
-161.948
 20
292.374
 30
-6.49000e-14
  70
    32
  0
VERTEX
  8
0
  5
7FCD
 10
-161.949
 20
292.372
 30
-6.49000e-14
  70
    32
  0
VERTEX
  8
0
  5
7FCE
 10
-161.949
 20
292.370
 30
-6.49000e-14
  70
    32
  0
VERTEX
  8
0
  5
7FCF
 10
-161.949
 20
292.368
 30
-6.49000e-14
  70
    32
  0
VERTEX
  8
0
  5
7FD0
 10
-161.949
 20
292.366
 30
-6.49000e-14
  70
    32
  0
VERTEX
  8
0
  5
7FD1
 10
-161.949
 20
292.365
 30
-6.49000e-14
  70
    32
  0
VERTEX
  8
0
  5
7FD2
 10
-161.949
 20
292.363
 30
-6.49000e-14
  70
    32
  0
VERTEX
  8
0
  5
7FD3
 10
-161.949
 20
292.361
 30
-6.49000e-14
  70
    32
  0
VERTEX
  8
0
  5
7FD4
 10
-161.949
 20
292.359
 30
-6.49000e-14
  70
    32
  0
VERTEX
  8
0
  5
7FD5
 10
-161.949
 20
292.358
 30
-6.49000e-14
  70
    32
  0
VERTEX
  8
0
  5
7FD6
 10
-161.949
 20
292.356
 30
-6.49000e-14
  70
    32
  0
VERTEX
  8
0
  5
7FD7
 10
-161.949
 20
292.354
 30
-6.49000e-14
  70
    32
  0
VERTEX
  8
0
  5
7FD8
 10
-161.949
 20
292.353
 30
-6.49000e-14
  70
    32
  0
VERTEX
  8
0
  5
7FD9
 10
-161.949
 20
292.351
 30
-6.49000e-14
  70
    32
  0
VERTEX
  8
0
  5
7FDA
 10
-161.949
 20
292.349
 30
-6.49000e-14
  70
    32
  0
VERTEX
  8
0
  5
7FDB
 10
-161.949
 20
292.348
 30
-6.49000e-14
  70
    32
  0
VERTEX
  8
0
  5
7FDC
 10
-161.949
 20
292.346
 30
-6.49000e-14
  70
    32
  0
VERTEX
  8
0
  5
7FDD
 10
-161.949
 20
292.345
 30
-6.49000e-14
  70
    32
  0
VERTEX
  8
0
  5
7FDE
 10
-161.949
 20
292.343
 30
-6.49000e-14
  70
    32
  0
VERTEX
  8
0
  5
7FDF
 10
-161.949
 20
292.342
 30
-6.49000e-14
  70
    32
  0
VERTEX
  8
0
  5
7FE0
 10
-161.949
 20
292.340
 30
-6.49000e-14
  70
    32
  0
VERTEX
  8
0
  5
7FE1
 10
-161.949
 20
292.339
 30
-6.49000e-14
  70
    32
  0
VERTEX
  8
0
  5
7FE2
 10
-161.949
 20
292.338
 30
-6.49000e-14
  70
    32
  0
VERTEX
  8
0
  5
7FE3
 10
-161.949
 20
292.336
 30
-6.49000e-14
  70
    32
  0
VERTEX
  8
0
  5
7FE4
 10
-161.949
 20
292.335
 30
-6.49000e-14
  70
    32
  0
VERTEX
  8
0
  5
7FE5
 10
-161.949
 20
292.334
 30
-6.49000e-14
  70
    32
  0
VERTEX
  8
0
  5
7FE6
 10
-161.949
 20
292.332
 30
-6.49000e-14
  70
    32
  0
VERTEX
  8
0
  5
7FE7
 10
-161.949
 20
292.331
 30
-6.49000e-14
  70
    32
  0
VERTEX
  8
0
  5
7FE8
 10
-161.949
 20
292.330
 30
-6.49000e-14
  70
    32
  0
VERTEX
  8
0
  5
7FE9
 10
-161.949
 20
292.329
 30
-6.49000e-14
  70
    32
  0
VERTEX
  8
0
  5
7FEA
 10
-161.949
 20
292.328
 30
-6.49000e-14
  70
    32
  0
VERTEX
  8
0
  5
7FEB
 10
-161.949
 20
292.326
 30
-6.49000e-14
  70
    32
  0
VERTEX
  8
0
  5
7FEC
 10
-161.949
 20
292.325
 30
-6.49000e-14
  70
    32
  0
VERTEX
  8
0
  5
7FED
 10
-161.950
 20
292.324
 30
-6.49000e-14
  70
    32
  0
VERTEX
  8
0
  5
7FEE
 10
-161.950
 20
292.323
 30
-6.49000e-14
  70
    32
  0
VERTEX
  8
0
  5
7FEF
 10
-161.950
 20
292.322
 30
-6.49000e-14
  70
    32
  0
VERTEX
  8
0
  5
7FF0
 10
-161.950
 20
292.321
 30
-6.49000e-14
  70
    32
  0
VERTEX
  8
0
  5
7FF1
 10
-161.950
 20
292.320
 30
-6.49000e-14
  70
    32
  0
VERTEX
  8
0
  5
7FF2
 10
-161.950
 20
292.319
 30
-6.49000e-14
  70
    32
  0
VERTEX
  8
0
  5
7FF3
 10
-161.950
 20
292.318
 30
-6.49000e-14
  70
    32
  0
VERTEX
  8
0
  5
7FF4
 10
-161.950
 20
292.317
 30
-6.49000e-14
  70
    32
  0
VERTEX
  8
0
  5
7FF5
 10
-161.950
 20
292.316
 30
-6.49000e-14
  70
    32
  0
VERTEX
  8
0
  5
7FF6
 10
-161.950
 20
292.315
 30
-6.49000e-14
  70
    32
  0
VERTEX
  8
0
  5
7FF7
 10
-161.950
 20
292.315
 30
-6.49000e-14
  70
    32
  0
VERTEX
  8
0
  5
7FF8
 10
-161.950
 20
292.314
 30
-6.49000e-14
  70
    32
  0
VERTEX
  8
0
  5
7FF9
 10
-161.950
 20
292.313
 30
-6.49000e-14
  70
    32
  0
VERTEX
  8
0
  5
7FFA
 10
-161.950
 20
292.312
 30
-6.49000e-14
  70
    32
  0
VERTEX
  8
0
  5
7FFB
 10
-161.950
 20
292.311
 30
-6.49000e-14
  70
    32
  0
VERTEX
  8
0
  5
7FFC
 10
-161.950
 20
292.311
 30
-6.49000e-14
  70
    32
  0
VERTEX
  8
0
  5
7FFD
 10
-161.950
 20
292.310
 30
-6.49000e-14
  70
    32
  0
VERTEX
  8
0
  5
7FFE
 10
-161.950
 20
292.309
 30
-6.49000e-14
  70
    32
  0
VERTEX
  8
0
  5
7FFF
 10
-161.950
 20
292.309
 30
-6.49000e-14
  70
    32
  0
VERTEX
  8
0
  5
8000
 10
-161.950
 20
292.308
 30
-6.49000e-14
  70
    32
  0
VERTEX
  8
0
  5
8001
 10
-161.950
 20
292.307
 30
-6.49000e-14
  70
    32
  0
VERTEX
  8
0
  5
8002
 10
-161.950
 20
292.307
 30
-6.49000e-14
  70
    32
  0
VERTEX
  8
0
  5
8003
 10
-161.950
 20
292.306
 30
-6.49000e-14
  70
    32
  0
VERTEX
  8
0
  5
8004
 10
-161.950
 20
292.306
 30
-6.49000e-14
  70
    32
  0
VERTEX
  8
0
  5
8005
 10
-161.950
 20
292.305
 30
-6.49000e-14
  70
    32
  0
VERTEX
  8
0
  5
8006
 10
-161.950
 20
292.305
 30
-6.49000e-14
  70
    32
  0
VERTEX
  8
0
  5
8007
 10
-161.950
 20
292.304
 30
-6.49000e-14
  70
    32
  0
VERTEX
  8
0
  5
8008
 10
-161.950
 20
292.304
 30
-6.49000e-14
  70
    32
  0
VERTEX
  8
0
  5
8009
 10
-161.950
 20
292.303
 30
-6.49000e-14
  70
    32
  0
VERTEX
  8
0
  5
800A
 10
-161.950
 20
292.303
 30
-6.49000e-14
  70
    32
  0
VERTEX
  8
0
  5
800B
 10
-161.950
 20
292.303
 30
-6.49000e-14
  70
    32
  0
VERTEX
  8
0
  5
800C
 10
-161.950
 20
292.302
 30
-6.49000e-14
  70
    32
  0
VERTEX
  8
0
  5
800D
 10
-161.950
 20
292.302
 30
-6.49000e-14
  70
    32
  0
VERTEX
  8
0
  5
800E
 10
-161.950
 20
292.302
 30
-6.49000e-14
  70
    32
  0
VERTEX
  8
0
  5
800F
 10
-161.950
 20
292.301
 30
-6.49000e-14
  70
    32
  0
VERTEX
  8
0
  5
8010
 10
-161.950
 20
292.301
 30
-6.49000e-14
  70
    32
  0
VERTEX
  8
0
  5
8011
 10
-161.950
 20
292.301
 30
-6.49000e-14
  70
    32
  0
VERTEX
  8
0
  5
8012
 10
-161.950
 20
292.301
 30
-6.49000e-14
  70
    32
  0
VERTEX
  8
0
  5
8013
 10
-161.950
 20
292.301
 30
-6.49000e-14
  70
    32
  0
VERTEX
  8
0
  5
8014
 10
-161.950
 20
292.300
 30
-6.49000e-14
  70
    32
  0
VERTEX
  8
0
  5
8015
 10
-161.950
 20
292.300
 30
-6.49000e-14
  70
    32
  0
VERTEX
  8
0
  5
8016
 10
-161.950
 20
292.300
 30
-6.49000e-14
  70
    32
  0
VERTEX
  8
0
  5
8017
 10
-161.950
 20
292.300
 30
-6.49000e-14
  70
    32
  0
VERTEX
  8
0
  5
8018
 10
-161.950
 20
292.300
 30
-6.49000e-14
  70
    32
  0
VERTEX
  8
0
  5
8019
 10
-161.950
 20
292.300
 30
-6.49000e-14
  70
    32
  0
VERTEX
  8
0
  5
801A
 10
-161.950
 20
292.300
 30
-6.49000e-14
  70
    32
  0
SEQEND
  8
0
  5
801B
  0
POLYLINE
  8
0
  5
801C
  62
3
  66
     1
 10
0.000000
 20
0.000000
 30
0.000000
  70
     8
  0
VERTEX
  8
0
  5
801D
 10
-161.950
 20
299.000
 30
-6.64000e-14
  70
    32
  0
VERTEX
  8
0
  5
801E
 10
-161.950
 20
299.000
 30
-6.64000e-14
  70
    32
  0
VERTEX
  8
0
  5
801F
 10
-161.950
 20
299.000
 30
-6.64000e-14
  70
    32
  0
VERTEX
  8
0
  5
8020
 10
-161.950
 20
299.000
 30
-6.64000e-14
  70
    32
  0
VERTEX
  8
0
  5
8021
 10
-161.950
 20
299.000
 30
-6.64000e-14
  70
    32
  0
VERTEX
  8
0
  5
8022
 10
-161.950
 20
299.000
 30
-6.64000e-14
  70
    32
  0
VERTEX
  8
0
  5
8023
 10
-161.950
 20
299.000
 30
-6.64000e-14
  70
    32
  0
VERTEX
  8
0
  5
8024
 10
-161.950
 20
298.999
 30
-6.64000e-14
  70
    32
  0
VERTEX
  8
0
  5
8025
 10
-161.950
 20
298.999
 30
-6.64000e-14
  70
    32
  0
VERTEX
  8
0
  5
8026
 10
-161.950
 20
298.999
 30
-6.64000e-14
  70
    32
  0
VERTEX
  8
0
  5
8027
 10
-161.950
 20
298.999
 30
-6.64000e-14
  70
    32
  0
VERTEX
  8
0
  5
8028
 10
-161.950
 20
298.999
 30
-6.64000e-14
  70
    32
  0
VERTEX
  8
0
  5
8029
 10
-161.950
 20
298.998
 30
-6.64000e-14
  70
    32
  0
VERTEX
  8
0
  5
802A
 10
-161.950
 20
298.998
 30
-6.64000e-14
  70
    32
  0
VERTEX
  8
0
  5
802B
 10
-161.950
 20
298.998
 30
-6.64000e-14
  70
    32
  0
VERTEX
  8
0
  5
802C
 10
-161.950
 20
298.997
 30
-6.64000e-14
  70
    32
  0
VERTEX
  8
0
  5
802D
 10
-161.950
 20
298.997
 30
-6.64000e-14
  70
    32
  0
VERTEX
  8
0
  5
802E
 10
-161.950
 20
298.997
 30
-6.64000e-14
  70
    32
  0
VERTEX
  8
0
  5
802F
 10
-161.950
 20
298.996
 30
-6.64000e-14
  70
    32
  0
VERTEX
  8
0
  5
8030
 10
-161.950
 20
298.996
 30
-6.64000e-14
  70
    32
  0
VERTEX
  8
0
  5
8031
 10
-161.950
 20
298.995
 30
-6.64000e-14
  70
    32
  0
VERTEX
  8
0
  5
8032
 10
-161.950
 20
298.995
 30
-6.64000e-14
  70
    32
  0
VERTEX
  8
0
  5
8033
 10
-161.950
 20
298.994
 30
-6.64000e-14
  70
    32
  0
VERTEX
  8
0
  5
8034
 10
-161.950
 20
298.994
 30
-6.64000e-14
  70
    32
  0
VERTEX
  8
0
  5
8035
 10
-161.950
 20
298.993
 30
-6.64000e-14
  70
    32
  0
VERTEX
  8
0
  5
8036
 10
-161.950
 20
298.993
 30
-6.64000e-14
  70
    32
  0
VERTEX
  8
0
  5
8037
 10
-161.950
 20
298.992
 30
-6.64000e-14
  70
    32
  0
VERTEX
  8
0
  5
8038
 10
-161.950
 20
298.991
 30
-6.64000e-14
  70
    32
  0
VERTEX
  8
0
  5
8039
 10
-161.950
 20
298.991
 30
-6.64000e-14
  70
    32
  0
VERTEX
  8
0
  5
803A
 10
-161.950
 20
298.990
 30
-6.64000e-14
  70
    32
  0
VERTEX
  8
0
  5
803B
 10
-161.950
 20
298.989
 30
-6.64000e-14
  70
    32
  0
VERTEX
  8
0
  5
803C
 10
-161.950
 20
298.989
 30
-6.64000e-14
  70
    32
  0
VERTEX
  8
0
  5
803D
 10
-161.950
 20
298.988
 30
-6.64000e-14
  70
    32
  0
VERTEX
  8
0
  5
803E
 10
-161.950
 20
298.987
 30
-6.64000e-14
  70
    32
  0
VERTEX
  8
0
  5
803F
 10
-161.950
 20
298.986
 30
-6.64000e-14
  70
    32
  0
VERTEX
  8
0
  5
8040
 10
-161.950
 20
298.985
 30
-6.64000e-14
  70
    32
  0
VERTEX
  8
0
  5
8041
 10
-161.950
 20
298.985
 30
-6.64000e-14
  70
    32
  0
VERTEX
  8
0
  5
8042
 10
-161.950
 20
298.984
 30
-6.64000e-14
  70
    32
  0
VERTEX
  8
0
  5
8043
 10
-161.950
 20
298.983
 30
-6.64000e-14
  70
    32
  0
VERTEX
  8
0
  5
8044
 10
-161.950
 20
298.982
 30
-6.64000e-14
  70
    32
  0
VERTEX
  8
0
  5
8045
 10
-161.950
 20
298.981
 30
-6.64000e-14
  70
    32
  0
VERTEX
  8
0
  5
8046
 10
-161.950
 20
298.980
 30
-6.64000e-14
  70
    32
  0
VERTEX
  8
0
  5
8047
 10
-161.950
 20
298.979
 30
-6.64000e-14
  70
    32
  0
VERTEX
  8
0
  5
8048
 10
-161.950
 20
298.978
 30
-6.64000e-14
  70
    32
  0
VERTEX
  8
0
  5
8049
 10
-161.950
 20
298.977
 30
-6.64000e-14
  70
    32
  0
VERTEX
  8
0
  5
804A
 10
-161.950
 20
298.976
 30
-6.64000e-14
  70
    32
  0
VERTEX
  8
0
  5
804B
 10
-161.949
 20
298.975
 30
-6.64000e-14
  70
    32
  0
VERTEX
  8
0
  5
804C
 10
-161.949
 20
298.974
 30
-6.64000e-14
  70
    32
  0
VERTEX
  8
0
  5
804D
 10
-161.949
 20
298.972
 30
-6.64000e-14
  70
    32
  0
VERTEX
  8
0
  5
804E
 10
-161.949
 20
298.971
 30
-6.64000e-14
  70
    32
  0
VERTEX
  8
0
  5
804F
 10
-161.949
 20
298.970
 30
-6.64000e-14
  70
    32
  0
VERTEX
  8
0
  5
8050
 10
-161.949
 20
298.969
 30
-6.64000e-14
  70
    32
  0
VERTEX
  8
0
  5
8051
 10
-161.949
 20
298.968
 30
-6.64000e-14
  70
    32
  0
VERTEX
  8
0
  5
8052
 10
-161.949
 20
298.966
 30
-6.64000e-14
  70
    32
  0
VERTEX
  8
0
  5
8053
 10
-161.949
 20
298.965
 30
-6.64000e-14
  70
    32
  0
VERTEX
  8
0
  5
8054
 10
-161.949
 20
298.964
 30
-6.64000e-14
  70
    32
  0
VERTEX
  8
0
  5
8055
 10
-161.949
 20
298.962
 30
-6.64000e-14
  70
    32
  0
VERTEX
  8
0
  5
8056
 10
-161.949
 20
298.961
 30
-6.64000e-14
  70
    32
  0
VERTEX
  8
0
  5
8057
 10
-161.949
 20
298.960
 30
-6.64000e-14
  70
    32
  0
VERTEX
  8
0
  5
8058
 10
-161.949
 20
298.958
 30
-6.64000e-14
  70
    32
  0
VERTEX
  8
0
  5
8059
 10
-161.949
 20
298.957
 30
-6.64000e-14
  70
    32
  0
VERTEX
  8
0
  5
805A
 10
-161.949
 20
298.955
 30
-6.64000e-14
  70
    32
  0
VERTEX
  8
0
  5
805B
 10
-161.949
 20
298.954
 30
-6.64000e-14
  70
    32
  0
VERTEX
  8
0
  5
805C
 10
-161.949
 20
298.952
 30
-6.64000e-14
  70
    32
  0
VERTEX
  8
0
  5
805D
 10
-161.949
 20
298.951
 30
-6.64000e-14
  70
    32
  0
VERTEX
  8
0
  5
805E
 10
-161.949
 20
298.949
 30
-6.64000e-14
  70
    32
  0
VERTEX
  8
0
  5
805F
 10
-161.949
 20
298.947
 30
-6.64000e-14
  70
    32
  0
VERTEX
  8
0
  5
8060
 10
-161.949
 20
298.946
 30
-6.64000e-14
  70
    32
  0
VERTEX
  8
0
  5
8061
 10
-161.949
 20
298.944
 30
-6.64000e-14
  70
    32
  0
VERTEX
  8
0
  5
8062
 10
-161.949
 20
298.942
 30
-6.64000e-14
  70
    32
  0
VERTEX
  8
0
  5
8063
 10
-161.949
 20
298.941
 30
-6.64000e-14
  70
    32
  0
VERTEX
  8
0
  5
8064
 10
-161.949
 20
298.939
 30
-6.64000e-14
  70
    32
  0
VERTEX
  8
0
  5
8065
 10
-161.949
 20
298.937
 30
-6.64000e-14
  70
    32
  0
VERTEX
  8
0
  5
8066
 10
-161.949
 20
298.935
 30
-6.64000e-14
  70
    32
  0
VERTEX
  8
0
  5
8067
 10
-161.949
 20
298.934
 30
-6.64000e-14
  70
    32
  0
VERTEX
  8
0
  5
8068
 10
-161.949
 20
298.932
 30
-6.64000e-14
  70
    32
  0
VERTEX
  8
0
  5
8069
 10
-161.949
 20
298.930
 30
-6.64000e-14
  70
    32
  0
VERTEX
  8
0
  5
806A
 10
-161.949
 20
298.928
 30
-6.64000e-14
  70
    32
  0
VERTEX
  8
0
  5
806B
 10
-161.948
 20
298.926
 30
-6.64000e-14
  70
    32
  0
VERTEX
  8
0
  5
806C
 10
-161.948
 20
298.924
 30
-6.64000e-14
  70
    32
  0
VERTEX
  8
0
  5
806D
 10
-161.948
 20
298.922
 30
-6.63999e-14
  70
    32
  0
VERTEX
  8
0
  5
806E
 10
-161.948
 20
298.920
 30
-6.63999e-14
  70
    32
  0
VERTEX
  8
0
  5
806F
 10
-161.948
 20
298.918
 30
-6.63999e-14
  70
    32
  0
VERTEX
  8
0
  5
8070
 10
-161.948
 20
298.916
 30
-6.63998e-14
  70
    32
  0
VERTEX
  8
0
  5
8071
 10
-161.948
 20
298.914
 30
-6.63998e-14
  70
    32
  0
VERTEX
  8
0
  5
8072
 10
-161.948
 20
298.912
 30
-6.63997e-14
  70
    32
  0
VERTEX
  8
0
  5
8073
 10
-161.948
 20
298.910
 30
-6.63996e-14
  70
    32
  0
VERTEX
  8
0
  5
8074
 10
-161.948
 20
298.908
 30
-6.63995e-14
  70
    32
  0
VERTEX
  8
0
  5
8075
 10
-161.948
 20
298.906
 30
-6.63994e-14
  70
    32
  0
VERTEX
  8
0
  5
8076
 10
-161.948
 20
298.903
 30
-6.63993e-14
  70
    32
  0
VERTEX
  8
0
  5
8077
 10
-161.948
 20
298.901
 30
-6.63992e-14
  70
    32
  0
VERTEX
  8
0
  5
8078
 10
-161.948
 20
298.899
 30
-6.63991e-14
  70
    32
  0
VERTEX
  8
0
  5
8079
 10
-161.948
 20
298.897
 30
-6.63989e-14
  70
    32
  0
VERTEX
  8
0
  5
807A
 10
-161.948
 20
298.894
 30
-6.63987e-14
  70
    32
  0
VERTEX
  8
0
  5
807B
 10
-161.948
 20
298.892
 30
-6.63985e-14
  70
    32
  0
VERTEX
  8
0
  5
807C
 10
-161.948
 20
298.890
 30
-6.63983e-14
  70
    32
  0
VERTEX
  8
0
  5
807D
 10
-161.948
 20
298.887
 30
-6.63981e-14
  70
    32
  0
VERTEX
  8
0
  5
807E
 10
-161.948
 20
298.885
 30
-6.63979e-14
  70
    32
  0
VERTEX
  8
0
  5
807F
 10
-161.948
 20
298.883
 30
-6.63976e-14
  70
    32
  0
VERTEX
  8
0
  5
8080
 10
-161.948
 20
298.880
 30
-6.63973e-14
  70
    32
  0
VERTEX
  8
0
  5
8081
 10
-161.948
 20
298.878
 30
-6.63970e-14
  70
    32
  0
VERTEX
  8
0
  5
8082
 10
-161.947
 20
298.875
 30
-6.63967e-14
  70
    32
  0
VERTEX
  8
0
  5
8083
 10
-161.947
 20
298.873
 30
-6.63963e-14
  70
    32
  0
VERTEX
  8
0
  5
8084
 10
-161.947
 20
298.870
 30
-6.63959e-14
  70
    32
  0
VERTEX
  8
0
  5
8085
 10
-161.947
 20
298.867
 30
-6.63955e-14
  70
    32
  0
VERTEX
  8
0
  5
8086
 10
-161.947
 20
298.865
 30
-6.63951e-14
  70
    32
  0
VERTEX
  8
0
  5
8087
 10
-161.947
 20
298.862
 30
-6.63946e-14
  70
    32
  0
VERTEX
  8
0
  5
8088
 10
-161.947
 20
298.860
 30
-6.63942e-14
  70
    32
  0
VERTEX
  8
0
  5
8089
 10
-161.947
 20
298.857
 30
-6.63937e-14
  70
    32
  0
VERTEX
  8
0
  5
808A
 10
-161.947
 20
298.854
 30
-6.63931e-14
  70
    32
  0
VERTEX
  8
0
  5
808B
 10
-161.947
 20
298.851
 30
-6.63925e-14
  70
    32
  0
VERTEX
  8
0
  5
808C
 10
-161.947
 20
298.849
 30
-6.63919e-14
  70
    32
  0
VERTEX
  8
0
  5
808D
 10
-161.947
 20
298.846
 30
-6.63913e-14
  70
    32
  0
VERTEX
  8
0
  5
808E
 10
-161.947
 20
298.843
 30
-6.63906e-14
  70
    32
  0
VERTEX
  8
0
  5
808F
 10
-161.947
 20
298.840
 30
-6.63899e-14
  70
    32
  0
VERTEX
  8
0
  5
8090
 10
-161.947
 20
298.837
 30
-6.63892e-14
  70
    32
  0
VERTEX
  8
0
  5
8091
 10
-161.947
 20
298.835
 30
-6.63884e-14
  70
    32
  0
VERTEX
  8
0
  5
8092
 10
-161.947
 20
298.832
 30
-6.63876e-14
  70
    32
  0
VERTEX
  8
0
  5
8093
 10
-161.947
 20
298.829
 30
-6.63868e-14
  70
    32
  0
VERTEX
  8
0
  5
8094
 10
-161.946
 20
298.826
 30
-6.63859e-14
  70
    32
  0
VERTEX
  8
0
  5
8095
 10
-161.946
 20
298.823
 30
-6.63850e-14
  70
    32
  0
VERTEX
  8
0
  5
8096
 10
-161.946
 20
298.820
 30
-6.63840e-14
  70
    32
  0
VERTEX
  8
0
  5
8097
 10
-161.946
 20
298.817
 30
-6.63830e-14
  70
    32
  0
VERTEX
  8
0
  5
8098
 10
-161.946
 20
298.814
 30
-6.63820e-14
  70
    32
  0
VERTEX
  8
0
  5
8099
 10
-161.946
 20
298.811
 30
-6.63809e-14
  70
    32
  0
VERTEX
  8
0
  5
809A
 10
-161.946
 20
298.808
 30
-6.63798e-14
  70
    32
  0
VERTEX
  8
0
  5
809B
 10
-161.946
 20
298.804
 30
-6.63786e-14
  70
    32
  0
VERTEX
  8
0
  5
809C
 10
-161.946
 20
298.801
 30
-6.63774e-14
  70
    32
  0
VERTEX
  8
0
  5
809D
 10
-161.946
 20
298.798
 30
-6.63762e-14
  70
    32
  0
VERTEX
  8
0
  5
809E
 10
-161.946
 20
298.795
 30
-6.63749e-14
  70
    32
  0
VERTEX
  8
0
  5
809F
 10
-161.946
 20
298.792
 30
-6.63736e-14
  70
    32
  0
VERTEX
  8
0
  5
80A0
 10
-161.946
 20
298.789
 30
-6.63722e-14
  70
    32
  0
VERTEX
  8
0
  5
80A1
 10
-161.946
 20
298.785
 30
-6.63707e-14
  70
    32
  0
VERTEX
  8
0
  5
80A2
 10
-161.946
 20
298.782
 30
-6.63692e-14
  70
    32
  0
VERTEX
  8
0
  5
80A3
 10
-161.946
 20
298.779
 30
-6.63677e-14
  70
    32
  0
VERTEX
  8
0
  5
80A4
 10
-161.946
 20
298.775
 30
-6.63661e-14
  70
    32
  0
VERTEX
  8
0
  5
80A5
 10
-161.945
 20
298.772
 30
-6.63645e-14
  70
    32
  0
VERTEX
  8
0
  5
80A6
 10
-161.945
 20
298.769
 30
-6.63628e-14
  70
    32
  0
VERTEX
  8
0
  5
80A7
 10
-161.945
 20
298.765
 30
-6.63611e-14
  70
    32
  0
VERTEX
  8
0
  5
80A8
 10
-161.945
 20
298.762
 30
-6.63593e-14
  70
    32
  0
VERTEX
  8
0
  5
80A9
 10
-161.945
 20
298.758
 30
-6.63574e-14
  70
    32
  0
VERTEX
  8
0
  5
80AA
 10
-161.945
 20
298.755
 30
-6.63555e-14
  70
    32
  0
VERTEX
  8
0
  5
80AB
 10
-161.945
 20
298.751
 30
-6.63536e-14
  70
    32
  0
VERTEX
  8
0
  5
80AC
 10
-161.945
 20
298.748
 30
-6.63515e-14
  70
    32
  0
VERTEX
  8
0
  5
80AD
 10
-161.945
 20
298.744
 30
-6.63495e-14
  70
    32
  0
VERTEX
  8
0
  5
80AE
 10
-161.945
 20
298.741
 30
-6.63474e-14
  70
    32
  0
VERTEX
  8
0
  5
80AF
 10
-161.945
 20
298.737
 30
-6.63454e-14
  70
    32
  0
VERTEX
  8
0
  5
80B0
 10
-161.945
 20
298.733
 30
-6.63435e-14
  70
    32
  0
VERTEX
  8
0
  5
80B1
 10
-161.945
 20
298.730
 30
-6.63416e-14
  70
    32
  0
VERTEX
  8
0
  5
80B2
 10
-161.945
 20
298.726
 30
-6.63398e-14
  70
    32
  0
VERTEX
  8
0
  5
80B3
 10
-161.944
 20
298.722
 30
-6.63380e-14
  70
    32
  0
VERTEX
  8
0
  5
80B4
 10
-161.944
 20
298.718
 30
-6.63363e-14
  70
    32
  0
VERTEX
  8
0
  5
80B5
 10
-161.944
 20
298.715
 30
-6.63346e-14
  70
    32
  0
VERTEX
  8
0
  5
80B6
 10
-161.944
 20
298.711
 30
-6.63330e-14
  70
    32
  0
VERTEX
  8
0
  5
80B7
 10
-161.944
 20
298.707
 30
-6.63314e-14
  70
    32
  0
VERTEX
  8
0
  5
80B8
 10
-161.944
 20
298.703
 30
-6.63298e-14
  70
    32
  0
VERTEX
  8
0
  5
80B9
 10
-161.944
 20
298.699
 30
-6.63283e-14
  70
    32
  0
VERTEX
  8
0
  5
80BA
 10
-161.944
 20
298.696
 30
-6.63268e-14
  70
    32
  0
VERTEX
  8
0
  5
80BB
 10
-161.944
 20
298.692
 30
-6.63254e-14
  70
    32
  0
VERTEX
  8
0
  5
80BC
 10
-161.944
 20
298.688
 30
-6.63240e-14
  70
    32
  0
VERTEX
  8
0
  5
80BD
 10
-161.944
 20
298.684
 30
-6.63226e-14
  70
    32
  0
VERTEX
  8
0
  5
80BE
 10
-161.944
 20
298.680
 30
-6.63213e-14
  70
    32
  0
VERTEX
  8
0
  5
80BF
 10
-161.944
 20
298.676
 30
-6.63199e-14
  70
    32
  0
VERTEX
  8
0
  5
80C0
 10
-161.944
 20
298.672
 30
-6.63187e-14
  70
    32
  0
VERTEX
  8
0
  5
80C1
 10
-161.943
 20
298.668
 30
-6.63174e-14
  70
    32
  0
VERTEX
  8
0
  5
80C2
 10
-161.943
 20
298.664
 30
-6.63162e-14
  70
    32
  0
VERTEX
  8
0
  5
80C3
 10
-161.943
 20
298.660
 30
-6.63150e-14
  70
    32
  0
VERTEX
  8
0
  5
80C4
 10
-161.943
 20
298.656
 30
-6.63138e-14
  70
    32
  0
VERTEX
  8
0
  5
80C5
 10
-161.943
 20
298.651
 30
-6.63126e-14
  70
    32
  0
VERTEX
  8
0
  5
80C6
 10
-161.943
 20
298.647
 30
-6.63115e-14
  70
    32
  0
VERTEX
  8
0
  5
80C7
 10
-161.943
 20
298.643
 30
-6.63104e-14
  70
    32
  0
VERTEX
  8
0
  5
80C8
 10
-161.943
 20
298.639
 30
-6.63092e-14
  70
    32
  0
VERTEX
  8
0
  5
80C9
 10
-161.943
 20
298.635
 30
-6.63081e-14
  70
    32
  0
VERTEX
  8
0
  5
80CA
 10
-161.943
 20
298.631
 30
-6.63071e-14
  70
    32
  0
VERTEX
  8
0
  5
80CB
 10
-161.943
 20
298.626
 30
-6.63060e-14
  70
    32
  0
VERTEX
  8
0
  5
80CC
 10
-161.943
 20
298.622
 30
-6.63049e-14
  70
    32
  0
VERTEX
  8
0
  5
80CD
 10
-161.943
 20
298.618
 30
-6.63039e-14
  70
    32
  0
VERTEX
  8
0
  5
80CE
 10
-161.942
 20
298.613
 30
-6.63028e-14
  70
    32
  0
VERTEX
  8
0
  5
80CF
 10
-161.942
 20
298.609
 30
-6.63018e-14
  70
    32
  0
VERTEX
  8
0
  5
80D0
 10
-161.942
 20
298.605
 30
-6.63007e-14
  70
    32
  0
VERTEX
  8
0
  5
80D1
 10
-161.942
 20
298.600
 30
-6.62997e-14
  70
    32
  0
VERTEX
  8
0
  5
80D2
 10
-161.942
 20
298.596
 30
-6.62986e-14
  70
    32
  0
VERTEX
  8
0
  5
80D3
 10
-161.942
 20
298.591
 30
-6.62976e-14
  70
    32
  0
VERTEX
  8
0
  5
80D4
 10
-161.942
 20
298.587
 30
-6.62965e-14
  70
    32
  0
VERTEX
  8
0
  5
80D5
 10
-161.942
 20
298.582
 30
-6.62955e-14
  70
    32
  0
VERTEX
  8
0
  5
80D6
 10
-161.942
 20
298.578
 30
-6.62944e-14
  70
    32
  0
VERTEX
  8
0
  5
80D7
 10
-161.942
 20
298.573
 30
-6.62933e-14
  70
    32
  0
VERTEX
  8
0
  5
80D8
 10
-161.942
 20
298.569
 30
-6.62923e-14
  70
    32
  0
VERTEX
  8
0
  5
80D9
 10
-161.942
 20
298.564
 30
-6.62912e-14
  70
    32
  0
VERTEX
  8
0
  5
80DA
 10
-161.941
 20
298.560
 30
-6.62901e-14
  70
    32
  0
VERTEX
  8
0
  5
80DB
 10
-161.941
 20
298.555
 30
-6.62889e-14
  70
    32
  0
VERTEX
  8
0
  5
80DC
 10
-161.941
 20
298.550
 30
-6.62878e-14
  70
    32
  0
VERTEX
  8
0
  5
80DD
 10
-161.941
 20
298.546
 30
-6.62866e-14
  70
    32
  0
VERTEX
  8
0
  5
80DE
 10
-161.941
 20
298.541
 30
-6.62855e-14
  70
    32
  0
VERTEX
  8
0
  5
80DF
 10
-161.941
 20
298.536
 30
-6.62843e-14
  70
    32
  0
VERTEX
  8
0
  5
80E0
 10
-161.941
 20
298.532
 30
-6.62831e-14
  70
    32
  0
VERTEX
  8
0
  5
80E1
 10
-161.941
 20
298.527
 30
-6.62818e-14
  70
    32
  0
VERTEX
  8
0
  5
80E2
 10
-161.941
 20
298.522
 30
-6.62805e-14
  70
    32
  0
VERTEX
  8
0
  5
80E3
 10
-161.941
 20
298.518
 30
-6.62792e-14
  70
    32
  0
VERTEX
  8
0
  5
80E4
 10
-161.941
 20
298.513
 30
-6.62779e-14
  70
    32
  0
VERTEX
  8
0
  5
80E5
 10
-161.941
 20
298.508
 30
-6.62765e-14
  70
    32
  0
VERTEX
  8
0
  5
80E6
 10
-161.940
 20
298.503
 30
-6.62752e-14
  70
    32
  0
VERTEX
  8
0
  5
80E7
 10
-161.940
 20
298.498
 30
-6.62737e-14
  70
    32
  0
VERTEX
  8
0
  5
80E8
 10
-161.940
 20
298.493
 30
-6.62723e-14
  70
    32
  0
VERTEX
  8
0
  5
80E9
 10
-161.940
 20
298.488
 30
-6.62708e-14
  70
    32
  0
VERTEX
  8
0
  5
80EA
 10
-161.940
 20
298.484
 30
-6.62692e-14
  70
    32
  0
VERTEX
  8
0
  5
80EB
 10
-161.940
 20
298.479
 30
-6.62676e-14
  70
    32
  0
VERTEX
  8
0
  5
80EC
 10
-161.940
 20
298.474
 30
-6.62660e-14
  70
    32
  0
VERTEX
  8
0
  5
80ED
 10
-161.940
 20
298.469
 30
-6.62643e-14
  70
    32
  0
VERTEX
  8
0
  5
80EE
 10
-161.940
 20
298.464
 30
-6.62626e-14
  70
    32
  0
VERTEX
  8
0
  5
80EF
 10
-161.940
 20
298.459
 30
-6.62609e-14
  70
    32
  0
VERTEX
  8
0
  5
80F0
 10
-161.940
 20
298.454
 30
-6.62591e-14
  70
    32
  0
VERTEX
  8
0
  5
80F1
 10
-161.940
 20
298.449
 30
-6.62572e-14
  70
    32
  0
VERTEX
  8
0
  5
80F2
 10
-161.939
 20
298.443
 30
-6.62553e-14
  70
    32
  0
VERTEX
  8
0
  5
80F3
 10
-161.939
 20
298.438
 30
-6.62533e-14
  70
    32
  0
VERTEX
  8
0
  5
80F4
 10
-161.939
 20
298.433
 30
-6.62513e-14
  70
    32
  0
VERTEX
  8
0
  5
80F5
 10
-161.939
 20
298.428
 30
-6.62492e-14
  70
    32
  0
VERTEX
  8
0
  5
80F6
 10
-161.939
 20
298.423
 30
-6.62472e-14
  70
    32
  0
VERTEX
  8
0
  5
80F7
 10
-161.939
 20
298.418
 30
-6.62452e-14
  70
    32
  0
VERTEX
  8
0
  5
80F8
 10
-161.939
 20
298.413
 30
-6.62433e-14
  70
    32
  0
VERTEX
  8
0
  5
80F9
 10
-161.939
 20
298.407
 30
-6.62414e-14
  70
    32
  0
VERTEX
  8
0
  5
80FA
 10
-161.939
 20
298.402
 30
-6.62396e-14
  70
    32
  0
VERTEX
  8
0
  5
80FB
 10
-161.939
 20
298.397
 30
-6.62378e-14
  70
    32
  0
VERTEX
  8
0
  5
80FC
 10
-161.939
 20
298.392
 30
-6.62361e-14
  70
    32
  0
VERTEX
  8
0
  5
80FD
 10
-161.938
 20
298.386
 30
-6.62344e-14
  70
    32
  0
VERTEX
  8
0
  5
80FE
 10
-161.938
 20
298.381
 30
-6.62328e-14
  70
    32
  0
VERTEX
  8
0
  5
80FF
 10
-161.938
 20
298.376
 30
-6.62312e-14
  70
    32
  0
VERTEX
  8
0
  5
8100
 10
-161.938
 20
298.370
 30
-6.62296e-14
  70
    32
  0
VERTEX
  8
0
  5
8101
 10
-161.938
 20
298.365
 30
-6.62281e-14
  70
    32
  0
VERTEX
  8
0
  5
8102
 10
-161.938
 20
298.360
 30
-6.62266e-14
  70
    32
  0
VERTEX
  8
0
  5
8103
 10
-161.938
 20
298.354
 30
-6.62252e-14
  70
    32
  0
VERTEX
  8
0
  5
8104
 10
-161.938
 20
298.349
 30
-6.62238e-14
  70
    32
  0
VERTEX
  8
0
  5
8105
 10
-161.938
 20
298.344
 30
-6.62224e-14
  70
    32
  0
VERTEX
  8
0
  5
8106
 10
-161.938
 20
298.338
 30
-6.62211e-14
  70
    32
  0
VERTEX
  8
0
  5
8107
 10
-161.938
 20
298.333
 30
-6.62198e-14
  70
    32
  0
VERTEX
  8
0
  5
8108
 10
-161.937
 20
298.327
 30
-6.62185e-14
  70
    32
  0
VERTEX
  8
0
  5
8109
 10
-161.937
 20
298.322
 30
-6.62173e-14
  70
    32
  0
VERTEX
  8
0
  5
810A
 10
-161.937
 20
298.316
 30
-6.62160e-14
  70
    32
  0
VERTEX
  8
0
  5
810B
 10
-161.937
 20
298.311
 30
-6.62148e-14
  70
    32
  0
VERTEX
  8
0
  5
810C
 10
-161.937
 20
298.305
 30
-6.62136e-14
  70
    32
  0
VERTEX
  8
0
  5
810D
 10
-161.937
 20
298.300
 30
-6.62125e-14
  70
    32
  0
VERTEX
  8
0
  5
810E
 10
-161.937
 20
298.294
 30
-6.62113e-14
  70
    32
  0
VERTEX
  8
0
  5
810F
 10
-161.937
 20
298.288
 30
-6.62102e-14
  70
    32
  0
VERTEX
  8
0
  5
8110
 10
-161.937
 20
298.283
 30
-6.62091e-14
  70
    32
  0
VERTEX
  8
0
  5
8111
 10
-161.937
 20
298.277
 30
-6.62080e-14
  70
    32
  0
VERTEX
  8
0
  5
8112
 10
-161.937
 20
298.271
 30
-6.62069e-14
  70
    32
  0
VERTEX
  8
0
  5
8113
 10
-161.936
 20
298.266
 30
-6.62059e-14
  70
    32
  0
VERTEX
  8
0
  5
8114
 10
-161.936
 20
298.260
 30
-6.62048e-14
  70
    32
  0
VERTEX
  8
0
  5
8115
 10
-161.936
 20
298.254
 30
-6.62037e-14
  70
    32
  0
VERTEX
  8
0
  5
8116
 10
-161.936
 20
298.249
 30
-6.62027e-14
  70
    32
  0
VERTEX
  8
0
  5
8117
 10
-161.936
 20
298.243
 30
-6.62016e-14
  70
    32
  0
VERTEX
  8
0
  5
8118
 10
-161.936
 20
298.237
 30
-6.62006e-14
  70
    32
  0
VERTEX
  8
0
  5
8119
 10
-161.936
 20
298.232
 30
-6.61995e-14
  70
    32
  0
VERTEX
  8
0
  5
811A
 10
-161.936
 20
298.226
 30
-6.61985e-14
  70
    32
  0
VERTEX
  8
0
  5
811B
 10
-161.936
 20
298.220
 30
-6.61975e-14
  70
    32
  0
VERTEX
  8
0
  5
811C
 10
-161.936
 20
298.214
 30
-6.61964e-14
  70
    32
  0
VERTEX
  8
0
  5
811D
 10
-161.936
 20
298.208
 30
-6.61953e-14
  70
    32
  0
VERTEX
  8
0
  5
811E
 10
-161.935
 20
298.203
 30
-6.61943e-14
  70
    32
  0
VERTEX
  8
0
  5
811F
 10
-161.935
 20
298.197
 30
-6.61932e-14
  70
    32
  0
VERTEX
  8
0
  5
8120
 10
-161.935
 20
298.191
 30
-6.61921e-14
  70
    32
  0
VERTEX
  8
0
  5
8121
 10
-161.935
 20
298.185
 30
-6.61910e-14
  70
    32
  0
VERTEX
  8
0
  5
8122
 10
-161.935
 20
298.179
 30
-6.61899e-14
  70
    32
  0
VERTEX
  8
0
  5
8123
 10
-161.935
 20
298.173
 30
-6.61888e-14
  70
    32
  0
VERTEX
  8
0
  5
8124
 10
-161.935
 20
298.167
 30
-6.61877e-14
  70
    32
  0
VERTEX
  8
0
  5
8125
 10
-161.935
 20
298.161
 30
-6.61865e-14
  70
    32
  0
VERTEX
  8
0
  5
8126
 10
-161.935
 20
298.156
 30
-6.61853e-14
  70
    32
  0
VERTEX
  8
0
  5
8127
 10
-161.935
 20
298.150
 30
-6.61841e-14
  70
    32
  0
VERTEX
  8
0
  5
8128
 10
-161.935
 20
298.144
 30
-6.61829e-14
  70
    32
  0
VERTEX
  8
0
  5
8129
 10
-161.934
 20
298.138
 30
-6.61817e-14
  70
    32
  0
VERTEX
  8
0
  5
812A
 10
-161.934
 20
298.132
 30
-6.61804e-14
  70
    32
  0
VERTEX
  8
0
  5
812B
 10
-161.934
 20
298.126
 30
-6.61791e-14
  70
    32
  0
VERTEX
  8
0
  5
812C
 10
-161.934
 20
298.120
 30
-6.61777e-14
  70
    32
  0
VERTEX
  8
0
  5
812D
 10
-161.934
 20
298.114
 30
-6.61764e-14
  70
    32
  0
VERTEX
  8
0
  5
812E
 10
-161.934
 20
298.108
 30
-6.61750e-14
  70
    32
  0
VERTEX
  8
0
  5
812F
 10
-161.934
 20
298.102
 30
-6.61735e-14
  70
    32
  0
VERTEX
  8
0
  5
8130
 10
-161.934
 20
298.096
 30
-6.61721e-14
  70
    32
  0
VERTEX
  8
0
  5
8131
 10
-161.934
 20
298.089
 30
-6.61706e-14
  70
    32
  0
VERTEX
  8
0
  5
8132
 10
-161.934
 20
298.083
 30
-6.61690e-14
  70
    32
  0
VERTEX
  8
0
  5
8133
 10
-161.934
 20
298.077
 30
-6.61674e-14
  70
    32
  0
VERTEX
  8
0
  5
8134
 10
-161.933
 20
298.071
 30
-6.61658e-14
  70
    32
  0
VERTEX
  8
0
  5
8135
 10
-161.933
 20
298.065
 30
-6.61641e-14
  70
    32
  0
VERTEX
  8
0
  5
8136
 10
-161.933
 20
298.059
 30
-6.61624e-14
  70
    32
  0
VERTEX
  8
0
  5
8137
 10
-161.933
 20
298.053
 30
-6.61606e-14
  70
    32
  0
VERTEX
  8
0
  5
8138
 10
-161.933
 20
298.047
 30
-6.61588e-14
  70
    32
  0
VERTEX
  8
0
  5
8139
 10
-161.933
 20
298.040
 30
-6.61570e-14
  70
    32
  0
VERTEX
  8
0
  5
813A
 10
-161.933
 20
298.034
 30
-6.61550e-14
  70
    32
  0
VERTEX
  8
0
  5
813B
 10
-161.933
 20
298.028
 30
-6.61531e-14
  70
    32
  0
VERTEX
  8
0
  5
813C
 10
-161.933
 20
298.022
 30
-6.61510e-14
  70
    32
  0
VERTEX
  8
0
  5
813D
 10
-161.933
 20
298.016
 30
-6.61490e-14
  70
    32
  0
VERTEX
  8
0
  5
813E
 10
-161.933
 20
298.009
 30
-6.61469e-14
  70
    32
  0
VERTEX
  8
0
  5
813F
 10
-161.932
 20
298.003
 30
-6.61450e-14
  70
    32
  0
VERTEX
  8
0
  5
8140
 10
-161.932
 20
297.997
 30
-6.61430e-14
  70
    32
  0
VERTEX
  8
0
  5
8141
 10
-161.932
 20
297.991
 30
-6.61412e-14
  70
    32
  0
VERTEX
  8
0
  5
8142
 10
-161.932
 20
297.984
 30
-6.61394e-14
  70
    32
  0
VERTEX
  8
0
  5
8143
 10
-161.932
 20
297.978
 30
-6.61376e-14
  70
    32
  0
VERTEX
  8
0
  5
8144
 10
-161.932
 20
297.972
 30
-6.61359e-14
  70
    32
  0
VERTEX
  8
0
  5
8145
 10
-161.932
 20
297.965
 30
-6.61342e-14
  70
    32
  0
VERTEX
  8
0
  5
8146
 10
-161.932
 20
297.959
 30
-6.61326e-14
  70
    32
  0
VERTEX
  8
0
  5
8147
 10
-161.932
 20
297.952
 30
-6.61310e-14
  70
    32
  0
VERTEX
  8
0
  5
8148
 10
-161.932
 20
297.946
 30
-6.61294e-14
  70
    32
  0
VERTEX
  8
0
  5
8149
 10
-161.932
 20
297.939
 30
-6.61279e-14
  70
    32
  0
VERTEX
  8
0
  5
814A
 10
-161.931
 20
297.933
 30
-6.61265e-14
  70
    32
  0
VERTEX
  8
0
  5
814B
 10
-161.931
 20
297.926
 30
-6.61250e-14
  70
    32
  0
VERTEX
  8
0
  5
814C
 10
-161.931
 20
297.920
 30
-6.61236e-14
  70
    32
  0
VERTEX
  8
0
  5
814D
 10
-161.931
 20
297.913
 30
-6.61223e-14
  70
    32
  0
VERTEX
  8
0
  5
814E
 10
-161.931
 20
297.907
 30
-6.61209e-14
  70
    32
  0
VERTEX
  8
0
  5
814F
 10
-161.931
 20
297.900
 30
-6.61196e-14
  70
    32
  0
VERTEX
  8
0
  5
8150
 10
-161.931
 20
297.894
 30
-6.61183e-14
  70
    32
  0
VERTEX
  8
0
  5
8151
 10
-161.931
 20
297.887
 30
-6.61171e-14
  70
    32
  0
VERTEX
  8
0
  5
8152
 10
-161.931
 20
297.880
 30
-6.61159e-14
  70
    32
  0
VERTEX
  8
0
  5
8153
 10
-161.931
 20
297.874
 30
-6.61147e-14
  70
    32
  0
VERTEX
  8
0
  5
8154
 10
-161.931
 20
297.867
 30
-6.61135e-14
  70
    32
  0
VERTEX
  8
0
  5
8155
 10
-161.930
 20
297.860
 30
-6.61123e-14
  70
    32
  0
VERTEX
  8
0
  5
8156
 10
-161.930
 20
297.853
 30
-6.61112e-14
  70
    32
  0
VERTEX
  8
0
  5
8157
 10
-161.930
 20
297.847
 30
-6.61101e-14
  70
    32
  0
VERTEX
  8
0
  5
8158
 10
-161.930
 20
297.840
 30
-6.61090e-14
  70
    32
  0
VERTEX
  8
0
  5
8159
 10
-161.930
 20
297.833
 30
-6.61079e-14
  70
    32
  0
VERTEX
  8
0
  5
815A
 10
-161.930
 20
297.826
 30
-6.61068e-14
  70
    32
  0
VERTEX
  8
0
  5
815B
 10
-161.930
 20
297.819
 30
-6.61057e-14
  70
    32
  0
VERTEX
  8
0
  5
815C
 10
-161.930
 20
297.813
 30
-6.61047e-14
  70
    32
  0
VERTEX
  8
0
  5
815D
 10
-161.930
 20
297.806
 30
-6.61036e-14
  70
    32
  0
VERTEX
  8
0
  5
815E
 10
-161.930
 20
297.799
 30
-6.61025e-14
  70
    32
  0
VERTEX
  8
0
  5
815F
 10
-161.930
 20
297.792
 30
-6.61015e-14
  70
    32
  0
VERTEX
  8
0
  5
8160
 10
-161.929
 20
297.785
 30
-6.61005e-14
  70
    32
  0
VERTEX
  8
0
  5
8161
 10
-161.929
 20
297.778
 30
-6.60994e-14
  70
    32
  0
VERTEX
  8
0
  5
8162
 10
-161.929
 20
297.771
 30
-6.60984e-14
  70
    32
  0
VERTEX
  8
0
  5
8163
 10
-161.929
 20
297.764
 30
-6.60973e-14
  70
    32
  0
VERTEX
  8
0
  5
8164
 10
-161.929
 20
297.757
 30
-6.60963e-14
  70
    32
  0
VERTEX
  8
0
  5
8165
 10
-161.929
 20
297.750
 30
-6.60952e-14
  70
    32
  0
VERTEX
  8
0
  5
8166
 10
-161.929
 20
297.743
 30
-6.60941e-14
  70
    32
  0
VERTEX
  8
0
  5
8167
 10
-161.929
 20
297.736
 30
-6.60931e-14
  70
    32
  0
VERTEX
  8
0
  5
8168
 10
-161.929
 20
297.729
 30
-6.60920e-14
  70
    32
  0
VERTEX
  8
0
  5
8169
 10
-161.929
 20
297.721
 30
-6.60909e-14
  70
    32
  0
VERTEX
  8
0
  5
816A
 10
-161.929
 20
297.714
 30
-6.60898e-14
  70
    32
  0
VERTEX
  8
0
  5
816B
 10
-161.928
 20
297.707
 30
-6.60887e-14
  70
    32
  0
VERTEX
  8
0
  5
816C
 10
-161.928
 20
297.700
 30
-6.60875e-14
  70
    32
  0
VERTEX
  8
0
  5
816D
 10
-161.928
 20
297.693
 30
-6.60864e-14
  70
    32
  0
VERTEX
  8
0
  5
816E
 10
-161.928
 20
297.686
 30
-6.60852e-14
  70
    32
  0
VERTEX
  8
0
  5
816F
 10
-161.928
 20
297.678
 30
-6.60840e-14
  70
    32
  0
VERTEX
  8
0
  5
8170
 10
-161.928
 20
297.671
 30
-6.60827e-14
  70
    32
  0
VERTEX
  8
0
  5
8171
 10
-161.928
 20
297.664
 30
-6.60815e-14
  70
    32
  0
VERTEX
  8
0
  5
8172
 10
-161.928
 20
297.656
 30
-6.60802e-14
  70
    32
  0
VERTEX
  8
0
  5
8173
 10
-161.928
 20
297.649
 30
-6.60789e-14
  70
    32
  0
VERTEX
  8
0
  5
8174
 10
-161.928
 20
297.642
 30
-6.60776e-14
  70
    32
  0
VERTEX
  8
0
  5
8175
 10
-161.928
 20
297.634
 30
-6.60762e-14
  70
    32
  0
VERTEX
  8
0
  5
8176
 10
-161.927
 20
297.627
 30
-6.60748e-14
  70
    32
  0
VERTEX
  8
0
  5
8177
 10
-161.927
 20
297.620
 30
-6.60734e-14
  70
    32
  0
VERTEX
  8
0
  5
8178
 10
-161.927
 20
297.612
 30
-6.60719e-14
  70
    32
  0
VERTEX
  8
0
  5
8179
 10
-161.927
 20
297.605
 30
-6.60704e-14
  70
    32
  0
VERTEX
  8
0
  5
817A
 10
-161.927
 20
297.597
 30
-6.60688e-14
  70
    32
  0
VERTEX
  8
0
  5
817B
 10
-161.927
 20
297.590
 30
-6.60672e-14
  70
    32
  0
VERTEX
  8
0
  5
817C
 10
-161.927
 20
297.582
 30
-6.60656e-14
  70
    32
  0
VERTEX
  8
0
  5
817D
 10
-161.927
 20
297.575
 30
-6.60639e-14
  70
    32
  0
VERTEX
  8
0
  5
817E
 10
-161.927
 20
297.567
 30
-6.60622e-14
  70
    32
  0
VERTEX
  8
0
  5
817F
 10
-161.927
 20
297.560
 30
-6.60604e-14
  70
    32
  0
VERTEX
  8
0
  5
8180
 10
-161.927
 20
297.552
 30
-6.60586e-14
  70
    32
  0
VERTEX
  8
0
  5
8181
 10
-161.926
 20
297.545
 30
-6.60567e-14
  70
    32
  0
VERTEX
  8
0
  5
8182
 10
-161.926
 20
297.537
 30
-6.60548e-14
  70
    32
  0
VERTEX
  8
0
  5
8183
 10
-161.926
 20
297.530
 30
-6.60528e-14
  70
    32
  0
VERTEX
  8
0
  5
8184
 10
-161.926
 20
297.522
 30
-6.60508e-14
  70
    32
  0
VERTEX
  8
0
  5
8185
 10
-161.926
 20
297.514
 30
-6.60487e-14
  70
    32
  0
VERTEX
  8
0
  5
8186
 10
-161.926
 20
297.507
 30
-6.60467e-14
  70
    32
  0
VERTEX
  8
0
  5
8187
 10
-161.926
 20
297.499
 30
-6.60447e-14
  70
    32
  0
VERTEX
  8
0
  5
8188
 10
-161.926
 20
297.491
 30
-6.60428e-14
  70
    32
  0
VERTEX
  8
0
  5
8189
 10
-161.926
 20
297.484
 30
-6.60409e-14
  70
    32
  0
VERTEX
  8
0
  5
818A
 10
-161.926
 20
297.476
 30
-6.60391e-14
  70
    32
  0
VERTEX
  8
0
  5
818B
 10
-161.926
 20
297.468
 30
-6.60374e-14
  70
    32
  0
VERTEX
  8
0
  5
818C
 10
-161.925
 20
297.460
 30
-6.60357e-14
  70
    32
  0
VERTEX
  8
0
  5
818D
 10
-161.925
 20
297.453
 30
-6.60340e-14
  70
    32
  0
VERTEX
  8
0
  5
818E
 10
-161.925
 20
297.445
 30
-6.60324e-14
  70
    32
  0
VERTEX
  8
0
  5
818F
 10
-161.925
 20
297.437
 30
-6.60308e-14
  70
    32
  0
VERTEX
  8
0
  5
8190
 10
-161.925
 20
297.429
 30
-6.60292e-14
  70
    32
  0
VERTEX
  8
0
  5
8191
 10
-161.925
 20
297.421
 30
-6.60277e-14
  70
    32
  0
VERTEX
  8
0
  5
8192
 10
-161.925
 20
297.414
 30
-6.60263e-14
  70
    32
  0
VERTEX
  8
0
  5
8193
 10
-161.925
 20
297.406
 30
-6.60248e-14
  70
    32
  0
VERTEX
  8
0
  5
8194
 10
-161.925
 20
297.398
 30
-6.60235e-14
  70
    32
  0
VERTEX
  8
0
  5
8195
 10
-161.925
 20
297.390
 30
-6.60221e-14
  70
    32
  0
VERTEX
  8
0
  5
8196
 10
-161.925
 20
297.382
 30
-6.60208e-14
  70
    32
  0
VERTEX
  8
0
  5
8197
 10
-161.925
 20
297.374
 30
-6.60195e-14
  70
    32
  0
VERTEX
  8
0
  5
8198
 10
-161.924
 20
297.366
 30
-6.60182e-14
  70
    32
  0
VERTEX
  8
0
  5
8199
 10
-161.924
 20
297.358
 30
-6.60169e-14
  70
    32
  0
VERTEX
  8
0
  5
819A
 10
-161.924
 20
297.350
 30
-6.60157e-14
  70
    32
  0
VERTEX
  8
0
  5
819B
 10
-161.924
 20
297.342
 30
-6.60145e-14
  70
    32
  0
VERTEX
  8
0
  5
819C
 10
-161.924
 20
297.334
 30
-6.60134e-14
  70
    32
  0
VERTEX
  8
0
  5
819D
 10
-161.924
 20
297.326
 30
-6.60122e-14
  70
    32
  0
VERTEX
  8
0
  5
819E
 10
-161.924
 20
297.318
 30
-6.60111e-14
  70
    32
  0
VERTEX
  8
0
  5
819F
 10
-161.924
 20
297.310
 30
-6.60099e-14
  70
    32
  0
VERTEX
  8
0
  5
81A0
 10
-161.924
 20
297.302
 30
-6.60088e-14
  70
    32
  0
VERTEX
  8
0
  5
81A1
 10
-161.924
 20
297.294
 30
-6.60077e-14
  70
    32
  0
VERTEX
  8
0
  5
81A2
 10
-161.924
 20
297.286
 30
-6.60067e-14
  70
    32
  0
VERTEX
  8
0
  5
81A3
 10
-161.924
 20
297.278
 30
-6.60056e-14
  70
    32
  0
VERTEX
  8
0
  5
81A4
 10
-161.923
 20
297.270
 30
-6.60045e-14
  70
    32
  0
VERTEX
  8
0
  5
81A5
 10
-161.923
 20
297.261
 30
-6.60035e-14
  70
    32
  0
VERTEX
  8
0
  5
81A6
 10
-161.923
 20
297.253
 30
-6.60024e-14
  70
    32
  0
VERTEX
  8
0
  5
81A7
 10
-161.923
 20
297.245
 30
-6.60014e-14
  70
    32
  0
VERTEX
  8
0
  5
81A8
 10
-161.923
 20
297.237
 30
-6.60003e-14
  70
    32
  0
VERTEX
  8
0
  5
81A9
 10
-161.923
 20
297.229
 30
-6.59993e-14
  70
    32
  0
VERTEX
  8
0
  5
81AA
 10
-161.923
 20
297.221
 30
-6.59982e-14
  70
    32
  0
VERTEX
  8
0
  5
81AB
 10
-161.923
 20
297.212
 30
-6.59972e-14
  70
    32
  0
VERTEX
  8
0
  5
81AC
 10
-161.923
 20
297.204
 30
-6.59961e-14
  70
    32
  0
VERTEX
  8
0
  5
81AD
 10
-161.923
 20
297.196
 30
-6.59951e-14
  70
    32
  0
VERTEX
  8
0
  5
81AE
 10
-161.923
 20
297.188
 30
-6.59940e-14
  70
    32
  0
VERTEX
  8
0
  5
81AF
 10
-161.923
 20
297.179
 30
-6.59929e-14
  70
    32
  0
VERTEX
  8
0
  5
81B0
 10
-161.922
 20
297.171
 30
-6.59919e-14
  70
    32
  0
VERTEX
  8
0
  5
81B1
 10
-161.922
 20
297.163
 30
-6.59908e-14
  70
    32
  0
VERTEX
  8
0
  5
81B2
 10
-161.922
 20
297.154
 30
-6.59896e-14
  70
    32
  0
VERTEX
  8
0
  5
81B3
 10
-161.922
 20
297.146
 30
-6.59885e-14
  70
    32
  0
VERTEX
  8
0
  5
81B4
 10
-161.922
 20
297.138
 30
-6.59874e-14
  70
    32
  0
VERTEX
  8
0
  5
81B5
 10
-161.922
 20
297.129
 30
-6.59862e-14
  70
    32
  0
VERTEX
  8
0
  5
81B6
 10
-161.922
 20
297.121
 30
-6.59850e-14
  70
    32
  0
VERTEX
  8
0
  5
81B7
 10
-161.922
 20
297.113
 30
-6.59838e-14
  70
    32
  0
VERTEX
  8
0
  5
81B8
 10
-161.922
 20
297.104
 30
-6.59826e-14
  70
    32
  0
VERTEX
  8
0
  5
81B9
 10
-161.922
 20
297.096
 30
-6.59813e-14
  70
    32
  0
VERTEX
  8
0
  5
81BA
 10
-161.922
 20
297.087
 30
-6.59801e-14
  70
    32
  0
VERTEX
  8
0
  5
81BB
 10
-161.922
 20
297.079
 30
-6.59787e-14
  70
    32
  0
VERTEX
  8
0
  5
81BC
 10
-161.922
 20
297.071
 30
-6.59774e-14
  70
    32
  0
VERTEX
  8
0
  5
81BD
 10
-161.922
 20
297.062
 30
-6.59760e-14
  70
    32
  0
VERTEX
  8
0
  5
81BE
 10
-161.921
 20
297.054
 30
-6.59746e-14
  70
    32
  0
VERTEX
  8
0
  5
81BF
 10
-161.921
 20
297.045
 30
-6.59732e-14
  70
    32
  0
VERTEX
  8
0
  5
81C0
 10
-161.921
 20
297.037
 30
-6.59717e-14
  70
    32
  0
VERTEX
  8
0
  5
81C1
 10
-161.921
 20
297.028
 30
-6.59702e-14
  70
    32
  0
VERTEX
  8
0
  5
81C2
 10
-161.921
 20
297.020
 30
-6.59686e-14
  70
    32
  0
VERTEX
  8
0
  5
81C3
 10
-161.921
 20
297.011
 30
-6.59670e-14
  70
    32
  0
VERTEX
  8
0
  5
81C4
 10
-161.921
 20
297.003
 30
-6.59654e-14
  70
    32
  0
VERTEX
  8
0
  5
81C5
 10
-161.921
 20
296.994
 30
-6.59637e-14
  70
    32
  0
VERTEX
  8
0
  5
81C6
 10
-161.921
 20
296.986
 30
-6.59620e-14
  70
    32
  0
VERTEX
  8
0
  5
81C7
 10
-161.921
 20
296.977
 30
-6.59602e-14
  70
    32
  0
VERTEX
  8
0
  5
81C8
 10
-161.921
 20
296.969
 30
-6.59584e-14
  70
    32
  0
VERTEX
  8
0
  5
81C9
 10
-161.921
 20
296.960
 30
-6.59565e-14
  70
    32
  0
VERTEX
  8
0
  5
81CA
 10
-161.921
 20
296.951
 30
-6.59546e-14
  70
    32
  0
VERTEX
  8
0
  5
81CB
 10
-161.921
 20
296.943
 30
-6.59526e-14
  70
    32
  0
VERTEX
  8
0
  5
81CC
 10
-161.920
 20
296.934
 30
-6.59505e-14
  70
    32
  0
VERTEX
  8
0
  5
81CD
 10
-161.920
 20
296.926
 30
-6.59484e-14
  70
    32
  0
VERTEX
  8
0
  5
81CE
 10
-161.920
 20
296.917
 30
-6.59463e-14
  70
    32
  0
VERTEX
  8
0
  5
81CF
 10
-161.920
 20
296.908
 30
-6.59440e-14
  70
    32
  0
VERTEX
  8
0
  5
81D0
 10
-161.920
 20
296.900
 30
-6.59418e-14
  70
    32
  0
VERTEX
  8
0
  5
81D1
 10
-161.920
 20
296.891
 30
-6.59395e-14
  70
    32
  0
VERTEX
  8
0
  5
81D2
 10
-161.920
 20
296.882
 30
-6.59371e-14
  70
    32
  0
VERTEX
  8
0
  5
81D3
 10
-161.920
 20
296.874
 30
-6.59347e-14
  70
    32
  0
VERTEX
  8
0
  5
81D4
 10
-161.920
 20
296.865
 30
-6.59322e-14
  70
    32
  0
VERTEX
  8
0
  5
81D5
 10
-161.920
 20
296.856
 30
-6.59297e-14
  70
    32
  0
VERTEX
  8
0
  5
81D6
 10
-161.920
 20
296.848
 30
-6.59271e-14
  70
    32
  0
VERTEX
  8
0
  5
81D7
 10
-161.920
 20
296.839
 30
-6.59245e-14
  70
    32
  0
VERTEX
  8
0
  5
81D8
 10
-161.920
 20
296.830
 30
-6.59219e-14
  70
    32
  0
VERTEX
  8
0
  5
81D9
 10
-161.920
 20
296.821
 30
-6.59192e-14
  70
    32
  0
VERTEX
  8
0
  5
81DA
 10
-161.920
 20
296.813
 30
-6.59165e-14
  70
    32
  0
VERTEX
  8
0
  5
81DB
 10
-161.919
 20
296.804
 30
-6.59138e-14
  70
    32
  0
VERTEX
  8
0
  5
81DC
 10
-161.919
 20
296.795
 30
-6.59110e-14
  70
    32
  0
VERTEX
  8
0
  5
81DD
 10
-161.919
 20
296.786
 30
-6.59082e-14
  70
    32
  0
VERTEX
  8
0
  5
81DE
 10
-161.919
 20
296.778
 30
-6.59053e-14
  70
    32
  0
VERTEX
  8
0
  5
81DF
 10
-161.919
 20
296.769
 30
-6.59024e-14
  70
    32
  0
VERTEX
  8
0
  5
81E0
 10
-161.919
 20
296.760
 30
-6.58995e-14
  70
    32
  0
VERTEX
  8
0
  5
81E1
 10
-161.919
 20
296.751
 30
-6.58966e-14
  70
    32
  0
VERTEX
  8
0
  5
81E2
 10
-161.919
 20
296.742
 30
-6.58936e-14
  70
    32
  0
VERTEX
  8
0
  5
81E3
 10
-161.919
 20
296.734
 30
-6.58907e-14
  70
    32
  0
VERTEX
  8
0
  5
81E4
 10
-161.919
 20
296.725
 30
-6.58877e-14
  70
    32
  0
VERTEX
  8
0
  5
81E5
 10
-161.919
 20
296.716
 30
-6.58846e-14
  70
    32
  0
VERTEX
  8
0
  5
81E6
 10
-161.919
 20
296.707
 30
-6.58816e-14
  70
    32
  0
VERTEX
  8
0
  5
81E7
 10
-161.919
 20
296.698
 30
-6.58786e-14
  70
    32
  0
VERTEX
  8
0
  5
81E8
 10
-161.919
 20
296.690
 30
-6.58755e-14
  70
    32
  0
VERTEX
  8
0
  5
81E9
 10
-161.919
 20
296.681
 30
-6.58724e-14
  70
    32
  0
VERTEX
  8
0
  5
81EA
 10
-161.919
 20
296.672
 30
-6.58693e-14
  70
    32
  0
VERTEX
  8
0
  5
81EB
 10
-161.919
 20
296.663
 30
-6.58662e-14
  70
    32
  0
VERTEX
  8
0
  5
81EC
 10
-161.918
 20
296.654
 30
-6.58631e-14
  70
    32
  0
VERTEX
  8
0
  5
81ED
 10
-161.918
 20
296.645
 30
-6.58600e-14
  70
    32
  0
VERTEX
  8
0
  5
81EE
 10
-161.918
 20
296.636
 30
-6.58568e-14
  70
    32
  0
VERTEX
  8
0
  5
81EF
 10
-161.918
 20
296.627
 30
-6.58537e-14
  70
    32
  0
VERTEX
  8
0
  5
81F0
 10
-161.918
 20
296.619
 30
-6.58506e-14
  70
    32
  0
VERTEX
  8
0
  5
81F1
 10
-161.918
 20
296.610
 30
-6.58475e-14
  70
    32
  0
VERTEX
  8
0
  5
81F2
 10
-161.918
 20
296.601
 30
-6.58443e-14
  70
    32
  0
VERTEX
  8
0
  5
81F3
 10
-161.918
 20
296.592
 30
-6.58412e-14
  70
    32
  0
VERTEX
  8
0
  5
81F4
 10
-161.918
 20
296.583
 30
-6.58381e-14
  70
    32
  0
VERTEX
  8
0
  5
81F5
 10
-161.918
 20
296.574
 30
-6.58350e-14
  70
    32
  0
VERTEX
  8
0
  5
81F6
 10
-161.918
 20
296.565
 30
-6.58319e-14
  70
    32
  0
VERTEX
  8
0
  5
81F7
 10
-161.918
 20
296.556
 30
-6.58288e-14
  70
    32
  0
VERTEX
  8
0
  5
81F8
 10
-161.918
 20
296.547
 30
-6.58257e-14
  70
    32
  0
VERTEX
  8
0
  5
81F9
 10
-161.918
 20
296.538
 30
-6.58226e-14
  70
    32
  0
VERTEX
  8
0
  5
81FA
 10
-161.918
 20
296.529
 30
-6.58195e-14
  70
    32
  0
VERTEX
  8
0
  5
81FB
 10
-161.918
 20
296.520
 30
-6.58165e-14
  70
    32
  0
VERTEX
  8
0
  5
81FC
 10
-161.918
 20
296.511
 30
-6.58135e-14
  70
    32
  0
VERTEX
  8
0
  5
81FD
 10
-161.918
 20
296.502
 30
-6.58105e-14
  70
    32
  0
VERTEX
  8
0
  5
81FE
 10
-161.918
 20
296.493
 30
-6.58075e-14
  70
    32
  0
VERTEX
  8
0
  5
81FF
 10
-161.917
 20
296.484
 30
-6.58045e-14
  70
    32
  0
VERTEX
  8
0
  5
8200
 10
-161.917
 20
296.475
 30
-6.58016e-14
  70
    32
  0
VERTEX
  8
0
  5
8201
 10
-161.917
 20
296.466
 30
-6.57986e-14
  70
    32
  0
VERTEX
  8
0
  5
8202
 10
-161.917
 20
296.457
 30
-6.57958e-14
  70
    32
  0
VERTEX
  8
0
  5
8203
 10
-161.917
 20
296.448
 30
-6.57929e-14
  70
    32
  0
VERTEX
  8
0
  5
8204
 10
-161.917
 20
296.440
 30
-6.57901e-14
  70
    32
  0
VERTEX
  8
0
  5
8205
 10
-161.917
 20
296.431
 30
-6.57873e-14
  70
    32
  0
VERTEX
  8
0
  5
8206
 10
-161.917
 20
296.422
 30
-6.57845e-14
  70
    32
  0
VERTEX
  8
0
  5
8207
 10
-161.917
 20
296.413
 30
-6.57818e-14
  70
    32
  0
VERTEX
  8
0
  5
8208
 10
-161.917
 20
296.404
 30
-6.57791e-14
  70
    32
  0
VERTEX
  8
0
  5
8209
 10
-161.917
 20
296.395
 30
-6.57764e-14
  70
    32
  0
VERTEX
  8
0
  5
820A
 10
-161.917
 20
296.385
 30
-6.57738e-14
  70
    32
  0
VERTEX
  8
0
  5
820B
 10
-161.917
 20
296.376
 30
-6.57713e-14
  70
    32
  0
VERTEX
  8
0
  5
820C
 10
-161.917
 20
296.367
 30
-6.57687e-14
  70
    32
  0
VERTEX
  8
0
  5
820D
 10
-161.917
 20
296.358
 30
-6.57662e-14
  70
    32
  0
VERTEX
  8
0
  5
820E
 10
-161.917
 20
296.349
 30
-6.57638e-14
  70
    32
  0
VERTEX
  8
0
  5
820F
 10
-161.917
 20
296.340
 30
-6.57614e-14
  70
    32
  0
VERTEX
  8
0
  5
8210
 10
-161.917
 20
296.331
 30
-6.57591e-14
  70
    32
  0
VERTEX
  8
0
  5
8211
 10
-161.917
 20
296.322
 30
-6.57568e-14
  70
    32
  0
VERTEX
  8
0
  5
8212
 10
-161.917
 20
296.313
 30
-6.57546e-14
  70
    32
  0
VERTEX
  8
0
  5
8213
 10
-161.917
 20
296.304
 30
-6.57524e-14
  70
    32
  0
VERTEX
  8
0
  5
8214
 10
-161.917
 20
296.295
 30
-6.57503e-14
  70
    32
  0
VERTEX
  8
0
  5
8215
 10
-161.917
 20
296.286
 30
-6.57482e-14
  70
    32
  0
VERTEX
  8
0
  5
8216
 10
-161.917
 20
296.277
 30
-6.57462e-14
  70
    32
  0
VERTEX
  8
0
  5
8217
 10
-161.917
 20
296.268
 30
-6.57442e-14
  70
    32
  0
VERTEX
  8
0
  5
8218
 10
-161.916
 20
296.259
 30
-6.57423e-14
  70
    32
  0
VERTEX
  8
0
  5
8219
 10
-161.916
 20
296.250
 30
-6.57405e-14
  70
    32
  0
VERTEX
  8
0
  5
821A
 10
-161.916
 20
296.241
 30
-6.57387e-14
  70
    32
  0
VERTEX
  8
0
  5
821B
 10
-161.916
 20
296.232
 30
-6.57369e-14
  70
    32
  0
VERTEX
  8
0
  5
821C
 10
-161.916
 20
296.223
 30
-6.57352e-14
  70
    32
  0
VERTEX
  8
0
  5
821D
 10
-161.916
 20
296.214
 30
-6.57335e-14
  70
    32
  0
VERTEX
  8
0
  5
821E
 10
-161.916
 20
296.205
 30
-6.57318e-14
  70
    32
  0
VERTEX
  8
0
  5
821F
 10
-161.916
 20
296.196
 30
-6.57302e-14
  70
    32
  0
VERTEX
  8
0
  5
8220
 10
-161.916
 20
296.187
 30
-6.57286e-14
  70
    32
  0
VERTEX
  8
0
  5
8221
 10
-161.916
 20
296.178
 30
-6.57271e-14
  70
    32
  0
VERTEX
  8
0
  5
8222
 10
-161.916
 20
296.169
 30
-6.57256e-14
  70
    32
  0
VERTEX
  8
0
  5
8223
 10
-161.916
 20
296.160
 30
-6.57241e-14
  70
    32
  0
VERTEX
  8
0
  5
8224
 10
-161.916
 20
296.151
 30
-6.57226e-14
  70
    32
  0
VERTEX
  8
0
  5
8225
 10
-161.916
 20
296.142
 30
-6.57211e-14
  70
    32
  0
VERTEX
  8
0
  5
8226
 10
-161.916
 20
296.133
 30
-6.57197e-14
  70
    32
  0
VERTEX
  8
0
  5
8227
 10
-161.916
 20
296.124
 30
-6.57182e-14
  70
    32
  0
VERTEX
  8
0
  5
8228
 10
-161.916
 20
296.115
 30
-6.57168e-14
  70
    32
  0
VERTEX
  8
0
  5
8229
 10
-161.916
 20
296.106
 30
-6.57154e-14
  70
    32
  0
VERTEX
  8
0
  5
822A
 10
-161.916
 20
296.097
 30
-6.57140e-14
  70
    32
  0
VERTEX
  8
0
  5
822B
 10
-161.916
 20
296.088
 30
-6.57126e-14
  70
    32
  0
VERTEX
  8
0
  5
822C
 10
-161.916
 20
296.078
 30
-6.57112e-14
  70
    32
  0
VERTEX
  8
0
  5
822D
 10
-161.916
 20
296.069
 30
-6.57098e-14
  70
    32
  0
VERTEX
  8
0
  5
822E
 10
-161.916
 20
296.060
 30
-6.57084e-14
  70
    32
  0
VERTEX
  8
0
  5
822F
 10
-161.916
 20
296.051
 30
-6.57070e-14
  70
    32
  0
VERTEX
  8
0
  5
8230
 10
-161.916
 20
296.042
 30
-6.57056e-14
  70
    32
  0
VERTEX
  8
0
  5
8231
 10
-161.916
 20
296.033
 30
-6.57042e-14
  70
    32
  0
VERTEX
  8
0
  5
8232
 10
-161.916
 20
296.024
 30
-6.57028e-14
  70
    32
  0
VERTEX
  8
0
  5
8233
 10
-161.916
 20
296.015
 30
-6.57014e-14
  70
    32
  0
VERTEX
  8
0
  5
8234
 10
-161.916
 20
296.006
 30
-6.56999e-14
  70
    32
  0
VERTEX
  8
0
  5
8235
 10
-161.916
 20
295.997
 30
-6.56984e-14
  70
    32
  0
VERTEX
  8
0
  5
8236
 10
-161.916
 20
295.988
 30
-6.56969e-14
  70
    32
  0
VERTEX
  8
0
  5
8237
 10
-161.916
 20
295.979
 30
-6.56954e-14
  70
    32
  0
VERTEX
  8
0
  5
8238
 10
-161.916
 20
295.970
 30
-6.56938e-14
  70
    32
  0
VERTEX
  8
0
  5
8239
 10
-161.916
 20
295.961
 30
-6.56923e-14
  70
    32
  0
VERTEX
  8
0
  5
823A
 10
-161.916
 20
295.952
 30
-6.56907e-14
  70
    32
  0
VERTEX
  8
0
  5
823B
 10
-161.916
 20
295.943
 30
-6.56890e-14
  70
    32
  0
VERTEX
  8
0
  5
823C
 10
-161.916
 20
295.934
 30
-6.56873e-14
  70
    32
  0
VERTEX
  8
0
  5
823D
 10
-161.916
 20
295.925
 30
-6.56856e-14
  70
    32
  0
VERTEX
  8
0
  5
823E
 10
-161.916
 20
295.917
 30
-6.56839e-14
  70
    32
  0
VERTEX
  8
0
  5
823F
 10
-161.916
 20
295.908
 30
-6.56821e-14
  70
    32
  0
VERTEX
  8
0
  5
8240
 10
-161.916
 20
295.899
 30
-6.56802e-14
  70
    32
  0
VERTEX
  8
0
  5
8241
 10
-161.916
 20
295.890
 30
-6.56783e-14
  70
    32
  0
VERTEX
  8
0
  5
8242
 10
-161.916
 20
295.881
 30
-6.56764e-14
  70
    32
  0
VERTEX
  8
0
  5
8243
 10
-161.916
 20
295.872
 30
-6.56744e-14
  70
    32
  0
VERTEX
  8
0
  5
8244
 10
-161.915
 20
295.863
 30
-6.56723e-14
  70
    32
  0
VERTEX
  8
0
  5
8245
 10
-161.915
 20
295.854
 30
-6.56702e-14
  70
    32
  0
VERTEX
  8
0
  5
8246
 10
-161.915
 20
295.845
 30
-6.56680e-14
  70
    32
  0
VERTEX
  8
0
  5
8247
 10
-161.915
 20
295.836
 30
-6.56658e-14
  70
    32
  0
VERTEX
  8
0
  5
8248
 10
-161.915
 20
295.827
 30
-6.56635e-14
  70
    32
  0
VERTEX
  8
0
  5
8249
 10
-161.915
 20
295.818
 30
-6.56611e-14
  70
    32
  0
VERTEX
  8
0
  5
824A
 10
-161.915
 20
295.809
 30
-6.56587e-14
  70
    32
  0
VERTEX
  8
0
  5
824B
 10
-161.915
 20
295.800
 30
-6.56562e-14
  70
    32
  0
VERTEX
  8
0
  5
824C
 10
-161.915
 20
295.791
 30
-6.56536e-14
  70
    32
  0
VERTEX
  8
0
  5
824D
 10
-161.915
 20
295.783
 30
-6.56509e-14
  70
    32
  0
VERTEX
  8
0
  5
824E
 10
-161.915
 20
295.774
 30
-6.56482e-14
  70
    32
  0
VERTEX
  8
0
  5
824F
 10
-161.915
 20
295.765
 30
-6.56453e-14
  70
    32
  0
VERTEX
  8
0
  5
8250
 10
-161.915
 20
295.756
 30
-6.56424e-14
  70
    32
  0
VERTEX
  8
0
  5
8251
 10
-161.915
 20
295.747
 30
-6.56394e-14
  70
    32
  0
VERTEX
  8
0
  5
8252
 10
-161.915
 20
295.738
 30
-6.56363e-14
  70
    32
  0
VERTEX
  8
0
  5
8253
 10
-161.915
 20
295.729
 30
-6.56332e-14
  70
    32
  0
VERTEX
  8
0
  5
8254
 10
-161.915
 20
295.720
 30
-6.56299e-14
  70
    32
  0
VERTEX
  8
0
  5
8255
 10
-161.915
 20
295.712
 30
-6.56265e-14
  70
    32
  0
VERTEX
  8
0
  5
8256
 10
-161.915
 20
295.703
 30
-6.56230e-14
  70
    32
  0
VERTEX
  8
0
  5
8257
 10
-161.915
 20
295.694
 30
-6.56195e-14
  70
    32
  0
VERTEX
  8
0
  5
8258
 10
-161.915
 20
295.685
 30
-6.56158e-14
  70
    32
  0
VERTEX
  8
0
  5
8259
 10
-161.915
 20
295.676
 30
-6.56120e-14
  70
    32
  0
VERTEX
  8
0
  5
825A
 10
-161.915
 20
295.668
 30
-6.56081e-14
  70
    32
  0
VERTEX
  8
0
  5
825B
 10
-161.915
 20
295.659
 30
-6.56041e-14
  70
    32
  0
VERTEX
  8
0
  5
825C
 10
-161.915
 20
295.650
 30
-6.56000e-14
  70
    32
  0
SEQEND
  8
0
  5
825D
  0
LINE
  5
7D34
  8
0
  6
CONTINUOUS
 62
     3
 10
-161.9500000000001023
 20
139.9999999999998863
 30
-0.0000000000000311
 11
161.9499999999999034
 21
139.9999999999998863
 31
-0.0000000000000311
210
0.0
220
1.0
230
-0.0000000000000002
  0
LINE
  5
7D35
  8
0
  6
CONTINUOUS
 62
     3
 10
-161.9500000000001023
 20
139.9999999999998863
 30
-0.0000000000000311
 11
-161.9500000000001023
 21
230.0000000000003126
 31
-0.0000000000000511
210
0.0
220
1.0
230
-0.0000000000000002
  0
LINE
  5
7D36
  8
0
  6
CONTINUOUS
 62
     3
 10
-161.9500000000001023
 20
234.0000000000003126
 30
-0.000000000000052
 11
-161.9500000000001023
 21
290.7071067811862122
 31
-0.0000000000000645
210
0.0
220
1.0
230
-0.0000000000000002
  0
LINE
  5
7D37
  8
0
  6
CONTINUOUS
 62
     3
 10
-161.9500000000001023
 20
300.2928932188136173
 30
-0.0000000000000667
 11
-161.9500000000001023
 21
308.0
 31
-0.0000000000000684
210
0.0
220
1.0
230
-0.0000000000000002
  0
LINE
  5
7D38
  8
0
  6
CONTINUOUS
 62
     3
 10
161.9499999999999034
 20
139.9999999999998863
 30
-0.0000000000000311
 11
161.9499999999999034
 21
229.9999999999992895
 31
-0.0000000000000511
210
0.0
220
1.0
230
-0.0000000000000002
  0
LINE
  5
7D39
  8
0
  6
CONTINUOUS
 62
     3
 10
161.9499999999999034
 20
233.9999999999992895
 30
-0.000000000000052
 11
161.9499999999999034
 21
308.0
 31
-0.0000000000000684
210
0.0
220
1.0
230
-0.0000000000000002
  0
LINE
  5
7D3A
  8
0
  6
CONTINUOUS
 62
     3
 10
-161.9499999999999886
 20
290.7071067811862122
 30
-0.0000000000000645
 11
-161.9499999999999886
 21
300.2928932188136173
 31
-0.0000000000000667
210
0.0
220
1.0
230
-0.0000000000000002
  0
LINE
  5
7D3B
  8
0
  6
CONTINUOUS
 62
     3
 10
-163.9499999999999886
 20
292.9999999999998863
 30
-0.0000000000000651
 11
-163.9499999999999886
 21
297.9999999999998863
 31
-0.0000000000000662
210
0.0
220
1.0
230
-0.0000000000000002
  0
LINE
  5
7D3C
  8
0
  6
CONTINUOUS
 62
     3
 10
-162.9499999999999886
 20
290.7071067811862122
 30
-0.0000000000000645
 11
-162.9499999999999886
 21
300.2928932188136173
 31
-0.0000000000000667
210
0.0
220
1.0
230
-0.0000000000000002
  0
ARC
  5
7D3D
  8
0
  6
CONTINUOUS
 62
     3
 10
162.4499999999999886
 20
290.7071067811862122
 30
0.0
 40
0.5
210
0.0
220
-0.0000000000000002
230
-1.0
 50
180.0
 51
0.0
  0
ARC
  5
7D3E
  8
0
  6
CONTINUOUS
 62
     3
 10
162.4499999999999886
 20
300.2928932188136173
 30
0.0
 40
0.5
210
0.0
220
-0.0000000000000002
230
-1.0
 50
0.0
 51
180.0
  0
LINE
  5
7D3F
  8
0
  6
CONTINUOUS
 62
     3
 10
-163.4499999999999886
 20
298.4999999999998863
 30
-0.0000000000000663
 11
-162.9499999999999886
 21
298.4999999999998863
 31
-0.0000000000000663
210
0.0
220
1.0
230
-0.0000000000000002
  0
LINE
  5
7D40
  8
0
  6
CONTINUOUS
 62
     3
 10
-163.4499999999999886
 20
292.4999999999998863
 30
-0.0000000000000649
 11
-162.9499999999999886
 21
292.4999999999998863
 31
-0.0000000000000649
210
0.0
220
1.0
230
-0.0000000000000002
  0
ARC
  5
7D41
  8
0
  6
CONTINUOUS
 62
     3
 10
163.4499999999999034
 20
293.0
 30
0.0
 40
0.5000000000001137
210
0.0
220
-0.0000000000000002
230
-1.0
 50
270.0
 51
359.999999999970612
  0
ARC
  5
7D42
  8
0
  6
CONTINUOUS
 62
     3
 10
163.4499999999999034
 20
297.9999999999997726
 30
0.0
 40
0.5000000000001421
210
0.0
220
-0.0000000000000002
230
-1.0
 50
0.0000000000130276
 51
89.9999999999837144
  0
LINE
  5
7D43
  8
0
  6
CONTINUOUS
 62
     3
 10
-161.9499999999999886
 20
298.4999999999998863
 30
-0.0000000000000663
 11
-161.9404288619739134
 21
298.4999999999998863
 31
-0.0000000000000663
210
0.0
220
1.0
230
-0.0000000000000002
  0
LINE
  5
7D44
  8
0
  6
CONTINUOUS
 62
     3
 10
-161.9499999999999886
 20
292.4999999999998863
 30
-0.0000000000000649
 11
-161.9459863658252061
 21
292.4999999999998863
 31
-0.0000000000000649
210
0.0
220
1.0
230
-0.0000000000000002
  0
LINE
  5
7D45
  8
0
  6
CONTINUOUS
 62
     3
 10
136.5
 20
1060.0
 30
-0.0000000000002354
 11
-136.5
 21
1060.0
 31
-0.0000000000002354
210
0.0
220
1.0
230
-0.0000000000000002
  0
LINE
  5
7D46
  8
0
  6
CONTINUOUS
 62
     3
 10
136.5000000000003126
 20
0.0
 30
0.0
 11
-136.5000000000003126
 21
0.0
 31
0.0
210
0.0
220
1.0
230
-0.0000000000000002
  0
LINE
  5
7D47
  8
0
  6
CONTINUOUS
 62
     3
 10
-136.500000000000199
 20
0.0
 30
0.0
 11
-136.500000000000199
 21
139.9999999999998863
 31
-0.0000000000000311
210
0.0
220
1.0
230
-0.0000000000000002
  0
LINE
  5
7D48
  8
0
  6
CONTINUOUS
 62
     3
 10
-136.500000000000199
 20
312.0
 30
-0.0000000000000693
 11
-136.500000000000199
 21
1060.0
 31
-0.0000000000002354
210
0.0
220
1.0
230
-0.0000000000000002
  0
LINE
  5
7D49
  8
0
  6
CONTINUOUS
 62
     3
 10
136.500000000000199
 20
0.0
 30
0.0
 11
136.500000000000199
 21
139.9999999999998863
 31
-0.0000000000000311
210
0.0
220
1.0
230
-0.0000000000000002
  0
LINE
  5
7D4A
  8
0
  6
CONTINUOUS
 62
     3
 10
136.500000000000199
 20
312.0
 30
-0.0000000000000693
 11
136.500000000000199
 21
1060.0
 31
-0.0000000000002354
210
0.0
220
1.0
230
-0.0000000000000002
  0
LINE
  5
7D4B
  8
0
  6
CONTINUOUS
 62
     3
 10
-161.9500000000003013
 20
312.0
 30
-0.0000000000000693
 11
161.9500000000003013
 21
312.0
 31
-0.0000000000000693
210
0.0
220
1.0
230
-0.0000000000000002
  0
LINE
  5
7D4C
  8
0
  6
CONTINUOUS
 62
     3
 10
-161.9500000000003013
 20
307.9999999999997726
 30
-0.0000000000000684
 11
161.9500000000003013
 21
307.9999999999997726
 31
-0.0000000000000684
210
0.0
220
1.0
230
-0.0000000000000002
  0
LINE
  5
7D4D
  8
0
  6
CONTINUOUS
 62
     3
 10
161.9500000000003013
 20
312.0
 30
-0.0000000000000693
 11
161.9500000000003013
 21
307.9999999999997726
 31
-0.0000000000000684
210
0.0
220
1.0
230
-0.0000000000000002
  0
LINE
  5
7D4E
  8
0
  6
CONTINUOUS
 62
     3
 10
-161.9500000000003013
 20
312.0
 30
-0.0000000000000693
 11
-161.9500000000003013
 21
307.9999999999997726
 31
-0.0000000000000684
210
0.0
220
1.0
230
-0.0000000000000002
  0
LINE
  5
7D4F
  8
0
  6
CONTINUOUS
 62
     3
 10
275.0000000000006821
 20
233.9999999999988916
 30
-0.000000000000052
 11
-274.9999999999997726
 21
234.0000000000007105
 31
-0.000000000000052
210
0.0
220
1.0
230
-0.0000000000000002
  0
LINE
  5
7D50
  8
0
  6
CONTINUOUS
 62
     3
 10
275.0000000000006821
 20
229.9999999999988916
 30
-0.0000000000000511
 11
-274.9999999999997726
 21
230.0000000000007105
 31
-0.0000000000000511
210
0.0
220
1.0
230
-0.0000000000000002
  0
LINE
  5
7D51
  8
0
  6
CONTINUOUS
 62
     3
 10
-274.9999999999997726
 20
230.0000000000007105
 30
-0.0000000000000511
 11
-274.9999999999997726
 21
234.0000000000007105
 31
-0.000000000000052
210
0.0
220
1.0
230
-0.0000000000000002
  0
LINE
  5
7D52
  8
0
  6
CONTINUOUS
 62
     3
 10
275.0000000000006821
 20
229.9999999999988916
 30
-0.0000000000000511
 11
275.0000000000006821
 21
233.9999999999988916
 31
-0.000000000000052
210
0.0
220
1.0
230
-0.0000000000000002
  0
POLYLINE
  8
0
  5
825E
  62
1
  66
     1
 10
0.000000
 20
0.000000
 30
0.000000
  70
     8
  0
VERTEX
  8
0
  5
825F
 10
-157.914
 20
295.650
 30
-6.56000e-14
  70
    32
  0
VERTEX
  8
0
  5
8260
 10
-157.914
 20
295.659
 30
-6.56041e-14
  70
    32
  0
VERTEX
  8
0
  5
8261
 10
-157.914
 20
295.668
 30
-6.56081e-14
  70
    32
  0
VERTEX
  8
0
  5
8262
 10
-157.914
 20
295.676
 30
-6.56120e-14
  70
    32
  0
VERTEX
  8
0
  5
8263
 10
-157.914
 20
295.685
 30
-6.56158e-14
  70
    32
  0
VERTEX
  8
0
  5
8264
 10
-157.914
 20
295.694
 30
-6.56195e-14
  70
    32
  0
VERTEX
  8
0
  5
8265
 10
-157.914
 20
295.703
 30
-6.56230e-14
  70
    32
  0
VERTEX
  8
0
  5
8266
 10
-157.914
 20
295.712
 30
-6.56265e-14
  70
    32
  0
VERTEX
  8
0
  5
8267
 10
-157.914
 20
295.720
 30
-6.56299e-14
  70
    32
  0
VERTEX
  8
0
  5
8268
 10
-157.914
 20
295.729
 30
-6.56332e-14
  70
    32
  0
VERTEX
  8
0
  5
8269
 10
-157.914
 20
295.738
 30
-6.56363e-14
  70
    32
  0
VERTEX
  8
0
  5
826A
 10
-157.915
 20
295.747
 30
-6.56394e-14
  70
    32
  0
VERTEX
  8
0
  5
826B
 10
-157.915
 20
295.756
 30
-6.56424e-14
  70
    32
  0
VERTEX
  8
0
  5
826C
 10
-157.915
 20
295.765
 30
-6.56453e-14
  70
    32
  0
VERTEX
  8
0
  5
826D
 10
-157.915
 20
295.774
 30
-6.56482e-14
  70
    32
  0
VERTEX
  8
0
  5
826E
 10
-157.915
 20
295.783
 30
-6.56509e-14
  70
    32
  0
VERTEX
  8
0
  5
826F
 10
-157.915
 20
295.791
 30
-6.56536e-14
  70
    32
  0
VERTEX
  8
0
  5
8270
 10
-157.915
 20
295.800
 30
-6.56562e-14
  70
    32
  0
VERTEX
  8
0
  5
8271
 10
-157.915
 20
295.809
 30
-6.56587e-14
  70
    32
  0
VERTEX
  8
0
  5
8272
 10
-157.915
 20
295.818
 30
-6.56611e-14
  70
    32
  0
VERTEX
  8
0
  5
8273
 10
-157.915
 20
295.827
 30
-6.56635e-14
  70
    32
  0
VERTEX
  8
0
  5
8274
 10
-157.915
 20
295.836
 30
-6.56658e-14
  70
    32
  0
VERTEX
  8
0
  5
8275
 10
-157.915
 20
295.845
 30
-6.56680e-14
  70
    32
  0
VERTEX
  8
0
  5
8276
 10
-157.915
 20
295.854
 30
-6.56702e-14
  70
    32
  0
VERTEX
  8
0
  5
8277
 10
-157.915
 20
295.863
 30
-6.56723e-14
  70
    32
  0
VERTEX
  8
0
  5
8278
 10
-157.915
 20
295.872
 30
-6.56744e-14
  70
    32
  0
VERTEX
  8
0
  5
8279
 10
-157.915
 20
295.881
 30
-6.56764e-14
  70
    32
  0
VERTEX
  8
0
  5
827A
 10
-157.915
 20
295.890
 30
-6.56783e-14
  70
    32
  0
VERTEX
  8
0
  5
827B
 10
-157.915
 20
295.899
 30
-6.56802e-14
  70
    32
  0
VERTEX
  8
0
  5
827C
 10
-157.915
 20
295.908
 30
-6.56821e-14
  70
    32
  0
VERTEX
  8
0
  5
827D
 10
-157.915
 20
295.917
 30
-6.56839e-14
  70
    32
  0
VERTEX
  8
0
  5
827E
 10
-157.915
 20
295.925
 30
-6.56856e-14
  70
    32
  0
VERTEX
  8
0
  5
827F
 10
-157.915
 20
295.934
 30
-6.56873e-14
  70
    32
  0
VERTEX
  8
0
  5
8280
 10
-157.915
 20
295.943
 30
-6.56890e-14
  70
    32
  0
VERTEX
  8
0
  5
8281
 10
-157.915
 20
295.952
 30
-6.56907e-14
  70
    32
  0
VERTEX
  8
0
  5
8282
 10
-157.915
 20
295.961
 30
-6.56923e-14
  70
    32
  0
VERTEX
  8
0
  5
8283
 10
-157.915
 20
295.970
 30
-6.56938e-14
  70
    32
  0
VERTEX
  8
0
  5
8284
 10
-157.915
 20
295.979
 30
-6.56954e-14
  70
    32
  0
VERTEX
  8
0
  5
8285
 10
-157.915
 20
295.988
 30
-6.56969e-14
  70
    32
  0
VERTEX
  8
0
  5
8286
 10
-157.915
 20
295.997
 30
-6.56984e-14
  70
    32
  0
VERTEX
  8
0
  5
8287
 10
-157.915
 20
296.006
 30
-6.56999e-14
  70
    32
  0
VERTEX
  8
0
  5
8288
 10
-157.915
 20
296.015
 30
-6.57014e-14
  70
    32
  0
VERTEX
  8
0
  5
8289
 10
-157.915
 20
296.024
 30
-6.57028e-14
  70
    32
  0
VERTEX
  8
0
  5
828A
 10
-157.915
 20
296.033
 30
-6.57042e-14
  70
    32
  0
VERTEX
  8
0
  5
828B
 10
-157.915
 20
296.042
 30
-6.57056e-14
  70
    32
  0
VERTEX
  8
0
  5
828C
 10
-157.915
 20
296.051
 30
-6.57070e-14
  70
    32
  0
VERTEX
  8
0
  5
828D
 10
-157.915
 20
296.060
 30
-6.57084e-14
  70
    32
  0
VERTEX
  8
0
  5
828E
 10
-157.915
 20
296.069
 30
-6.57098e-14
  70
    32
  0
VERTEX
  8
0
  5
828F
 10
-157.915
 20
296.079
 30
-6.57112e-14
  70
    32
  0
VERTEX
  8
0
  5
8290
 10
-157.915
 20
296.088
 30
-6.57126e-14
  70
    32
  0
VERTEX
  8
0
  5
8291
 10
-157.915
 20
296.097
 30
-6.57140e-14
  70
    32
  0
VERTEX
  8
0
  5
8292
 10
-157.915
 20
296.106
 30
-6.57154e-14
  70
    32
  0
VERTEX
  8
0
  5
8293
 10
-157.915
 20
296.115
 30
-6.57168e-14
  70
    32
  0
VERTEX
  8
0
  5
8294
 10
-157.915
 20
296.124
 30
-6.57182e-14
  70
    32
  0
VERTEX
  8
0
  5
8295
 10
-157.915
 20
296.133
 30
-6.57197e-14
  70
    32
  0
VERTEX
  8
0
  5
8296
 10
-157.915
 20
296.142
 30
-6.57211e-14
  70
    32
  0
VERTEX
  8
0
  5
8297
 10
-157.915
 20
296.151
 30
-6.57226e-14
  70
    32
  0
VERTEX
  8
0
  5
8298
 10
-157.915
 20
296.160
 30
-6.57241e-14
  70
    32
  0
VERTEX
  8
0
  5
8299
 10
-157.915
 20
296.169
 30
-6.57256e-14
  70
    32
  0
VERTEX
  8
0
  5
829A
 10
-157.915
 20
296.178
 30
-6.57271e-14
  70
    32
  0
VERTEX
  8
0
  5
829B
 10
-157.915
 20
296.187
 30
-6.57286e-14
  70
    32
  0
VERTEX
  8
0
  5
829C
 10
-157.915
 20
296.196
 30
-6.57302e-14
  70
    32
  0
VERTEX
  8
0
  5
829D
 10
-157.915
 20
296.205
 30
-6.57318e-14
  70
    32
  0
VERTEX
  8
0
  5
829E
 10
-157.915
 20
296.214
 30
-6.57335e-14
  70
    32
  0
VERTEX
  8
0
  5
829F
 10
-157.916
 20
296.223
 30
-6.57352e-14
  70
    32
  0
VERTEX
  8
0
  5
82A0
 10
-157.916
 20
296.232
 30
-6.57369e-14
  70
    32
  0
VERTEX
  8
0
  5
82A1
 10
-157.916
 20
296.241
 30
-6.57387e-14
  70
    32
  0
VERTEX
  8
0
  5
82A2
 10
-157.916
 20
296.250
 30
-6.57405e-14
  70
    32
  0
VERTEX
  8
0
  5
82A3
 10
-157.916
 20
296.259
 30
-6.57423e-14
  70
    32
  0
VERTEX
  8
0
  5
82A4
 10
-157.916
 20
296.268
 30
-6.57442e-14
  70
    32
  0
VERTEX
  8
0
  5
82A5
 10
-157.916
 20
296.277
 30
-6.57462e-14
  70
    32
  0
VERTEX
  8
0
  5
82A6
 10
-157.916
 20
296.286
 30
-6.57482e-14
  70
    32
  0
VERTEX
  8
0
  5
82A7
 10
-157.916
 20
296.295
 30
-6.57503e-14
  70
    32
  0
VERTEX
  8
0
  5
82A8
 10
-157.916
 20
296.304
 30
-6.57524e-14
  70
    32
  0
VERTEX
  8
0
  5
82A9
 10
-157.916
 20
296.313
 30
-6.57546e-14
  70
    32
  0
VERTEX
  8
0
  5
82AA
 10
-157.916
 20
296.322
 30
-6.57568e-14
  70
    32
  0
VERTEX
  8
0
  5
82AB
 10
-157.916
 20
296.331
 30
-6.57591e-14
  70
    32
  0
VERTEX
  8
0
  5
82AC
 10
-157.916
 20
296.340
 30
-6.57614e-14
  70
    32
  0
VERTEX
  8
0
  5
82AD
 10
-157.916
 20
296.349
 30
-6.57638e-14
  70
    32
  0
VERTEX
  8
0
  5
82AE
 10
-157.916
 20
296.358
 30
-6.57662e-14
  70
    32
  0
VERTEX
  8
0
  5
82AF
 10
-157.916
 20
296.367
 30
-6.57687e-14
  70
    32
  0
VERTEX
  8
0
  5
82B0
 10
-157.916
 20
296.376
 30
-6.57713e-14
  70
    32
  0
VERTEX
  8
0
  5
82B1
 10
-157.916
 20
296.385
 30
-6.57738e-14
  70
    32
  0
VERTEX
  8
0
  5
82B2
 10
-157.916
 20
296.395
 30
-6.57764e-14
  70
    32
  0
VERTEX
  8
0
  5
82B3
 10
-157.916
 20
296.404
 30
-6.57791e-14
  70
    32
  0
VERTEX
  8
0
  5
82B4
 10
-157.916
 20
296.413
 30
-6.57818e-14
  70
    32
  0
VERTEX
  8
0
  5
82B5
 10
-157.916
 20
296.422
 30
-6.57845e-14
  70
    32
  0
VERTEX
  8
0
  5
82B6
 10
-157.916
 20
296.431
 30
-6.57873e-14
  70
    32
  0
VERTEX
  8
0
  5
82B7
 10
-157.916
 20
296.440
 30
-6.57901e-14
  70
    32
  0
VERTEX
  8
0
  5
82B8
 10
-157.916
 20
296.448
 30
-6.57929e-14
  70
    32
  0
VERTEX
  8
0
  5
82B9
 10
-157.917
 20
296.457
 30
-6.57958e-14
  70
    32
  0
VERTEX
  8
0
  5
82BA
 10
-157.917
 20
296.466
 30
-6.57986e-14
  70
    32
  0
VERTEX
  8
0
  5
82BB
 10
-157.917
 20
296.475
 30
-6.58016e-14
  70
    32
  0
VERTEX
  8
0
  5
82BC
 10
-157.917
 20
296.484
 30
-6.58045e-14
  70
    32
  0
VERTEX
  8
0
  5
82BD
 10
-157.917
 20
296.493
 30
-6.58075e-14
  70
    32
  0
VERTEX
  8
0
  5
82BE
 10
-157.917
 20
296.502
 30
-6.58105e-14
  70
    32
  0
VERTEX
  8
0
  5
82BF
 10
-157.917
 20
296.511
 30
-6.58135e-14
  70
    32
  0
VERTEX
  8
0
  5
82C0
 10
-157.917
 20
296.520
 30
-6.58165e-14
  70
    32
  0
VERTEX
  8
0
  5
82C1
 10
-157.917
 20
296.529
 30
-6.58195e-14
  70
    32
  0
VERTEX
  8
0
  5
82C2
 10
-157.917
 20
296.538
 30
-6.58226e-14
  70
    32
  0
VERTEX
  8
0
  5
82C3
 10
-157.917
 20
296.547
 30
-6.58257e-14
  70
    32
  0
VERTEX
  8
0
  5
82C4
 10
-157.917
 20
296.556
 30
-6.58288e-14
  70
    32
  0
VERTEX
  8
0
  5
82C5
 10
-157.917
 20
296.565
 30
-6.58319e-14
  70
    32
  0
VERTEX
  8
0
  5
82C6
 10
-157.917
 20
296.574
 30
-6.58350e-14
  70
    32
  0
VERTEX
  8
0
  5
82C7
 10
-157.917
 20
296.583
 30
-6.58381e-14
  70
    32
  0
VERTEX
  8
0
  5
82C8
 10
-157.917
 20
296.592
 30
-6.58412e-14
  70
    32
  0
VERTEX
  8
0
  5
82C9
 10
-157.917
 20
296.601
 30
-6.58443e-14
  70
    32
  0
VERTEX
  8
0
  5
82CA
 10
-157.917
 20
296.610
 30
-6.58475e-14
  70
    32
  0
VERTEX
  8
0
  5
82CB
 10
-157.917
 20
296.619
 30
-6.58506e-14
  70
    32
  0
VERTEX
  8
0
  5
82CC
 10
-157.917
 20
296.627
 30
-6.58537e-14
  70
    32
  0
VERTEX
  8
0
  5
82CD
 10
-157.918
 20
296.636
 30
-6.58568e-14
  70
    32
  0
VERTEX
  8
0
  5
82CE
 10
-157.918
 20
296.645
 30
-6.58600e-14
  70
    32
  0
VERTEX
  8
0
  5
82CF
 10
-157.918
 20
296.654
 30
-6.58631e-14
  70
    32
  0
VERTEX
  8
0
  5
82D0
 10
-157.918
 20
296.663
 30
-6.58662e-14
  70
    32
  0
VERTEX
  8
0
  5
82D1
 10
-157.918
 20
296.672
 30
-6.58693e-14
  70
    32
  0
VERTEX
  8
0
  5
82D2
 10
-157.918
 20
296.681
 30
-6.58724e-14
  70
    32
  0
VERTEX
  8
0
  5
82D3
 10
-157.918
 20
296.690
 30
-6.58755e-14
  70
    32
  0
VERTEX
  8
0
  5
82D4
 10
-157.918
 20
296.698
 30
-6.58786e-14
  70
    32
  0
VERTEX
  8
0
  5
82D5
 10
-157.918
 20
296.707
 30
-6.58816e-14
  70
    32
  0
VERTEX
  8
0
  5
82D6
 10
-157.918
 20
296.716
 30
-6.58846e-14
  70
    32
  0
VERTEX
  8
0
  5
82D7
 10
-157.918
 20
296.725
 30
-6.58877e-14
  70
    32
  0
VERTEX
  8
0
  5
82D8
 10
-157.918
 20
296.734
 30
-6.58907e-14
  70
    32
  0
VERTEX
  8
0
  5
82D9
 10
-157.918
 20
296.742
 30
-6.58936e-14
  70
    32
  0
VERTEX
  8
0
  5
82DA
 10
-157.918
 20
296.751
 30
-6.58966e-14
  70
    32
  0
VERTEX
  8
0
  5
82DB
 10
-157.918
 20
296.760
 30
-6.58995e-14
  70
    32
  0
VERTEX
  8
0
  5
82DC
 10
-157.918
 20
296.769
 30
-6.59024e-14
  70
    32
  0
VERTEX
  8
0
  5
82DD
 10
-157.918
 20
296.778
 30
-6.59053e-14
  70
    32
  0
VERTEX
  8
0
  5
82DE
 10
-157.919
 20
296.786
 30
-6.59082e-14
  70
    32
  0
VERTEX
  8
0
  5
82DF
 10
-157.919
 20
296.795
 30
-6.59110e-14
  70
    32
  0
VERTEX
  8
0
  5
82E0
 10
-157.919
 20
296.804
 30
-6.59138e-14
  70
    32
  0
VERTEX
  8
0
  5
82E1
 10
-157.919
 20
296.813
 30
-6.59165e-14
  70
    32
  0
VERTEX
  8
0
  5
82E2
 10
-157.919
 20
296.821
 30
-6.59192e-14
  70
    32
  0
VERTEX
  8
0
  5
82E3
 10
-157.919
 20
296.830
 30
-6.59219e-14
  70
    32
  0
VERTEX
  8
0
  5
82E4
 10
-157.919
 20
296.839
 30
-6.59245e-14
  70
    32
  0
VERTEX
  8
0
  5
82E5
 10
-157.919
 20
296.848
 30
-6.59271e-14
  70
    32
  0
VERTEX
  8
0
  5
82E6
 10
-157.919
 20
296.856
 30
-6.59297e-14
  70
    32
  0
VERTEX
  8
0
  5
82E7
 10
-157.919
 20
296.865
 30
-6.59322e-14
  70
    32
  0
VERTEX
  8
0
  5
82E8
 10
-157.919
 20
296.874
 30
-6.59347e-14
  70
    32
  0
VERTEX
  8
0
  5
82E9
 10
-157.919
 20
296.882
 30
-6.59371e-14
  70
    32
  0
VERTEX
  8
0
  5
82EA
 10
-157.919
 20
296.891
 30
-6.59395e-14
  70
    32
  0
VERTEX
  8
0
  5
82EB
 10
-157.919
 20
296.900
 30
-6.59418e-14
  70
    32
  0
VERTEX
  8
0
  5
82EC
 10
-157.919
 20
296.908
 30
-6.59440e-14
  70
    32
  0
VERTEX
  8
0
  5
82ED
 10
-157.920
 20
296.917
 30
-6.59463e-14
  70
    32
  0
VERTEX
  8
0
  5
82EE
 10
-157.920
 20
296.926
 30
-6.59484e-14
  70
    32
  0
VERTEX
  8
0
  5
82EF
 10
-157.920
 20
296.934
 30
-6.59505e-14
  70
    32
  0
VERTEX
  8
0
  5
82F0
 10
-157.920
 20
296.943
 30
-6.59526e-14
  70
    32
  0
VERTEX
  8
0
  5
82F1
 10
-157.920
 20
296.951
 30
-6.59546e-14
  70
    32
  0
VERTEX
  8
0
  5
82F2
 10
-157.920
 20
296.960
 30
-6.59565e-14
  70
    32
  0
VERTEX
  8
0
  5
82F3
 10
-157.920
 20
296.969
 30
-6.59584e-14
  70
    32
  0
VERTEX
  8
0
  5
82F4
 10
-157.920
 20
296.977
 30
-6.59602e-14
  70
    32
  0
VERTEX
  8
0
  5
82F5
 10
-157.920
 20
296.986
 30
-6.59620e-14
  70
    32
  0
VERTEX
  8
0
  5
82F6
 10
-157.920
 20
296.994
 30
-6.59637e-14
  70
    32
  0
VERTEX
  8
0
  5
82F7
 10
-157.920
 20
297.003
 30
-6.59654e-14
  70
    32
  0
VERTEX
  8
0
  5
82F8
 10
-157.920
 20
297.011
 30
-6.59670e-14
  70
    32
  0
VERTEX
  8
0
  5
82F9
 10
-157.920
 20
297.020
 30
-6.59686e-14
  70
    32
  0
VERTEX
  8
0
  5
82FA
 10
-157.920
 20
297.028
 30
-6.59702e-14
  70
    32
  0
VERTEX
  8
0
  5
82FB
 10
-157.921
 20
297.037
 30
-6.59717e-14
  70
    32
  0
VERTEX
  8
0
  5
82FC
 10
-157.921
 20
297.045
 30
-6.59732e-14
  70
    32
  0
VERTEX
  8
0
  5
82FD
 10
-157.921
 20
297.054
 30
-6.59746e-14
  70
    32
  0
VERTEX
  8
0
  5
82FE
 10
-157.921
 20
297.062
 30
-6.59760e-14
  70
    32
  0
VERTEX
  8
0
  5
82FF
 10
-157.921
 20
297.071
 30
-6.59774e-14
  70
    32
  0
VERTEX
  8
0
  5
8300
 10
-157.921
 20
297.079
 30
-6.59787e-14
  70
    32
  0
VERTEX
  8
0
  5
8301
 10
-157.921
 20
297.087
 30
-6.59801e-14
  70
    32
  0
VERTEX
  8
0
  5
8302
 10
-157.921
 20
297.096
 30
-6.59813e-14
  70
    32
  0
VERTEX
  8
0
  5
8303
 10
-157.921
 20
297.104
 30
-6.59826e-14
  70
    32
  0
VERTEX
  8
0
  5
8304
 10
-157.921
 20
297.113
 30
-6.59838e-14
  70
    32
  0
VERTEX
  8
0
  5
8305
 10
-157.921
 20
297.121
 30
-6.59850e-14
  70
    32
  0
VERTEX
  8
0
  5
8306
 10
-157.921
 20
297.129
 30
-6.59862e-14
  70
    32
  0
VERTEX
  8
0
  5
8307
 10
-157.921
 20
297.138
 30
-6.59874e-14
  70
    32
  0
VERTEX
  8
0
  5
8308
 10
-157.922
 20
297.146
 30
-6.59885e-14
  70
    32
  0
VERTEX
  8
0
  5
8309
 10
-157.922
 20
297.154
 30
-6.59896e-14
  70
    32
  0
VERTEX
  8
0
  5
830A
 10
-157.922
 20
297.163
 30
-6.59908e-14
  70
    32
  0
VERTEX
  8
0
  5
830B
 10
-157.922
 20
297.171
 30
-6.59919e-14
  70
    32
  0
VERTEX
  8
0
  5
830C
 10
-157.922
 20
297.179
 30
-6.59929e-14
  70
    32
  0
VERTEX
  8
0
  5
830D
 10
-157.922
 20
297.188
 30
-6.59940e-14
  70
    32
  0
VERTEX
  8
0
  5
830E
 10
-157.922
 20
297.196
 30
-6.59951e-14
  70
    32
  0
VERTEX
  8
0
  5
830F
 10
-157.922
 20
297.204
 30
-6.59961e-14
  70
    32
  0
VERTEX
  8
0
  5
8310
 10
-157.922
 20
297.212
 30
-6.59972e-14
  70
    32
  0
VERTEX
  8
0
  5
8311
 10
-157.922
 20
297.221
 30
-6.59982e-14
  70
    32
  0
VERTEX
  8
0
  5
8312
 10
-157.922
 20
297.229
 30
-6.59993e-14
  70
    32
  0
VERTEX
  8
0
  5
8313
 10
-157.922
 20
297.237
 30
-6.60003e-14
  70
    32
  0
VERTEX
  8
0
  5
8314
 10
-157.923
 20
297.245
 30
-6.60014e-14
  70
    32
  0
VERTEX
  8
0
  5
8315
 10
-157.923
 20
297.253
 30
-6.60024e-14
  70
    32
  0
VERTEX
  8
0
  5
8316
 10
-157.923
 20
297.261
 30
-6.60035e-14
  70
    32
  0
VERTEX
  8
0
  5
8317
 10
-157.923
 20
297.270
 30
-6.60045e-14
  70
    32
  0
VERTEX
  8
0
  5
8318
 10
-157.923
 20
297.278
 30
-6.60056e-14
  70
    32
  0
VERTEX
  8
0
  5
8319
 10
-157.923
 20
297.286
 30
-6.60067e-14
  70
    32
  0
VERTEX
  8
0
  5
831A
 10
-157.923
 20
297.294
 30
-6.60077e-14
  70
    32
  0
VERTEX
  8
0
  5
831B
 10
-157.923
 20
297.302
 30
-6.60088e-14
  70
    32
  0
VERTEX
  8
0
  5
831C
 10
-157.923
 20
297.310
 30
-6.60099e-14
  70
    32
  0
VERTEX
  8
0
  5
831D
 10
-157.923
 20
297.318
 30
-6.60111e-14
  70
    32
  0
VERTEX
  8
0
  5
831E
 10
-157.923
 20
297.326
 30
-6.60122e-14
  70
    32
  0
VERTEX
  8
0
  5
831F
 10
-157.923
 20
297.334
 30
-6.60134e-14
  70
    32
  0
VERTEX
  8
0
  5
8320
 10
-157.924
 20
297.342
 30
-6.60145e-14
  70
    32
  0
VERTEX
  8
0
  5
8321
 10
-157.924
 20
297.350
 30
-6.60157e-14
  70
    32
  0
VERTEX
  8
0
  5
8322
 10
-157.924
 20
297.358
 30
-6.60169e-14
  70
    32
  0
VERTEX
  8
0
  5
8323
 10
-157.924
 20
297.366
 30
-6.60182e-14
  70
    32
  0
VERTEX
  8
0
  5
8324
 10
-157.924
 20
297.374
 30
-6.60195e-14
  70
    32
  0
VERTEX
  8
0
  5
8325
 10
-157.924
 20
297.382
 30
-6.60208e-14
  70
    32
  0
VERTEX
  8
0
  5
8326
 10
-157.924
 20
297.390
 30
-6.60221e-14
  70
    32
  0
VERTEX
  8
0
  5
8327
 10
-157.924
 20
297.398
 30
-6.60235e-14
  70
    32
  0
VERTEX
  8
0
  5
8328
 10
-157.924
 20
297.406
 30
-6.60248e-14
  70
    32
  0
VERTEX
  8
0
  5
8329
 10
-157.924
 20
297.414
 30
-6.60263e-14
  70
    32
  0
VERTEX
  8
0
  5
832A
 10
-157.924
 20
297.421
 30
-6.60277e-14
  70
    32
  0
VERTEX
  8
0
  5
832B
 10
-157.924
 20
297.429
 30
-6.60292e-14
  70
    32
  0
VERTEX
  8
0
  5
832C
 10
-157.925
 20
297.437
 30
-6.60308e-14
  70
    32
  0
VERTEX
  8
0
  5
832D
 10
-157.925
 20
297.445
 30
-6.60324e-14
  70
    32
  0
VERTEX
  8
0
  5
832E
 10
-157.925
 20
297.453
 30
-6.60340e-14
  70
    32
  0
VERTEX
  8
0
  5
832F
 10
-157.925
 20
297.460
 30
-6.60357e-14
  70
    32
  0
VERTEX
  8
0
  5
8330
 10
-157.925
 20
297.468
 30
-6.60374e-14
  70
    32
  0
VERTEX
  8
0
  5
8331
 10
-157.925
 20
297.476
 30
-6.60391e-14
  70
    32
  0
VERTEX
  8
0
  5
8332
 10
-157.925
 20
297.484
 30
-6.60409e-14
  70
    32
  0
VERTEX
  8
0
  5
8333
 10
-157.925
 20
297.491
 30
-6.60428e-14
  70
    32
  0
VERTEX
  8
0
  5
8334
 10
-157.925
 20
297.499
 30
-6.60447e-14
  70
    32
  0
VERTEX
  8
0
  5
8335
 10
-157.925
 20
297.507
 30
-6.60467e-14
  70
    32
  0
VERTEX
  8
0
  5
8336
 10
-157.925
 20
297.514
 30
-6.60487e-14
  70
    32
  0
VERTEX
  8
0
  5
8337
 10
-157.926
 20
297.522
 30
-6.60508e-14
  70
    32
  0
VERTEX
  8
0
  5
8338
 10
-157.926
 20
297.530
 30
-6.60528e-14
  70
    32
  0
VERTEX
  8
0
  5
8339
 10
-157.926
 20
297.537
 30
-6.60548e-14
  70
    32
  0
VERTEX
  8
0
  5
833A
 10
-157.926
 20
297.545
 30
-6.60567e-14
  70
    32
  0
VERTEX
  8
0
  5
833B
 10
-157.926
 20
297.552
 30
-6.60586e-14
  70
    32
  0
VERTEX
  8
0
  5
833C
 10
-157.926
 20
297.560
 30
-6.60604e-14
  70
    32
  0
VERTEX
  8
0
  5
833D
 10
-157.926
 20
297.567
 30
-6.60622e-14
  70
    32
  0
VERTEX
  8
0
  5
833E
 10
-157.926
 20
297.575
 30
-6.60639e-14
  70
    32
  0
VERTEX
  8
0
  5
833F
 10
-157.926
 20
297.582
 30
-6.60656e-14
  70
    32
  0
VERTEX
  8
0
  5
8340
 10
-157.926
 20
297.590
 30
-6.60672e-14
  70
    32
  0
VERTEX
  8
0
  5
8341
 10
-157.926
 20
297.597
 30
-6.60688e-14
  70
    32
  0
VERTEX
  8
0
  5
8342
 10
-157.927
 20
297.605
 30
-6.60704e-14
  70
    32
  0
VERTEX
  8
0
  5
8343
 10
-157.927
 20
297.612
 30
-6.60719e-14
  70
    32
  0
VERTEX
  8
0
  5
8344
 10
-157.927
 20
297.620
 30
-6.60734e-14
  70
    32
  0
VERTEX
  8
0
  5
8345
 10
-157.927
 20
297.627
 30
-6.60748e-14
  70
    32
  0
VERTEX
  8
0
  5
8346
 10
-157.927
 20
297.634
 30
-6.60762e-14
  70
    32
  0
VERTEX
  8
0
  5
8347
 10
-157.927
 20
297.642
 30
-6.60776e-14
  70
    32
  0
VERTEX
  8
0
  5
8348
 10
-157.927
 20
297.649
 30
-6.60789e-14
  70
    32
  0
VERTEX
  8
0
  5
8349
 10
-157.927
 20
297.656
 30
-6.60802e-14
  70
    32
  0
VERTEX
  8
0
  5
834A
 10
-157.927
 20
297.664
 30
-6.60815e-14
  70
    32
  0
VERTEX
  8
0
  5
834B
 10
-157.927
 20
297.671
 30
-6.60827e-14
  70
    32
  0
VERTEX
  8
0
  5
834C
 10
-157.927
 20
297.678
 30
-6.60840e-14
  70
    32
  0
VERTEX
  8
0
  5
834D
 10
-157.928
 20
297.686
 30
-6.60852e-14
  70
    32
  0
VERTEX
  8
0
  5
834E
 10
-157.928
 20
297.693
 30
-6.60864e-14
  70
    32
  0
VERTEX
  8
0
  5
834F
 10
-157.928
 20
297.700
 30
-6.60875e-14
  70
    32
  0
VERTEX
  8
0
  5
8350
 10
-157.928
 20
297.707
 30
-6.60887e-14
  70
    32
  0
VERTEX
  8
0
  5
8351
 10
-157.928
 20
297.714
 30
-6.60898e-14
  70
    32
  0
VERTEX
  8
0
  5
8352
 10
-157.928
 20
297.721
 30
-6.60909e-14
  70
    32
  0
VERTEX
  8
0
  5
8353
 10
-157.928
 20
297.729
 30
-6.60920e-14
  70
    32
  0
VERTEX
  8
0
  5
8354
 10
-157.928
 20
297.736
 30
-6.60931e-14
  70
    32
  0
VERTEX
  8
0
  5
8355
 10
-157.928
 20
297.743
 30
-6.60941e-14
  70
    32
  0
VERTEX
  8
0
  5
8356
 10
-157.928
 20
297.750
 30
-6.60952e-14
  70
    32
  0
VERTEX
  8
0
  5
8357
 10
-157.929
 20
297.757
 30
-6.60963e-14
  70
    32
  0
VERTEX
  8
0
  5
8358
 10
-157.929
 20
297.764
 30
-6.60973e-14
  70
    32
  0
VERTEX
  8
0
  5
8359
 10
-157.929
 20
297.771
 30
-6.60984e-14
  70
    32
  0
VERTEX
  8
0
  5
835A
 10
-157.929
 20
297.778
 30
-6.60994e-14
  70
    32
  0
VERTEX
  8
0
  5
835B
 10
-157.929
 20
297.785
 30
-6.61005e-14
  70
    32
  0
VERTEX
  8
0
  5
835C
 10
-157.929
 20
297.792
 30
-6.61015e-14
  70
    32
  0
VERTEX
  8
0
  5
835D
 10
-157.929
 20
297.799
 30
-6.61025e-14
  70
    32
  0
VERTEX
  8
0
  5
835E
 10
-157.929
 20
297.806
 30
-6.61036e-14
  70
    32
  0
VERTEX
  8
0
  5
835F
 10
-157.929
 20
297.813
 30
-6.61047e-14
  70
    32
  0
VERTEX
  8
0
  5
8360
 10
-157.929
 20
297.819
 30
-6.61057e-14
  70
    32
  0
VERTEX
  8
0
  5
8361
 10
-157.929
 20
297.826
 30
-6.61068e-14
  70
    32
  0
VERTEX
  8
0
  5
8362
 10
-157.930
 20
297.833
 30
-6.61079e-14
  70
    32
  0
VERTEX
  8
0
  5
8363
 10
-157.930
 20
297.840
 30
-6.61090e-14
  70
    32
  0
VERTEX
  8
0
  5
8364
 10
-157.930
 20
297.847
 30
-6.61101e-14
  70
    32
  0
VERTEX
  8
0
  5
8365
 10
-157.930
 20
297.853
 30
-6.61112e-14
  70
    32
  0
VERTEX
  8
0
  5
8366
 10
-157.930
 20
297.860
 30
-6.61123e-14
  70
    32
  0
VERTEX
  8
0
  5
8367
 10
-157.930
 20
297.867
 30
-6.61135e-14
  70
    32
  0
VERTEX
  8
0
  5
8368
 10
-157.930
 20
297.874
 30
-6.61147e-14
  70
    32
  0
VERTEX
  8
0
  5
8369
 10
-157.930
 20
297.880
 30
-6.61159e-14
  70
    32
  0
VERTEX
  8
0
  5
836A
 10
-157.930
 20
297.887
 30
-6.61171e-14
  70
    32
  0
VERTEX
  8
0
  5
836B
 10
-157.930
 20
297.894
 30
-6.61183e-14
  70
    32
  0
VERTEX
  8
0
  5
836C
 10
-157.931
 20
297.900
 30
-6.61196e-14
  70
    32
  0
VERTEX
  8
0
  5
836D
 10
-157.931
 20
297.907
 30
-6.61209e-14
  70
    32
  0
VERTEX
  8
0
  5
836E
 10
-157.931
 20
297.913
 30
-6.61223e-14
  70
    32
  0
VERTEX
  8
0
  5
836F
 10
-157.931
 20
297.920
 30
-6.61236e-14
  70
    32
  0
VERTEX
  8
0
  5
8370
 10
-157.931
 20
297.926
 30
-6.61250e-14
  70
    32
  0
VERTEX
  8
0
  5
8371
 10
-157.931
 20
297.933
 30
-6.61265e-14
  70
    32
  0
VERTEX
  8
0
  5
8372
 10
-157.931
 20
297.939
 30
-6.61279e-14
  70
    32
  0
VERTEX
  8
0
  5
8373
 10
-157.931
 20
297.946
 30
-6.61294e-14
  70
    32
  0
VERTEX
  8
0
  5
8374
 10
-157.931
 20
297.952
 30
-6.61310e-14
  70
    32
  0
VERTEX
  8
0
  5
8375
 10
-157.931
 20
297.959
 30
-6.61326e-14
  70
    32
  0
VERTEX
  8
0
  5
8376
 10
-157.931
 20
297.965
 30
-6.61342e-14
  70
    32
  0
VERTEX
  8
0
  5
8377
 10
-157.932
 20
297.972
 30
-6.61359e-14
  70
    32
  0
VERTEX
  8
0
  5
8378
 10
-157.932
 20
297.978
 30
-6.61376e-14
  70
    32
  0
VERTEX
  8
0
  5
8379
 10
-157.932
 20
297.984
 30
-6.61394e-14
  70
    32
  0
VERTEX
  8
0
  5
837A
 10
-157.932
 20
297.991
 30
-6.61412e-14
  70
    32
  0
VERTEX
  8
0
  5
837B
 10
-157.932
 20
297.997
 30
-6.61430e-14
  70
    32
  0
VERTEX
  8
0
  5
837C
 10
-157.932
 20
298.003
 30
-6.61450e-14
  70
    32
  0
VERTEX
  8
0
  5
837D
 10
-157.932
 20
298.009
 30
-6.61469e-14
  70
    32
  0
VERTEX
  8
0
  5
837E
 10
-157.932
 20
298.016
 30
-6.61490e-14
  70
    32
  0
VERTEX
  8
0
  5
837F
 10
-157.932
 20
298.022
 30
-6.61510e-14
  70
    32
  0
VERTEX
  8
0
  5
8380
 10
-157.932
 20
298.028
 30
-6.61531e-14
  70
    32
  0
VERTEX
  8
0
  5
8381
 10
-157.932
 20
298.034
 30
-6.61550e-14
  70
    32
  0
VERTEX
  8
0
  5
8382
 10
-157.933
 20
298.040
 30
-6.61570e-14
  70
    32
  0
VERTEX
  8
0
  5
8383
 10
-157.933
 20
298.047
 30
-6.61588e-14
  70
    32
  0
VERTEX
  8
0
  5
8384
 10
-157.933
 20
298.053
 30
-6.61606e-14
  70
    32
  0
VERTEX
  8
0
  5
8385
 10
-157.933
 20
298.059
 30
-6.61624e-14
  70
    32
  0
VERTEX
  8
0
  5
8386
 10
-157.933
 20
298.065
 30
-6.61641e-14
  70
    32
  0
VERTEX
  8
0
  5
8387
 10
-157.933
 20
298.071
 30
-6.61658e-14
  70
    32
  0
VERTEX
  8
0
  5
8388
 10
-157.933
 20
298.077
 30
-6.61674e-14
  70
    32
  0
VERTEX
  8
0
  5
8389
 10
-157.933
 20
298.083
 30
-6.61690e-14
  70
    32
  0
VERTEX
  8
0
  5
838A
 10
-157.933
 20
298.089
 30
-6.61706e-14
  70
    32
  0
VERTEX
  8
0
  5
838B
 10
-157.933
 20
298.096
 30
-6.61721e-14
  70
    32
  0
VERTEX
  8
0
  5
838C
 10
-157.933
 20
298.102
 30
-6.61735e-14
  70
    32
  0
VERTEX
  8
0
  5
838D
 10
-157.934
 20
298.108
 30
-6.61750e-14
  70
    32
  0
VERTEX
  8
0
  5
838E
 10
-157.934
 20
298.114
 30
-6.61764e-14
  70
    32
  0
VERTEX
  8
0
  5
838F
 10
-157.934
 20
298.120
 30
-6.61777e-14
  70
    32
  0
VERTEX
  8
0
  5
8390
 10
-157.934
 20
298.126
 30
-6.61791e-14
  70
    32
  0
VERTEX
  8
0
  5
8391
 10
-157.934
 20
298.132
 30
-6.61804e-14
  70
    32
  0
VERTEX
  8
0
  5
8392
 10
-157.934
 20
298.138
 30
-6.61817e-14
  70
    32
  0
VERTEX
  8
0
  5
8393
 10
-157.934
 20
298.144
 30
-6.61829e-14
  70
    32
  0
VERTEX
  8
0
  5
8394
 10
-157.934
 20
298.150
 30
-6.61841e-14
  70
    32
  0
VERTEX
  8
0
  5
8395
 10
-157.934
 20
298.156
 30
-6.61853e-14
  70
    32
  0
VERTEX
  8
0
  5
8396
 10
-157.934
 20
298.161
 30
-6.61865e-14
  70
    32
  0
VERTEX
  8
0
  5
8397
 10
-157.935
 20
298.167
 30
-6.61877e-14
  70
    32
  0
VERTEX
  8
0
  5
8398
 10
-157.935
 20
298.173
 30
-6.61888e-14
  70
    32
  0
VERTEX
  8
0
  5
8399
 10
-157.935
 20
298.179
 30
-6.61899e-14
  70
    32
  0
VERTEX
  8
0
  5
839A
 10
-157.935
 20
298.185
 30
-6.61910e-14
  70
    32
  0
VERTEX
  8
0
  5
839B
 10
-157.935
 20
298.191
 30
-6.61921e-14
  70
    32
  0
VERTEX
  8
0
  5
839C
 10
-157.935
 20
298.197
 30
-6.61932e-14
  70
    32
  0
VERTEX
  8
0
  5
839D
 10
-157.935
 20
298.203
 30
-6.61943e-14
  70
    32
  0
VERTEX
  8
0
  5
839E
 10
-157.935
 20
298.208
 30
-6.61953e-14
  70
    32
  0
VERTEX
  8
0
  5
839F
 10
-157.935
 20
298.214
 30
-6.61964e-14
  70
    32
  0
VERTEX
  8
0
  5
83A0
 10
-157.935
 20
298.220
 30
-6.61975e-14
  70
    32
  0
VERTEX
  8
0
  5
83A1
 10
-157.935
 20
298.226
 30
-6.61985e-14
  70
    32
  0
VERTEX
  8
0
  5
83A2
 10
-157.936
 20
298.232
 30
-6.61995e-14
  70
    32
  0
VERTEX
  8
0
  5
83A3
 10
-157.936
 20
298.237
 30
-6.62006e-14
  70
    32
  0
VERTEX
  8
0
  5
83A4
 10
-157.936
 20
298.243
 30
-6.62016e-14
  70
    32
  0
VERTEX
  8
0
  5
83A5
 10
-157.936
 20
298.249
 30
-6.62027e-14
  70
    32
  0
VERTEX
  8
0
  5
83A6
 10
-157.936
 20
298.254
 30
-6.62037e-14
  70
    32
  0
VERTEX
  8
0
  5
83A7
 10
-157.936
 20
298.260
 30
-6.62048e-14
  70
    32
  0
VERTEX
  8
0
  5
83A8
 10
-157.936
 20
298.266
 30
-6.62059e-14
  70
    32
  0
VERTEX
  8
0
  5
83A9
 10
-157.936
 20
298.271
 30
-6.62069e-14
  70
    32
  0
VERTEX
  8
0
  5
83AA
 10
-157.936
 20
298.277
 30
-6.62080e-14
  70
    32
  0
VERTEX
  8
0
  5
83AB
 10
-157.936
 20
298.283
 30
-6.62091e-14
  70
    32
  0
VERTEX
  8
0
  5
83AC
 10
-157.937
 20
298.288
 30
-6.62102e-14
  70
    32
  0
VERTEX
  8
0
  5
83AD
 10
-157.937
 20
298.294
 30
-6.62113e-14
  70
    32
  0
VERTEX
  8
0
  5
83AE
 10
-157.937
 20
298.300
 30
-6.62125e-14
  70
    32
  0
VERTEX
  8
0
  5
83AF
 10
-157.937
 20
298.305
 30
-6.62136e-14
  70
    32
  0
VERTEX
  8
0
  5
83B0
 10
-157.937
 20
298.311
 30
-6.62148e-14
  70
    32
  0
VERTEX
  8
0
  5
83B1
 10
-157.937
 20
298.316
 30
-6.62160e-14
  70
    32
  0
VERTEX
  8
0
  5
83B2
 10
-157.937
 20
298.322
 30
-6.62173e-14
  70
    32
  0
VERTEX
  8
0
  5
83B3
 10
-157.937
 20
298.327
 30
-6.62185e-14
  70
    32
  0
VERTEX
  8
0
  5
83B4
 10
-157.937
 20
298.333
 30
-6.62198e-14
  70
    32
  0
VERTEX
  8
0
  5
83B5
 10
-157.937
 20
298.338
 30
-6.62211e-14
  70
    32
  0
VERTEX
  8
0
  5
83B6
 10
-157.937
 20
298.344
 30
-6.62224e-14
  70
    32
  0
VERTEX
  8
0
  5
83B7
 10
-157.938
 20
298.349
 30
-6.62238e-14
  70
    32
  0
VERTEX
  8
0
  5
83B8
 10
-157.938
 20
298.354
 30
-6.62252e-14
  70
    32
  0
VERTEX
  8
0
  5
83B9
 10
-157.938
 20
298.360
 30
-6.62266e-14
  70
    32
  0
VERTEX
  8
0
  5
83BA
 10
-157.938
 20
298.365
 30
-6.62281e-14
  70
    32
  0
VERTEX
  8
0
  5
83BB
 10
-157.938
 20
298.370
 30
-6.62296e-14
  70
    32
  0
VERTEX
  8
0
  5
83BC
 10
-157.938
 20
298.376
 30
-6.62312e-14
  70
    32
  0
VERTEX
  8
0
  5
83BD
 10
-157.938
 20
298.381
 30
-6.62328e-14
  70
    32
  0
VERTEX
  8
0
  5
83BE
 10
-157.938
 20
298.386
 30
-6.62344e-14
  70
    32
  0
VERTEX
  8
0
  5
83BF
 10
-157.938
 20
298.392
 30
-6.62361e-14
  70
    32
  0
VERTEX
  8
0
  5
83C0
 10
-157.938
 20
298.397
 30
-6.62378e-14
  70
    32
  0
VERTEX
  8
0
  5
83C1
 10
-157.938
 20
298.402
 30
-6.62396e-14
  70
    32
  0
VERTEX
  8
0
  5
83C2
 10
-157.939
 20
298.407
 30
-6.62414e-14
  70
    32
  0
VERTEX
  8
0
  5
83C3
 10
-157.939
 20
298.413
 30
-6.62433e-14
  70
    32
  0
VERTEX
  8
0
  5
83C4
 10
-157.939
 20
298.418
 30
-6.62452e-14
  70
    32
  0
VERTEX
  8
0
  5
83C5
 10
-157.939
 20
298.423
 30
-6.62472e-14
  70
    32
  0
VERTEX
  8
0
  5
83C6
 10
-157.939
 20
298.428
 30
-6.62492e-14
  70
    32
  0
VERTEX
  8
0
  5
83C7
 10
-157.939
 20
298.433
 30
-6.62513e-14
  70
    32
  0
VERTEX
  8
0
  5
83C8
 10
-157.939
 20
298.438
 30
-6.62533e-14
  70
    32
  0
VERTEX
  8
0
  5
83C9
 10
-157.939
 20
298.443
 30
-6.62553e-14
  70
    32
  0
VERTEX
  8
0
  5
83CA
 10
-157.939
 20
298.449
 30
-6.62572e-14
  70
    32
  0
VERTEX
  8
0
  5
83CB
 10
-157.939
 20
298.454
 30
-6.62591e-14
  70
    32
  0
VERTEX
  8
0
  5
83CC
 10
-157.939
 20
298.459
 30
-6.62609e-14
  70
    32
  0
VERTEX
  8
0
  5
83CD
 10
-157.940
 20
298.464
 30
-6.62626e-14
  70
    32
  0
VERTEX
  8
0
  5
83CE
 10
-157.940
 20
298.469
 30
-6.62643e-14
  70
    32
  0
VERTEX
  8
0
  5
83CF
 10
-157.940
 20
298.474
 30
-6.62660e-14
  70
    32
  0
VERTEX
  8
0
  5
83D0
 10
-157.940
 20
298.479
 30
-6.62676e-14
  70
    32
  0
VERTEX
  8
0
  5
83D1
 10
-157.940
 20
298.484
 30
-6.62692e-14
  70
    32
  0
VERTEX
  8
0
  5
83D2
 10
-157.940
 20
298.488
 30
-6.62708e-14
  70
    32
  0
VERTEX
  8
0
  5
83D3
 10
-157.940
 20
298.493
 30
-6.62723e-14
  70
    32
  0
VERTEX
  8
0
  5
83D4
 10
-157.940
 20
298.498
 30
-6.62737e-14
  70
    32
  0
VERTEX
  8
0
  5
83D5
 10
-157.940
 20
298.503
 30
-6.62752e-14
  70
    32
  0
VERTEX
  8
0
  5
83D6
 10
-157.940
 20
298.508
 30
-6.62765e-14
  70
    32
  0
VERTEX
  8
0
  5
83D7
 10
-157.940
 20
298.513
 30
-6.62779e-14
  70
    32
  0
VERTEX
  8
0
  5
83D8
 10
-157.941
 20
298.518
 30
-6.62792e-14
  70
    32
  0
VERTEX
  8
0
  5
83D9
 10
-157.941
 20
298.522
 30
-6.62805e-14
  70
    32
  0
VERTEX
  8
0
  5
83DA
 10
-157.941
 20
298.527
 30
-6.62818e-14
  70
    32
  0
VERTEX
  8
0
  5
83DB
 10
-157.941
 20
298.532
 30
-6.62831e-14
  70
    32
  0
VERTEX
  8
0
  5
83DC
 10
-157.941
 20
298.536
 30
-6.62843e-14
  70
    32
  0
VERTEX
  8
0
  5
83DD
 10
-157.941
 20
298.541
 30
-6.62855e-14
  70
    32
  0
VERTEX
  8
0
  5
83DE
 10
-157.941
 20
298.546
 30
-6.62866e-14
  70
    32
  0
VERTEX
  8
0
  5
83DF
 10
-157.941
 20
298.550
 30
-6.62878e-14
  70
    32
  0
VERTEX
  8
0
  5
83E0
 10
-157.941
 20
298.555
 30
-6.62889e-14
  70
    32
  0
VERTEX
  8
0
  5
83E1
 10
-157.941
 20
298.560
 30
-6.62901e-14
  70
    32
  0
VERTEX
  8
0
  5
83E2
 10
-157.941
 20
298.564
 30
-6.62912e-14
  70
    32
  0
VERTEX
  8
0
  5
83E3
 10
-157.941
 20
298.569
 30
-6.62923e-14
  70
    32
  0
VERTEX
  8
0
  5
83E4
 10
-157.942
 20
298.573
 30
-6.62933e-14
  70
    32
  0
VERTEX
  8
0
  5
83E5
 10
-157.942
 20
298.578
 30
-6.62944e-14
  70
    32
  0
VERTEX
  8
0
  5
83E6
 10
-157.942
 20
298.582
 30
-6.62955e-14
  70
    32
  0
VERTEX
  8
0
  5
83E7
 10
-157.942
 20
298.587
 30
-6.62965e-14
  70
    32
  0
VERTEX
  8
0
  5
83E8
 10
-157.942
 20
298.591
 30
-6.62976e-14
  70
    32
  0
VERTEX
  8
0
  5
83E9
 10
-157.942
 20
298.596
 30
-6.62986e-14
  70
    32
  0
VERTEX
  8
0
  5
83EA
 10
-157.942
 20
298.600
 30
-6.62997e-14
  70
    32
  0
VERTEX
  8
0
  5
83EB
 10
-157.942
 20
298.605
 30
-6.63007e-14
  70
    32
  0
VERTEX
  8
0
  5
83EC
 10
-157.942
 20
298.609
 30
-6.63018e-14
  70
    32
  0
VERTEX
  8
0
  5
83ED
 10
-157.942
 20
298.613
 30
-6.63028e-14
  70
    32
  0
VERTEX
  8
0
  5
83EE
 10
-157.942
 20
298.618
 30
-6.63039e-14
  70
    32
  0
VERTEX
  8
0
  5
83EF
 10
-157.942
 20
298.622
 30
-6.63049e-14
  70
    32
  0
VERTEX
  8
0
  5
83F0
 10
-157.943
 20
298.626
 30
-6.63060e-14
  70
    32
  0
VERTEX
  8
0
  5
83F1
 10
-157.943
 20
298.631
 30
-6.63071e-14
  70
    32
  0
VERTEX
  8
0
  5
83F2
 10
-157.943
 20
298.635
 30
-6.63081e-14
  70
    32
  0
VERTEX
  8
0
  5
83F3
 10
-157.943
 20
298.639
 30
-6.63092e-14
  70
    32
  0
VERTEX
  8
0
  5
83F4
 10
-157.943
 20
298.643
 30
-6.63104e-14
  70
    32
  0
VERTEX
  8
0
  5
83F5
 10
-157.943
 20
298.647
 30
-6.63115e-14
  70
    32
  0
VERTEX
  8
0
  5
83F6
 10
-157.943
 20
298.651
 30
-6.63126e-14
  70
    32
  0
VERTEX
  8
0
  5
83F7
 10
-157.943
 20
298.656
 30
-6.63138e-14
  70
    32
  0
VERTEX
  8
0
  5
83F8
 10
-157.943
 20
298.660
 30
-6.63150e-14
  70
    32
  0
VERTEX
  8
0
  5
83F9
 10
-157.943
 20
298.664
 30
-6.63162e-14
  70
    32
  0
VERTEX
  8
0
  5
83FA
 10
-157.943
 20
298.668
 30
-6.63174e-14
  70
    32
  0
VERTEX
  8
0
  5
83FB
 10
-157.943
 20
298.672
 30
-6.63187e-14
  70
    32
  0
VERTEX
  8
0
  5
83FC
 10
-157.943
 20
298.676
 30
-6.63199e-14
  70
    32
  0
VERTEX
  8
0
  5
83FD
 10
-157.944
 20
298.680
 30
-6.63213e-14
  70
    32
  0
VERTEX
  8
0
  5
83FE
 10
-157.944
 20
298.684
 30
-6.63226e-14
  70
    32
  0
VERTEX
  8
0
  5
83FF
 10
-157.944
 20
298.688
 30
-6.63240e-14
  70
    32
  0
VERTEX
  8
0
  5
8400
 10
-157.944
 20
298.692
 30
-6.63254e-14
  70
    32
  0
VERTEX
  8
0
  5
8401
 10
-157.944
 20
298.696
 30
-6.63268e-14
  70
    32
  0
VERTEX
  8
0
  5
8402
 10
-157.944
 20
298.699
 30
-6.63283e-14
  70
    32
  0
VERTEX
  8
0
  5
8403
 10
-157.944
 20
298.703
 30
-6.63298e-14
  70
    32
  0
VERTEX
  8
0
  5
8404
 10
-157.944
 20
298.707
 30
-6.63314e-14
  70
    32
  0
VERTEX
  8
0
  5
8405
 10
-157.944
 20
298.711
 30
-6.63330e-14
  70
    32
  0
VERTEX
  8
0
  5
8406
 10
-157.944
 20
298.715
 30
-6.63346e-14
  70
    32
  0
VERTEX
  8
0
  5
8407
 10
-157.944
 20
298.718
 30
-6.63363e-14
  70
    32
  0
VERTEX
  8
0
  5
8408
 10
-157.944
 20
298.722
 30
-6.63380e-14
  70
    32
  0
VERTEX
  8
0
  5
8409
 10
-157.944
 20
298.726
 30
-6.63398e-14
  70
    32
  0
VERTEX
  8
0
  5
840A
 10
-157.944
 20
298.730
 30
-6.63416e-14
  70
    32
  0
VERTEX
  8
0
  5
840B
 10
-157.945
 20
298.733
 30
-6.63435e-14
  70
    32
  0
VERTEX
  8
0
  5
840C
 10
-157.945
 20
298.737
 30
-6.63454e-14
  70
    32
  0
VERTEX
  8
0
  5
840D
 10
-157.945
 20
298.741
 30
-6.63474e-14
  70
    32
  0
VERTEX
  8
0
  5
840E
 10
-157.945
 20
298.744
 30
-6.63495e-14
  70
    32
  0
VERTEX
  8
0
  5
840F
 10
-157.945
 20
298.748
 30
-6.63515e-14
  70
    32
  0
VERTEX
  8
0
  5
8410
 10
-157.945
 20
298.751
 30
-6.63536e-14
  70
    32
  0
VERTEX
  8
0
  5
8411
 10
-157.945
 20
298.755
 30
-6.63555e-14
  70
    32
  0
VERTEX
  8
0
  5
8412
 10
-157.945
 20
298.758
 30
-6.63574e-14
  70
    32
  0
VERTEX
  8
0
  5
8413
 10
-157.945
 20
298.762
 30
-6.63593e-14
  70
    32
  0
VERTEX
  8
0
  5
8414
 10
-157.945
 20
298.765
 30
-6.63611e-14
  70
    32
  0
VERTEX
  8
0
  5
8415
 10
-157.945
 20
298.769
 30
-6.63628e-14
  70
    32
  0
VERTEX
  8
0
  5
8416
 10
-157.945
 20
298.772
 30
-6.63645e-14
  70
    32
  0
VERTEX
  8
0
  5
8417
 10
-157.945
 20
298.775
 30
-6.63661e-14
  70
    32
  0
VERTEX
  8
0
  5
8418
 10
-157.945
 20
298.779
 30
-6.63677e-14
  70
    32
  0
VERTEX
  8
0
  5
8419
 10
-157.946
 20
298.782
 30
-6.63692e-14
  70
    32
  0
VERTEX
  8
0
  5
841A
 10
-157.946
 20
298.785
 30
-6.63707e-14
  70
    32
  0
VERTEX
  8
0
  5
841B
 10
-157.946
 20
298.788
 30
-6.63722e-14
  70
    32
  0
VERTEX
  8
0
  5
841C
 10
-157.946
 20
298.792
 30
-6.63736e-14
  70
    32
  0
VERTEX
  8
0
  5
841D
 10
-157.946
 20
298.795
 30
-6.63749e-14
  70
    32
  0
VERTEX
  8
0
  5
841E
 10
-157.946
 20
298.798
 30
-6.63762e-14
  70
    32
  0
VERTEX
  8
0
  5
841F
 10
-157.946
 20
298.801
 30
-6.63774e-14
  70
    32
  0
VERTEX
  8
0
  5
8420
 10
-157.946
 20
298.804
 30
-6.63786e-14
  70
    32
  0
VERTEX
  8
0
  5
8421
 10
-157.946
 20
298.808
 30
-6.63798e-14
  70
    32
  0
VERTEX
  8
0
  5
8422
 10
-157.946
 20
298.811
 30
-6.63809e-14
  70
    32
  0
VERTEX
  8
0
  5
8423
 10
-157.946
 20
298.814
 30
-6.63820e-14
  70
    32
  0
VERTEX
  8
0
  5
8424
 10
-157.946
 20
298.817
 30
-6.63830e-14
  70
    32
  0
VERTEX
  8
0
  5
8425
 10
-157.946
 20
298.820
 30
-6.63840e-14
  70
    32
  0
VERTEX
  8
0
  5
8426
 10
-157.946
 20
298.823
 30
-6.63850e-14
  70
    32
  0
VERTEX
  8
0
  5
8427
 10
-157.946
 20
298.826
 30
-6.63859e-14
  70
    32
  0
VERTEX
  8
0
  5
8428
 10
-157.946
 20
298.829
 30
-6.63868e-14
  70
    32
  0
VERTEX
  8
0
  5
8429
 10
-157.947
 20
298.832
 30
-6.63876e-14
  70
    32
  0
VERTEX
  8
0
  5
842A
 10
-157.947
 20
298.835
 30
-6.63884e-14
  70
    32
  0
VERTEX
  8
0
  5
842B
 10
-157.947
 20
298.837
 30
-6.63892e-14
  70
    32
  0
VERTEX
  8
0
  5
842C
 10
-157.947
 20
298.840
 30
-6.63899e-14
  70
    32
  0
VERTEX
  8
0
  5
842D
 10
-157.947
 20
298.843
 30
-6.63906e-14
  70
    32
  0
VERTEX
  8
0
  5
842E
 10
-157.947
 20
298.846
 30
-6.63913e-14
  70
    32
  0
VERTEX
  8
0
  5
842F
 10
-157.947
 20
298.849
 30
-6.63919e-14
  70
    32
  0
VERTEX
  8
0
  5
8430
 10
-157.947
 20
298.851
 30
-6.63925e-14
  70
    32
  0
VERTEX
  8
0
  5
8431
 10
-157.947
 20
298.854
 30
-6.63931e-14
  70
    32
  0
VERTEX
  8
0
  5
8432
 10
-157.947
 20
298.857
 30
-6.63937e-14
  70
    32
  0
VERTEX
  8
0
  5
8433
 10
-157.947
 20
298.860
 30
-6.63942e-14
  70
    32
  0
VERTEX
  8
0
  5
8434
 10
-157.947
 20
298.862
 30
-6.63946e-14
  70
    32
  0
VERTEX
  8
0
  5
8435
 10
-157.947
 20
298.865
 30
-6.63951e-14
  70
    32
  0
VERTEX
  8
0
  5
8436
 10
-157.947
 20
298.867
 30
-6.63955e-14
  70
    32
  0
VERTEX
  8
0
  5
8437
 10
-157.947
 20
298.870
 30
-6.63959e-14
  70
    32
  0
VERTEX
  8
0
  5
8438
 10
-157.947
 20
298.873
 30
-6.63963e-14
  70
    32
  0
VERTEX
  8
0
  5
8439
 10
-157.947
 20
298.875
 30
-6.63967e-14
  70
    32
  0
VERTEX
  8
0
  5
843A
 10
-157.947
 20
298.878
 30
-6.63970e-14
  70
    32
  0
VERTEX
  8
0
  5
843B
 10
-157.948
 20
298.880
 30
-6.63973e-14
  70
    32
  0
VERTEX
  8
0
  5
843C
 10
-157.948
 20
298.883
 30
-6.63976e-14
  70
    32
  0
VERTEX
  8
0
  5
843D
 10
-157.948
 20
298.885
 30
-6.63979e-14
  70
    32
  0
VERTEX
  8
0
  5
843E
 10
-157.948
 20
298.887
 30
-6.63981e-14
  70
    32
  0
VERTEX
  8
0
  5
843F
 10
-157.948
 20
298.890
 30
-6.63983e-14
  70
    32
  0
VERTEX
  8
0
  5
8440
 10
-157.948
 20
298.892
 30
-6.63985e-14
  70
    32
  0
VERTEX
  8
0
  5
8441
 10
-157.948
 20
298.894
 30
-6.63987e-14
  70
    32
  0
VERTEX
  8
0
  5
8442
 10
-157.948
 20
298.897
 30
-6.63989e-14
  70
    32
  0
VERTEX
  8
0
  5
8443
 10
-157.948
 20
298.899
 30
-6.63991e-14
  70
    32
  0
VERTEX
  8
0
  5
8444
 10
-157.948
 20
298.901
 30
-6.63992e-14
  70
    32
  0
VERTEX
  8
0
  5
8445
 10
-157.948
 20
298.903
 30
-6.63993e-14
  70
    32
  0
VERTEX
  8
0
  5
8446
 10
-157.948
 20
298.906
 30
-6.63994e-14
  70
    32
  0
VERTEX
  8
0
  5
8447
 10
-157.948
 20
298.908
 30
-6.63995e-14
  70
    32
  0
VERTEX
  8
0
  5
8448
 10
-157.948
 20
298.910
 30
-6.63996e-14
  70
    32
  0
VERTEX
  8
0
  5
8449
 10
-157.948
 20
298.912
 30
-6.63997e-14
  70
    32
  0
VERTEX
  8
0
  5
844A
 10
-157.948
 20
298.914
 30
-6.63998e-14
  70
    32
  0
VERTEX
  8
0
  5
844B
 10
-157.948
 20
298.916
 30
-6.63998e-14
  70
    32
  0
VERTEX
  8
0
  5
844C
 10
-157.948
 20
298.918
 30
-6.63999e-14
  70
    32
  0
VERTEX
  8
0
  5
844D
 10
-157.948
 20
298.920
 30
-6.63999e-14
  70
    32
  0
VERTEX
  8
0
  5
844E
 10
-157.948
 20
298.922
 30
-6.63999e-14
  70
    32
  0
VERTEX
  8
0
  5
844F
 10
-157.948
 20
298.924
 30
-6.64000e-14
  70
    32
  0
VERTEX
  8
0
  5
8450
 10
-157.948
 20
298.926
 30
-6.64000e-14
  70
    32
  0
VERTEX
  8
0
  5
8451
 10
-157.948
 20
298.928
 30
-6.64000e-14
  70
    32
  0
VERTEX
  8
0
  5
8452
 10
-157.949
 20
298.930
 30
-6.64000e-14
  70
    32
  0
VERTEX
  8
0
  5
8453
 10
-157.949
 20
298.932
 30
-6.64000e-14
  70
    32
  0
VERTEX
  8
0
  5
8454
 10
-157.949
 20
298.934
 30
-6.64000e-14
  70
    32
  0
VERTEX
  8
0
  5
8455
 10
-157.949
 20
298.935
 30
-6.64000e-14
  70
    32
  0
VERTEX
  8
0
  5
8456
 10
-157.949
 20
298.937
 30
-6.64000e-14
  70
    32
  0
VERTEX
  8
0
  5
8457
 10
-157.949
 20
298.939
 30
-6.64000e-14
  70
    32
  0
VERTEX
  8
0
  5
8458
 10
-157.949
 20
298.941
 30
-6.64000e-14
  70
    32
  0
VERTEX
  8
0
  5
8459
 10
-157.949
 20
298.942
 30
-6.64000e-14
  70
    32
  0
VERTEX
  8
0
  5
845A
 10
-157.949
 20
298.944
 30
-6.64000e-14
  70
    32
  0
VERTEX
  8
0
  5
845B
 10
-157.949
 20
298.946
 30
-6.64000e-14
  70
    32
  0
VERTEX
  8
0
  5
845C
 10
-157.949
 20
298.947
 30
-6.64000e-14
  70
    32
  0
VERTEX
  8
0
  5
845D
 10
-157.949
 20
298.949
 30
-6.64000e-14
  70
    32
  0
VERTEX
  8
0
  5
845E
 10
-157.949
 20
298.951
 30
-6.64000e-14
  70
    32
  0
VERTEX
  8
0
  5
845F
 10
-157.949
 20
298.952
 30
-6.64000e-14
  70
    32
  0
VERTEX
  8
0
  5
8460
 10
-157.949
 20
298.954
 30
-6.64000e-14
  70
    32
  0
VERTEX
  8
0
  5
8461
 10
-157.949
 20
298.955
 30
-6.64000e-14
  70
    32
  0
VERTEX
  8
0
  5
8462
 10
-157.949
 20
298.957
 30
-6.64000e-14
  70
    32
  0
VERTEX
  8
0
  5
8463
 10
-157.949
 20
298.958
 30
-6.64000e-14
  70
    32
  0
VERTEX
  8
0
  5
8464
 10
-157.949
 20
298.960
 30
-6.64000e-14
  70
    32
  0
VERTEX
  8
0
  5
8465
 10
-157.949
 20
298.961
 30
-6.64000e-14
  70
    32
  0
VERTEX
  8
0
  5
8466
 10
-157.949
 20
298.962
 30
-6.64000e-14
  70
    32
  0
VERTEX
  8
0
  5
8467
 10
-157.949
 20
298.964
 30
-6.64000e-14
  70
    32
  0
VERTEX
  8
0
  5
8468
 10
-157.949
 20
298.965
 30
-6.64000e-14
  70
    32
  0
VERTEX
  8
0
  5
8469
 10
-157.949
 20
298.966
 30
-6.64000e-14
  70
    32
  0
VERTEX
  8
0
  5
846A
 10
-157.949
 20
298.968
 30
-6.64000e-14
  70
    32
  0
VERTEX
  8
0
  5
846B
 10
-157.949
 20
298.969
 30
-6.64000e-14
  70
    32
  0
VERTEX
  8
0
  5
846C
 10
-157.949
 20
298.970
 30
-6.64000e-14
  70
    32
  0
VERTEX
  8
0
  5
846D
 10
-157.949
 20
298.971
 30
-6.64000e-14
  70
    32
  0
VERTEX
  8
0
  5
846E
 10
-157.949
 20
298.972
 30
-6.64000e-14
  70
    32
  0
VERTEX
  8
0
  5
846F
 10
-157.949
 20
298.974
 30
-6.64000e-14
  70
    32
  0
VERTEX
  8
0
  5
8470
 10
-157.949
 20
298.975
 30
-6.64000e-14
  70
    32
  0
VERTEX
  8
0
  5
8471
 10
-157.949
 20
298.976
 30
-6.64000e-14
  70
    32
  0
VERTEX
  8
0
  5
8472
 10
-157.950
 20
298.977
 30
-6.64000e-14
  70
    32
  0
VERTEX
  8
0
  5
8473
 10
-157.950
 20
298.978
 30
-6.64000e-14
  70
    32
  0
VERTEX
  8
0
  5
8474
 10
-157.950
 20
298.979
 30
-6.64000e-14
  70
    32
  0
VERTEX
  8
0
  5
8475
 10
-157.950
 20
298.980
 30
-6.64000e-14
  70
    32
  0
VERTEX
  8
0
  5
8476
 10
-157.950
 20
298.981
 30
-6.64000e-14
  70
    32
  0
VERTEX
  8
0
  5
8477
 10
-157.950
 20
298.982
 30
-6.64000e-14
  70
    32
  0
VERTEX
  8
0
  5
8478
 10
-157.950
 20
298.983
 30
-6.64000e-14
  70
    32
  0
VERTEX
  8
0
  5
8479
 10
-157.950
 20
298.984
 30
-6.64000e-14
  70
    32
  0
VERTEX
  8
0
  5
847A
 10
-157.950
 20
298.985
 30
-6.64000e-14
  70
    32
  0
VERTEX
  8
0
  5
847B
 10
-157.950
 20
298.985
 30
-6.64000e-14
  70
    32
  0
VERTEX
  8
0
  5
847C
 10
-157.950
 20
298.986
 30
-6.64000e-14
  70
    32
  0
VERTEX
  8
0
  5
847D
 10
-157.950
 20
298.987
 30
-6.64000e-14
  70
    32
  0
VERTEX
  8
0
  5
847E
 10
-157.950
 20
298.988
 30
-6.64000e-14
  70
    32
  0
VERTEX
  8
0
  5
847F
 10
-157.950
 20
298.989
 30
-6.64000e-14
  70
    32
  0
VERTEX
  8
0
  5
8480
 10
-157.950
 20
298.989
 30
-6.64000e-14
  70
    32
  0
VERTEX
  8
0
  5
8481
 10
-157.950
 20
298.990
 30
-6.64000e-14
  70
    32
  0
VERTEX
  8
0
  5
8482
 10
-157.950
 20
298.991
 30
-6.64000e-14
  70
    32
  0
VERTEX
  8
0
  5
8483
 10
-157.950
 20
298.991
 30
-6.64000e-14
  70
    32
  0
VERTEX
  8
0
  5
8484
 10
-157.950
 20
298.992
 30
-6.64000e-14
  70
    32
  0
VERTEX
  8
0
  5
8485
 10
-157.950
 20
298.993
 30
-6.64000e-14
  70
    32
  0
VERTEX
  8
0
  5
8486
 10
-157.950
 20
298.993
 30
-6.64000e-14
  70
    32
  0
VERTEX
  8
0
  5
8487
 10
-157.950
 20
298.994
 30
-6.64000e-14
  70
    32
  0
VERTEX
  8
0
  5
8488
 10
-157.950
 20
298.994
 30
-6.64000e-14
  70
    32
  0
VERTEX
  8
0
  5
8489
 10
-157.950
 20
298.995
 30
-6.64000e-14
  70
    32
  0
VERTEX
  8
0
  5
848A
 10
-157.950
 20
298.995
 30
-6.64000e-14
  70
    32
  0
VERTEX
  8
0
  5
848B
 10
-157.950
 20
298.996
 30
-6.64000e-14
  70
    32
  0
VERTEX
  8
0
  5
848C
 10
-157.950
 20
298.996
 30
-6.64000e-14
  70
    32
  0
VERTEX
  8
0
  5
848D
 10
-157.950
 20
298.997
 30
-6.64000e-14
  70
    32
  0
VERTEX
  8
0
  5
848E
 10
-157.950
 20
298.997
 30
-6.64000e-14
  70
    32
  0
VERTEX
  8
0
  5
848F
 10
-157.950
 20
298.997
 30
-6.64000e-14
  70
    32
  0
VERTEX
  8
0
  5
8490
 10
-157.950
 20
298.998
 30
-6.64000e-14
  70
    32
  0
VERTEX
  8
0
  5
8491
 10
-157.950
 20
298.998
 30
-6.64000e-14
  70
    32
  0
VERTEX
  8
0
  5
8492
 10
-157.950
 20
298.998
 30
-6.64000e-14
  70
    32
  0
VERTEX
  8
0
  5
8493
 10
-157.950
 20
298.999
 30
-6.64000e-14
  70
    32
  0
VERTEX
  8
0
  5
8494
 10
-157.950
 20
298.999
 30
-6.64000e-14
  70
    32
  0
VERTEX
  8
0
  5
8495
 10
-157.950
 20
298.999
 30
-6.64000e-14
  70
    32
  0
VERTEX
  8
0
  5
8496
 10
-157.950
 20
298.999
 30
-6.64000e-14
  70
    32
  0
VERTEX
  8
0
  5
8497
 10
-157.950
 20
298.999
 30
-6.64000e-14
  70
    32
  0
VERTEX
  8
0
  5
8498
 10
-157.950
 20
299.000
 30
-6.64000e-14
  70
    32
  0
VERTEX
  8
0
  5
8499
 10
-157.950
 20
299.000
 30
-6.64000e-14
  70
    32
  0
VERTEX
  8
0
  5
849A
 10
-157.950
 20
299.000
 30
-6.64000e-14
  70
    32
  0
VERTEX
  8
0
  5
849B
 10
-157.950
 20
299.000
 30
-6.64000e-14
  70
    32
  0
VERTEX
  8
0
  5
849C
 10
-157.950
 20
299.000
 30
-6.64000e-14
  70
    32
  0
VERTEX
  8
0
  5
849D
 10
-157.950
 20
299.000
 30
-6.64000e-14
  70
    32
  0
VERTEX
  8
0
  5
849E
 10
-157.950
 20
299.000
 30
-6.64000e-14
  70
    32
  0
SEQEND
  8
0
  5
849F
  0
POLYLINE
  8
0
  5
84A0
  62
1
  66
     1
 10
0.000000
 20
0.000000
 30
0.000000
  70
     8
  0
VERTEX
  8
0
  5
84A1
 10
-157.950
 20
292.300
 30
-6.49000e-14
  70
    32
  0
VERTEX
  8
0
  5
84A2
 10
-157.950
 20
292.300
 30
-6.49000e-14
  70
    32
  0
VERTEX
  8
0
  5
84A3
 10
-157.950
 20
292.300
 30
-6.49000e-14
  70
    32
  0
VERTEX
  8
0
  5
84A4
 10
-157.950
 20
292.300
 30
-6.49000e-14
  70
    32
  0
VERTEX
  8
0
  5
84A5
 10
-157.950
 20
292.300
 30
-6.49000e-14
  70
    32
  0
VERTEX
  8
0
  5
84A6
 10
-157.950
 20
292.300
 30
-6.49000e-14
  70
    32
  0
VERTEX
  8
0
  5
84A7
 10
-157.950
 20
292.300
 30
-6.49000e-14
  70
    32
  0
VERTEX
  8
0
  5
84A8
 10
-157.950
 20
292.301
 30
-6.49000e-14
  70
    32
  0
VERTEX
  8
0
  5
84A9
 10
-157.950
 20
292.301
 30
-6.49000e-14
  70
    32
  0
VERTEX
  8
0
  5
84AA
 10
-157.950
 20
292.301
 30
-6.49000e-14
  70
    32
  0
VERTEX
  8
0
  5
84AB
 10
-157.950
 20
292.301
 30
-6.49000e-14
  70
    32
  0
VERTEX
  8
0
  5
84AC
 10
-157.950
 20
292.301
 30
-6.49000e-14
  70
    32
  0
VERTEX
  8
0
  5
84AD
 10
-157.950
 20
292.302
 30
-6.49000e-14
  70
    32
  0
VERTEX
  8
0
  5
84AE
 10
-157.950
 20
292.302
 30
-6.49000e-14
  70
    32
  0
VERTEX
  8
0
  5
84AF
 10
-157.950
 20
292.302
 30
-6.49000e-14
  70
    32
  0
VERTEX
  8
0
  5
84B0
 10
-157.950
 20
292.303
 30
-6.49000e-14
  70
    32
  0
VERTEX
  8
0
  5
84B1
 10
-157.950
 20
292.303
 30
-6.49000e-14
  70
    32
  0
VERTEX
  8
0
  5
84B2
 10
-157.950
 20
292.303
 30
-6.49000e-14
  70
    32
  0
VERTEX
  8
0
  5
84B3
 10
-157.950
 20
292.304
 30
-6.49000e-14
  70
    32
  0
VERTEX
  8
0
  5
84B4
 10
-157.950
 20
292.304
 30
-6.49000e-14
  70
    32
  0
VERTEX
  8
0
  5
84B5
 10
-157.950
 20
292.305
 30
-6.49000e-14
  70
    32
  0
VERTEX
  8
0
  5
84B6
 10
-157.950
 20
292.305
 30
-6.49000e-14
  70
    32
  0
VERTEX
  8
0
  5
84B7
 10
-157.950
 20
292.306
 30
-6.49000e-14
  70
    32
  0
VERTEX
  8
0
  5
84B8
 10
-157.950
 20
292.306
 30
-6.49000e-14
  70
    32
  0
VERTEX
  8
0
  5
84B9
 10
-157.950
 20
292.307
 30
-6.49000e-14
  70
    32
  0
VERTEX
  8
0
  5
84BA
 10
-157.950
 20
292.307
 30
-6.49000e-14
  70
    32
  0
VERTEX
  8
0
  5
84BB
 10
-157.950
 20
292.308
 30
-6.49000e-14
  70
    32
  0
VERTEX
  8
0
  5
84BC
 10
-157.950
 20
292.309
 30
-6.49000e-14
  70
    32
  0
VERTEX
  8
0
  5
84BD
 10
-157.950
 20
292.309
 30
-6.49000e-14
  70
    32
  0
VERTEX
  8
0
  5
84BE
 10
-157.950
 20
292.310
 30
-6.49000e-14
  70
    32
  0
VERTEX
  8
0
  5
84BF
 10
-157.950
 20
292.311
 30
-6.49000e-14
  70
    32
  0
VERTEX
  8
0
  5
84C0
 10
-157.950
 20
292.311
 30
-6.49000e-14
  70
    32
  0
VERTEX
  8
0
  5
84C1
 10
-157.950
 20
292.312
 30
-6.49000e-14
  70
    32
  0
VERTEX
  8
0
  5
84C2
 10
-157.950
 20
292.313
 30
-6.49000e-14
  70
    32
  0
VERTEX
  8
0
  5
84C3
 10
-157.950
 20
292.314
 30
-6.49000e-14
  70
    32
  0
VERTEX
  8
0
  5
84C4
 10
-157.950
 20
292.315
 30
-6.49000e-14
  70
    32
  0
VERTEX
  8
0
  5
84C5
 10
-157.950
 20
292.315
 30
-6.49000e-14
  70
    32
  0
VERTEX
  8
0
  5
84C6
 10
-157.950
 20
292.316
 30
-6.49000e-14
  70
    32
  0
VERTEX
  8
0
  5
84C7
 10
-157.950
 20
292.317
 30
-6.49000e-14
  70
    32
  0
VERTEX
  8
0
  5
84C8
 10
-157.950
 20
292.318
 30
-6.49000e-14
  70
    32
  0
VERTEX
  8
0
  5
84C9
 10
-157.950
 20
292.319
 30
-6.49000e-14
  70
    32
  0
VERTEX
  8
0
  5
84CA
 10
-157.950
 20
292.320
 30
-6.49000e-14
  70
    32
  0
VERTEX
  8
0
  5
84CB
 10
-157.950
 20
292.321
 30
-6.49000e-14
  70
    32
  0
VERTEX
  8
0
  5
84CC
 10
-157.950
 20
292.322
 30
-6.49000e-14
  70
    32
  0
VERTEX
  8
0
  5
84CD
 10
-157.950
 20
292.323
 30
-6.49000e-14
  70
    32
  0
VERTEX
  8
0
  5
84CE
 10
-157.949
 20
292.324
 30
-6.49000e-14
  70
    32
  0
VERTEX
  8
0
  5
84CF
 10
-157.949
 20
292.325
 30
-6.49000e-14
  70
    32
  0
VERTEX
  8
0
  5
84D0
 10
-157.949
 20
292.326
 30
-6.49000e-14
  70
    32
  0
VERTEX
  8
0
  5
84D1
 10
-157.949
 20
292.328
 30
-6.49000e-14
  70
    32
  0
VERTEX
  8
0
  5
84D2
 10
-157.949
 20
292.329
 30
-6.49000e-14
  70
    32
  0
VERTEX
  8
0
  5
84D3
 10
-157.949
 20
292.330
 30
-6.49000e-14
  70
    32
  0
VERTEX
  8
0
  5
84D4
 10
-157.949
 20
292.331
 30
-6.49000e-14
  70
    32
  0
VERTEX
  8
0
  5
84D5
 10
-157.949
 20
292.332
 30
-6.49000e-14
  70
    32
  0
VERTEX
  8
0
  5
84D6
 10
-157.949
 20
292.334
 30
-6.49000e-14
  70
    32
  0
VERTEX
  8
0
  5
84D7
 10
-157.949
 20
292.335
 30
-6.49000e-14
  70
    32
  0
VERTEX
  8
0
  5
84D8
 10
-157.949
 20
292.336
 30
-6.49000e-14
  70
    32
  0
VERTEX
  8
0
  5
84D9
 10
-157.949
 20
292.338
 30
-6.49000e-14
  70
    32
  0
VERTEX
  8
0
  5
84DA
 10
-157.949
 20
292.339
 30
-6.49000e-14
  70
    32
  0
VERTEX
  8
0
  5
84DB
 10
-157.949
 20
292.340
 30
-6.49000e-14
  70
    32
  0
VERTEX
  8
0
  5
84DC
 10
-157.949
 20
292.342
 30
-6.49000e-14
  70
    32
  0
VERTEX
  8
0
  5
84DD
 10
-157.949
 20
292.343
 30
-6.49000e-14
  70
    32
  0
VERTEX
  8
0
  5
84DE
 10
-157.949
 20
292.345
 30
-6.49000e-14
  70
    32
  0
VERTEX
  8
0
  5
84DF
 10
-157.949
 20
292.346
 30
-6.49000e-14
  70
    32
  0
VERTEX
  8
0
  5
84E0
 10
-157.949
 20
292.348
 30
-6.49000e-14
  70
    32
  0
VERTEX
  8
0
  5
84E1
 10
-157.949
 20
292.349
 30
-6.49000e-14
  70
    32
  0
VERTEX
  8
0
  5
84E2
 10
-157.949
 20
292.351
 30
-6.49000e-14
  70
    32
  0
VERTEX
  8
0
  5
84E3
 10
-157.949
 20
292.353
 30
-6.49000e-14
  70
    32
  0
VERTEX
  8
0
  5
84E4
 10
-157.949
 20
292.354
 30
-6.49000e-14
  70
    32
  0
VERTEX
  8
0
  5
84E5
 10
-157.949
 20
292.356
 30
-6.49000e-14
  70
    32
  0
VERTEX
  8
0
  5
84E6
 10
-157.949
 20
292.358
 30
-6.49000e-14
  70
    32
  0
VERTEX
  8
0
  5
84E7
 10
-157.949
 20
292.359
 30
-6.49000e-14
  70
    32
  0
VERTEX
  8
0
  5
84E8
 10
-157.949
 20
292.361
 30
-6.49000e-14
  70
    32
  0
VERTEX
  8
0
  5
84E9
 10
-157.949
 20
292.363
 30
-6.49000e-14
  70
    32
  0
VERTEX
  8
0
  5
84EA
 10
-157.949
 20
292.365
 30
-6.49000e-14
  70
    32
  0
VERTEX
  8
0
  5
84EB
 10
-157.949
 20
292.366
 30
-6.49000e-14
  70
    32
  0
VERTEX
  8
0
  5
84EC
 10
-157.949
 20
292.368
 30
-6.49000e-14
  70
    32
  0
VERTEX
  8
0
  5
84ED
 10
-157.949
 20
292.370
 30
-6.49000e-14
  70
    32
  0
VERTEX
  8
0
  5
84EE
 10
-157.948
 20
292.372
 30
-6.49000e-14
  70
    32
  0
VERTEX
  8
0
  5
84EF
 10
-157.948
 20
292.374
 30
-6.49000e-14
  70
    32
  0
VERTEX
  8
0
  5
84F0
 10
-157.948
 20
292.376
 30
-6.49000e-14
  70
    32
  0
VERTEX
  8
0
  5
84F1
 10
-157.948
 20
292.378
 30
-6.49001e-14
  70
    32
  0
VERTEX
  8
0
  5
84F2
 10
-157.948
 20
292.380
 30
-6.49001e-14
  70
    32
  0
VERTEX
  8
0
  5
84F3
 10
-157.948
 20
292.382
 30
-6.49001e-14
  70
    32
  0
VERTEX
  8
0
  5
84F4
 10
-157.948
 20
292.384
 30
-6.49002e-14
  70
    32
  0
VERTEX
  8
0
  5
84F5
 10
-157.948
 20
292.386
 30
-6.49002e-14
  70
    32
  0
VERTEX
  8
0
  5
84F6
 10
-157.948
 20
292.388
 30
-6.49003e-14
  70
    32
  0
VERTEX
  8
0
  5
84F7
 10
-157.948
 20
292.390
 30
-6.49004e-14
  70
    32
  0
VERTEX
  8
0
  5
84F8
 10
-157.948
 20
292.392
 30
-6.49005e-14
  70
    32
  0
VERTEX
  8
0
  5
84F9
 10
-157.948
 20
292.394
 30
-6.49006e-14
  70
    32
  0
VERTEX
  8
0
  5
84FA
 10
-157.948
 20
292.397
 30
-6.49007e-14
  70
    32
  0
VERTEX
  8
0
  5
84FB
 10
-157.948
 20
292.399
 30
-6.49008e-14
  70
    32
  0
VERTEX
  8
0
  5
84FC
 10
-157.948
 20
292.401
 30
-6.49009e-14
  70
    32
  0
VERTEX
  8
0
  5
84FD
 10
-157.948
 20
292.403
 30
-6.49011e-14
  70
    32
  0
VERTEX
  8
0
  5
84FE
 10
-157.948
 20
292.406
 30
-6.49013e-14
  70
    32
  0
VERTEX
  8
0
  5
84FF
 10
-157.948
 20
292.408
 30
-6.49015e-14
  70
    32
  0
VERTEX
  8
0
  5
8500
 10
-157.948
 20
292.410
 30
-6.49017e-14
  70
    32
  0
VERTEX
  8
0
  5
8501
 10
-157.948
 20
292.413
 30
-6.49019e-14
  70
    32
  0
VERTEX
  8
0
  5
8502
 10
-157.948
 20
292.415
 30
-6.49021e-14
  70
    32
  0
VERTEX
  8
0
  5
8503
 10
-157.948
 20
292.417
 30
-6.49024e-14
  70
    32
  0
VERTEX
  8
0
  5
8504
 10
-157.948
 20
292.420
 30
-6.49027e-14
  70
    32
  0
VERTEX
  8
0
  5
8505
 10
-157.947
 20
292.422
 30
-6.49030e-14
  70
    32
  0
VERTEX
  8
0
  5
8506
 10
-157.947
 20
292.425
 30
-6.49033e-14
  70
    32
  0
VERTEX
  8
0
  5
8507
 10
-157.947
 20
292.427
 30
-6.49037e-14
  70
    32
  0
VERTEX
  8
0
  5
8508
 10
-157.947
 20
292.430
 30
-6.49041e-14
  70
    32
  0
VERTEX
  8
0
  5
8509
 10
-157.947
 20
292.433
 30
-6.49045e-14
  70
    32
  0
VERTEX
  8
0
  5
850A
 10
-157.947
 20
292.435
 30
-6.49049e-14
  70
    32
  0
VERTEX
  8
0
  5
850B
 10
-157.947
 20
292.438
 30
-6.49054e-14
  70
    32
  0
VERTEX
  8
0
  5
850C
 10
-157.947
 20
292.440
 30
-6.49058e-14
  70
    32
  0
VERTEX
  8
0
  5
850D
 10
-157.947
 20
292.443
 30
-6.49063e-14
  70
    32
  0
VERTEX
  8
0
  5
850E
 10
-157.947
 20
292.446
 30
-6.49069e-14
  70
    32
  0
VERTEX
  8
0
  5
850F
 10
-157.947
 20
292.449
 30
-6.49075e-14
  70
    32
  0
VERTEX
  8
0
  5
8510
 10
-157.947
 20
292.451
 30
-6.49081e-14
  70
    32
  0
VERTEX
  8
0
  5
8511
 10
-157.947
 20
292.454
 30
-6.49087e-14
  70
    32
  0
VERTEX
  8
0
  5
8512
 10
-157.947
 20
292.457
 30
-6.49094e-14
  70
    32
  0
VERTEX
  8
0
  5
8513
 10
-157.947
 20
292.460
 30
-6.49101e-14
  70
    32
  0
VERTEX
  8
0
  5
8514
 10
-157.947
 20
292.463
 30
-6.49108e-14
  70
    32
  0
VERTEX
  8
0
  5
8515
 10
-157.947
 20
292.465
 30
-6.49116e-14
  70
    32
  0
VERTEX
  8
0
  5
8516
 10
-157.947
 20
292.468
 30
-6.49124e-14
  70
    32
  0
VERTEX
  8
0
  5
8517
 10
-157.946
 20
292.471
 30
-6.49132e-14
  70
    32
  0
VERTEX
  8
0
  5
8518
 10
-157.946
 20
292.474
 30
-6.49141e-14
  70
    32
  0
VERTEX
  8
0
  5
8519
 10
-157.946
 20
292.477
 30
-6.49150e-14
  70
    32
  0
VERTEX
  8
0
  5
851A
 10
-157.946
 20
292.480
 30
-6.49160e-14
  70
    32
  0
VERTEX
  8
0
  5
851B
 10
-157.946
 20
292.483
 30
-6.49170e-14
  70
    32
  0
VERTEX
  8
0
  5
851C
 10
-157.946
 20
292.486
 30
-6.49180e-14
  70
    32
  0
VERTEX
  8
0
  5
851D
 10
-157.946
 20
292.489
 30
-6.49191e-14
  70
    32
  0
VERTEX
  8
0
  5
851E
 10
-157.946
 20
292.492
 30
-6.49202e-14
  70
    32
  0
VERTEX
  8
0
  5
851F
 10
-157.946
 20
292.496
 30
-6.49214e-14
  70
    32
  0
VERTEX
  8
0
  5
8520
 10
-157.946
 20
292.499
 30
-6.49226e-14
  70
    32
  0
VERTEX
  8
0
  5
8521
 10
-157.946
 20
292.502
 30
-6.49238e-14
  70
    32
  0
VERTEX
  8
0
  5
8522
 10
-157.946
 20
292.505
 30
-6.49251e-14
  70
    32
  0
VERTEX
  8
0
  5
8523
 10
-157.946
 20
292.508
 30
-6.49264e-14
  70
    32
  0
VERTEX
  8
0
  5
8524
 10
-157.946
 20
292.512
 30
-6.49278e-14
  70
    32
  0
VERTEX
  8
0
  5
8525
 10
-157.946
 20
292.515
 30
-6.49293e-14
  70
    32
  0
VERTEX
  8
0
  5
8526
 10
-157.946
 20
292.518
 30
-6.49308e-14
  70
    32
  0
VERTEX
  8
0
  5
8527
 10
-157.945
 20
292.521
 30
-6.49323e-14
  70
    32
  0
VERTEX
  8
0
  5
8528
 10
-157.945
 20
292.525
 30
-6.49339e-14
  70
    32
  0
VERTEX
  8
0
  5
8529
 10
-157.945
 20
292.528
 30
-6.49355e-14
  70
    32
  0
VERTEX
  8
0
  5
852A
 10
-157.945
 20
292.531
 30
-6.49372e-14
  70
    32
  0
VERTEX
  8
0
  5
852B
 10
-157.945
 20
292.535
 30
-6.49389e-14
  70
    32
  0
VERTEX
  8
0
  5
852C
 10
-157.945
 20
292.538
 30
-6.49407e-14
  70
    32
  0
VERTEX
  8
0
  5
852D
 10
-157.945
 20
292.542
 30
-6.49426e-14
  70
    32
  0
VERTEX
  8
0
  5
852E
 10
-157.945
 20
292.545
 30
-6.49445e-14
  70
    32
  0
VERTEX
  8
0
  5
852F
 10
-157.945
 20
292.549
 30
-6.49464e-14
  70
    32
  0
VERTEX
  8
0
  5
8530
 10
-157.945
 20
292.552
 30
-6.49485e-14
  70
    32
  0
VERTEX
  8
0
  5
8531
 10
-157.945
 20
292.556
 30
-6.49505e-14
  70
    32
  0
VERTEX
  8
0
  5
8532
 10
-157.945
 20
292.559
 30
-6.49526e-14
  70
    32
  0
VERTEX
  8
0
  5
8533
 10
-157.945
 20
292.563
 30
-6.49546e-14
  70
    32
  0
VERTEX
  8
0
  5
8534
 10
-157.945
 20
292.567
 30
-6.49565e-14
  70
    32
  0
VERTEX
  8
0
  5
8535
 10
-157.944
 20
292.570
 30
-6.49584e-14
  70
    32
  0
VERTEX
  8
0
  5
8536
 10
-157.944
 20
292.574
 30
-6.49602e-14
  70
    32
  0
VERTEX
  8
0
  5
8537
 10
-157.944
 20
292.578
 30
-6.49620e-14
  70
    32
  0
VERTEX
  8
0
  5
8538
 10
-157.944
 20
292.582
 30
-6.49637e-14
  70
    32
  0
VERTEX
  8
0
  5
8539
 10
-157.944
 20
292.585
 30
-6.49654e-14
  70
    32
  0
VERTEX
  8
0
  5
853A
 10
-157.944
 20
292.589
 30
-6.49670e-14
  70
    32
  0
VERTEX
  8
0
  5
853B
 10
-157.944
 20
292.593
 30
-6.49686e-14
  70
    32
  0
VERTEX
  8
0
  5
853C
 10
-157.944
 20
292.597
 30
-6.49702e-14
  70
    32
  0
VERTEX
  8
0
  5
853D
 10
-157.944
 20
292.601
 30
-6.49717e-14
  70
    32
  0
VERTEX
  8
0
  5
853E
 10
-157.944
 20
292.604
 30
-6.49732e-14
  70
    32
  0
VERTEX
  8
0
  5
853F
 10
-157.944
 20
292.608
 30
-6.49746e-14
  70
    32
  0
VERTEX
  8
0
  5
8540
 10
-157.944
 20
292.612
 30
-6.49760e-14
  70
    32
  0
VERTEX
  8
0
  5
8541
 10
-157.944
 20
292.616
 30
-6.49774e-14
  70
    32
  0
VERTEX
  8
0
  5
8542
 10
-157.944
 20
292.620
 30
-6.49787e-14
  70
    32
  0
VERTEX
  8
0
  5
8543
 10
-157.943
 20
292.624
 30
-6.49801e-14
  70
    32
  0
VERTEX
  8
0
  5
8544
 10
-157.943
 20
292.628
 30
-6.49813e-14
  70
    32
  0
VERTEX
  8
0
  5
8545
 10
-157.943
 20
292.632
 30
-6.49826e-14
  70
    32
  0
VERTEX
  8
0
  5
8546
 10
-157.943
 20
292.636
 30
-6.49838e-14
  70
    32
  0
VERTEX
  8
0
  5
8547
 10
-157.943
 20
292.640
 30
-6.49850e-14
  70
    32
  0
VERTEX
  8
0
  5
8548
 10
-157.943
 20
292.644
 30
-6.49862e-14
  70
    32
  0
VERTEX
  8
0
  5
8549
 10
-157.943
 20
292.649
 30
-6.49874e-14
  70
    32
  0
VERTEX
  8
0
  5
854A
 10
-157.943
 20
292.653
 30
-6.49885e-14
  70
    32
  0
VERTEX
  8
0
  5
854B
 10
-157.943
 20
292.657
 30
-6.49896e-14
  70
    32
  0
VERTEX
  8
0
  5
854C
 10
-157.943
 20
292.661
 30
-6.49908e-14
  70
    32
  0
VERTEX
  8
0
  5
854D
 10
-157.943
 20
292.665
 30
-6.49919e-14
  70
    32
  0
VERTEX
  8
0
  5
854E
 10
-157.943
 20
292.669
 30
-6.49929e-14
  70
    32
  0
VERTEX
  8
0
  5
854F
 10
-157.943
 20
292.674
 30
-6.49940e-14
  70
    32
  0
VERTEX
  8
0
  5
8550
 10
-157.942
 20
292.678
 30
-6.49951e-14
  70
    32
  0
VERTEX
  8
0
  5
8551
 10
-157.942
 20
292.682
 30
-6.49961e-14
  70
    32
  0
VERTEX
  8
0
  5
8552
 10
-157.942
 20
292.687
 30
-6.49972e-14
  70
    32
  0
VERTEX
  8
0
  5
8553
 10
-157.942
 20
292.691
 30
-6.49982e-14
  70
    32
  0
VERTEX
  8
0
  5
8554
 10
-157.942
 20
292.695
 30
-6.49993e-14
  70
    32
  0
VERTEX
  8
0
  5
8555
 10
-157.942
 20
292.700
 30
-6.50003e-14
  70
    32
  0
VERTEX
  8
0
  5
8556
 10
-157.942
 20
292.704
 30
-6.50014e-14
  70
    32
  0
VERTEX
  8
0
  5
8557
 10
-157.942
 20
292.709
 30
-6.50024e-14
  70
    32
  0
VERTEX
  8
0
  5
8558
 10
-157.942
 20
292.713
 30
-6.50035e-14
  70
    32
  0
VERTEX
  8
0
  5
8559
 10
-157.942
 20
292.718
 30
-6.50045e-14
  70
    32
  0
VERTEX
  8
0
  5
855A
 10
-157.942
 20
292.722
 30
-6.50056e-14
  70
    32
  0
VERTEX
  8
0
  5
855B
 10
-157.942
 20
292.727
 30
-6.50067e-14
  70
    32
  0
VERTEX
  8
0
  5
855C
 10
-157.941
 20
292.731
 30
-6.50077e-14
  70
    32
  0
VERTEX
  8
0
  5
855D
 10
-157.941
 20
292.736
 30
-6.50088e-14
  70
    32
  0
VERTEX
  8
0
  5
855E
 10
-157.941
 20
292.740
 30
-6.50099e-14
  70
    32
  0
VERTEX
  8
0
  5
855F
 10
-157.941
 20
292.745
 30
-6.50111e-14
  70
    32
  0
VERTEX
  8
0
  5
8560
 10
-157.941
 20
292.750
 30
-6.50122e-14
  70
    32
  0
VERTEX
  8
0
  5
8561
 10
-157.941
 20
292.754
 30
-6.50134e-14
  70
    32
  0
VERTEX
  8
0
  5
8562
 10
-157.941
 20
292.759
 30
-6.50145e-14
  70
    32
  0
VERTEX
  8
0
  5
8563
 10
-157.941
 20
292.764
 30
-6.50157e-14
  70
    32
  0
VERTEX
  8
0
  5
8564
 10
-157.941
 20
292.768
 30
-6.50169e-14
  70
    32
  0
VERTEX
  8
0
  5
8565
 10
-157.941
 20
292.773
 30
-6.50182e-14
  70
    32
  0
VERTEX
  8
0
  5
8566
 10
-157.941
 20
292.778
 30
-6.50195e-14
  70
    32
  0
VERTEX
  8
0
  5
8567
 10
-157.941
 20
292.782
 30
-6.50208e-14
  70
    32
  0
VERTEX
  8
0
  5
8568
 10
-157.940
 20
292.787
 30
-6.50221e-14
  70
    32
  0
VERTEX
  8
0
  5
8569
 10
-157.940
 20
292.792
 30
-6.50235e-14
  70
    32
  0
VERTEX
  8
0
  5
856A
 10
-157.940
 20
292.797
 30
-6.50248e-14
  70
    32
  0
VERTEX
  8
0
  5
856B
 10
-157.940
 20
292.802
 30
-6.50263e-14
  70
    32
  0
VERTEX
  8
0
  5
856C
 10
-157.940
 20
292.807
 30
-6.50277e-14
  70
    32
  0
VERTEX
  8
0
  5
856D
 10
-157.940
 20
292.812
 30
-6.50292e-14
  70
    32
  0
VERTEX
  8
0
  5
856E
 10
-157.940
 20
292.816
 30
-6.50308e-14
  70
    32
  0
VERTEX
  8
0
  5
856F
 10
-157.940
 20
292.821
 30
-6.50324e-14
  70
    32
  0
VERTEX
  8
0
  5
8570
 10
-157.940
 20
292.826
 30
-6.50340e-14
  70
    32
  0
VERTEX
  8
0
  5
8571
 10
-157.940
 20
292.831
 30
-6.50357e-14
  70
    32
  0
VERTEX
  8
0
  5
8572
 10
-157.940
 20
292.836
 30
-6.50374e-14
  70
    32
  0
VERTEX
  8
0
  5
8573
 10
-157.939
 20
292.841
 30
-6.50391e-14
  70
    32
  0
VERTEX
  8
0
  5
8574
 10
-157.939
 20
292.846
 30
-6.50409e-14
  70
    32
  0
VERTEX
  8
0
  5
8575
 10
-157.939
 20
292.851
 30
-6.50428e-14
  70
    32
  0
VERTEX
  8
0
  5
8576
 10
-157.939
 20
292.857
 30
-6.50447e-14
  70
    32
  0
VERTEX
  8
0
  5
8577
 10
-157.939
 20
292.862
 30
-6.50467e-14
  70
    32
  0
VERTEX
  8
0
  5
8578
 10
-157.939
 20
292.867
 30
-6.50487e-14
  70
    32
  0
VERTEX
  8
0
  5
8579
 10
-157.939
 20
292.872
 30
-6.50508e-14
  70
    32
  0
VERTEX
  8
0
  5
857A
 10
-157.939
 20
292.877
 30
-6.50528e-14
  70
    32
  0
VERTEX
  8
0
  5
857B
 10
-157.939
 20
292.882
 30
-6.50548e-14
  70
    32
  0
VERTEX
  8
0
  5
857C
 10
-157.939
 20
292.887
 30
-6.50567e-14
  70
    32
  0
VERTEX
  8
0
  5
857D
 10
-157.939
 20
292.893
 30
-6.50586e-14
  70
    32
  0
VERTEX
  8
0
  5
857E
 10
-157.938
 20
292.898
 30
-6.50604e-14
  70
    32
  0
VERTEX
  8
0
  5
857F
 10
-157.938
 20
292.903
 30
-6.50622e-14
  70
    32
  0
VERTEX
  8
0
  5
8580
 10
-157.938
 20
292.908
 30
-6.50639e-14
  70
    32
  0
VERTEX
  8
0
  5
8581
 10
-157.938
 20
292.914
 30
-6.50656e-14
  70
    32
  0
VERTEX
  8
0
  5
8582
 10
-157.938
 20
292.919
 30
-6.50672e-14
  70
    32
  0
VERTEX
  8
0
  5
8583
 10
-157.938
 20
292.924
 30
-6.50688e-14
  70
    32
  0
VERTEX
  8
0
  5
8584
 10
-157.938
 20
292.930
 30
-6.50704e-14
  70
    32
  0
VERTEX
  8
0
  5
8585
 10
-157.938
 20
292.935
 30
-6.50719e-14
  70
    32
  0
VERTEX
  8
0
  5
8586
 10
-157.938
 20
292.940
 30
-6.50734e-14
  70
    32
  0
VERTEX
  8
0
  5
8587
 10
-157.938
 20
292.946
 30
-6.50748e-14
  70
    32
  0
VERTEX
  8
0
  5
8588
 10
-157.938
 20
292.951
 30
-6.50762e-14
  70
    32
  0
VERTEX
  8
0
  5
8589
 10
-157.937
 20
292.956
 30
-6.50776e-14
  70
    32
  0
VERTEX
  8
0
  5
858A
 10
-157.937
 20
292.962
 30
-6.50789e-14
  70
    32
  0
VERTEX
  8
0
  5
858B
 10
-157.937
 20
292.967
 30
-6.50802e-14
  70
    32
  0
VERTEX
  8
0
  5
858C
 10
-157.937
 20
292.973
 30
-6.50815e-14
  70
    32
  0
VERTEX
  8
0
  5
858D
 10
-157.937
 20
292.978
 30
-6.50827e-14
  70
    32
  0
VERTEX
  8
0
  5
858E
 10
-157.937
 20
292.984
 30
-6.50840e-14
  70
    32
  0
VERTEX
  8
0
  5
858F
 10
-157.937
 20
292.989
 30
-6.50852e-14
  70
    32
  0
VERTEX
  8
0
  5
8590
 10
-157.937
 20
292.995
 30
-6.50864e-14
  70
    32
  0
VERTEX
  8
0
  5
8591
 10
-157.937
 20
293.000
 30
-6.50875e-14
  70
    32
  0
VERTEX
  8
0
  5
8592
 10
-157.937
 20
293.006
 30
-6.50887e-14
  70
    32
  0
VERTEX
  8
0
  5
8593
 10
-157.937
 20
293.012
 30
-6.50898e-14
  70
    32
  0
VERTEX
  8
0
  5
8594
 10
-157.936
 20
293.017
 30
-6.50909e-14
  70
    32
  0
VERTEX
  8
0
  5
8595
 10
-157.936
 20
293.023
 30
-6.50920e-14
  70
    32
  0
VERTEX
  8
0
  5
8596
 10
-157.936
 20
293.029
 30
-6.50931e-14
  70
    32
  0
VERTEX
  8
0
  5
8597
 10
-157.936
 20
293.034
 30
-6.50941e-14
  70
    32
  0
VERTEX
  8
0
  5
8598
 10
-157.936
 20
293.040
 30
-6.50952e-14
  70
    32
  0
VERTEX
  8
0
  5
8599
 10
-157.936
 20
293.046
 30
-6.50963e-14
  70
    32
  0
VERTEX
  8
0
  5
859A
 10
-157.936
 20
293.051
 30
-6.50973e-14
  70
    32
  0
VERTEX
  8
0
  5
859B
 10
-157.936
 20
293.057
 30
-6.50984e-14
  70
    32
  0
VERTEX
  8
0
  5
859C
 10
-157.936
 20
293.063
 30
-6.50994e-14
  70
    32
  0
VERTEX
  8
0
  5
859D
 10
-157.936
 20
293.068
 30
-6.51005e-14
  70
    32
  0
VERTEX
  8
0
  5
859E
 10
-157.935
 20
293.074
 30
-6.51015e-14
  70
    32
  0
VERTEX
  8
0
  5
859F
 10
-157.935
 20
293.080
 30
-6.51025e-14
  70
    32
  0
VERTEX
  8
0
  5
85A0
 10
-157.935
 20
293.086
 30
-6.51036e-14
  70
    32
  0
VERTEX
  8
0
  5
85A1
 10
-157.935
 20
293.092
 30
-6.51047e-14
  70
    32
  0
VERTEX
  8
0
  5
85A2
 10
-157.935
 20
293.097
 30
-6.51057e-14
  70
    32
  0
VERTEX
  8
0
  5
85A3
 10
-157.935
 20
293.103
 30
-6.51068e-14
  70
    32
  0
VERTEX
  8
0
  5
85A4
 10
-157.935
 20
293.109
 30
-6.51079e-14
  70
    32
  0
VERTEX
  8
0
  5
85A5
 10
-157.935
 20
293.115
 30
-6.51090e-14
  70
    32
  0
VERTEX
  8
0
  5
85A6
 10
-157.935
 20
293.121
 30
-6.51101e-14
  70
    32
  0
VERTEX
  8
0
  5
85A7
 10
-157.935
 20
293.127
 30
-6.51112e-14
  70
    32
  0
VERTEX
  8
0
  5
85A8
 10
-157.935
 20
293.133
 30
-6.51123e-14
  70
    32
  0
VERTEX
  8
0
  5
85A9
 10
-157.934
 20
293.139
 30
-6.51135e-14
  70
    32
  0
VERTEX
  8
0
  5
85AA
 10
-157.934
 20
293.144
 30
-6.51147e-14
  70
    32
  0
VERTEX
  8
0
  5
85AB
 10
-157.934
 20
293.150
 30
-6.51159e-14
  70
    32
  0
VERTEX
  8
0
  5
85AC
 10
-157.934
 20
293.156
 30
-6.51171e-14
  70
    32
  0
VERTEX
  8
0
  5
85AD
 10
-157.934
 20
293.162
 30
-6.51183e-14
  70
    32
  0
VERTEX
  8
0
  5
85AE
 10
-157.934
 20
293.168
 30
-6.51196e-14
  70
    32
  0
VERTEX
  8
0
  5
85AF
 10
-157.934
 20
293.174
 30
-6.51209e-14
  70
    32
  0
VERTEX
  8
0
  5
85B0
 10
-157.934
 20
293.180
 30
-6.51223e-14
  70
    32
  0
VERTEX
  8
0
  5
85B1
 10
-157.934
 20
293.186
 30
-6.51236e-14
  70
    32
  0
VERTEX
  8
0
  5
85B2
 10
-157.934
 20
293.192
 30
-6.51250e-14
  70
    32
  0
VERTEX
  8
0
  5
85B3
 10
-157.933
 20
293.198
 30
-6.51265e-14
  70
    32
  0
VERTEX
  8
0
  5
85B4
 10
-157.933
 20
293.204
 30
-6.51279e-14
  70
    32
  0
VERTEX
  8
0
  5
85B5
 10
-157.933
 20
293.211
 30
-6.51294e-14
  70
    32
  0
VERTEX
  8
0
  5
85B6
 10
-157.933
 20
293.217
 30
-6.51310e-14
  70
    32
  0
VERTEX
  8
0
  5
85B7
 10
-157.933
 20
293.223
 30
-6.51326e-14
  70
    32
  0
VERTEX
  8
0
  5
85B8
 10
-157.933
 20
293.229
 30
-6.51342e-14
  70
    32
  0
VERTEX
  8
0
  5
85B9
 10
-157.933
 20
293.235
 30
-6.51359e-14
  70
    32
  0
VERTEX
  8
0
  5
85BA
 10
-157.933
 20
293.241
 30
-6.51376e-14
  70
    32
  0
VERTEX
  8
0
  5
85BB
 10
-157.933
 20
293.247
 30
-6.51394e-14
  70
    32
  0
VERTEX
  8
0
  5
85BC
 10
-157.933
 20
293.253
 30
-6.51412e-14
  70
    32
  0
VERTEX
  8
0
  5
85BD
 10
-157.933
 20
293.260
 30
-6.51430e-14
  70
    32
  0
VERTEX
  8
0
  5
85BE
 10
-157.932
 20
293.266
 30
-6.51450e-14
  70
    32
  0
VERTEX
  8
0
  5
85BF
 10
-157.932
 20
293.272
 30
-6.51469e-14
  70
    32
  0
VERTEX
  8
0
  5
85C0
 10
-157.932
 20
293.278
 30
-6.51490e-14
  70
    32
  0
VERTEX
  8
0
  5
85C1
 10
-157.932
 20
293.284
 30
-6.51510e-14
  70
    32
  0
VERTEX
  8
0
  5
85C2
 10
-157.932
 20
293.291
 30
-6.51531e-14
  70
    32
  0
VERTEX
  8
0
  5
85C3
 10
-157.932
 20
293.297
 30
-6.51550e-14
  70
    32
  0
VERTEX
  8
0
  5
85C4
 10
-157.932
 20
293.303
 30
-6.51570e-14
  70
    32
  0
VERTEX
  8
0
  5
85C5
 10
-157.932
 20
293.309
 30
-6.51588e-14
  70
    32
  0
VERTEX
  8
0
  5
85C6
 10
-157.932
 20
293.316
 30
-6.51606e-14
  70
    32
  0
VERTEX
  8
0
  5
85C7
 10
-157.932
 20
293.322
 30
-6.51624e-14
  70
    32
  0
VERTEX
  8
0
  5
85C8
 10
-157.932
 20
293.328
 30
-6.51641e-14
  70
    32
  0
VERTEX
  8
0
  5
85C9
 10
-157.931
 20
293.335
 30
-6.51658e-14
  70
    32
  0
VERTEX
  8
0
  5
85CA
 10
-157.931
 20
293.341
 30
-6.51674e-14
  70
    32
  0
VERTEX
  8
0
  5
85CB
 10
-157.931
 20
293.348
 30
-6.51690e-14
  70
    32
  0
VERTEX
  8
0
  5
85CC
 10
-157.931
 20
293.354
 30
-6.51706e-14
  70
    32
  0
VERTEX
  8
0
  5
85CD
 10
-157.931
 20
293.361
 30
-6.51721e-14
  70
    32
  0
VERTEX
  8
0
  5
85CE
 10
-157.931
 20
293.367
 30
-6.51735e-14
  70
    32
  0
VERTEX
  8
0
  5
85CF
 10
-157.931
 20
293.374
 30
-6.51750e-14
  70
    32
  0
VERTEX
  8
0
  5
85D0
 10
-157.931
 20
293.380
 30
-6.51764e-14
  70
    32
  0
VERTEX
  8
0
  5
85D1
 10
-157.931
 20
293.387
 30
-6.51777e-14
  70
    32
  0
VERTEX
  8
0
  5
85D2
 10
-157.931
 20
293.393
 30
-6.51791e-14
  70
    32
  0
VERTEX
  8
0
  5
85D3
 10
-157.931
 20
293.400
 30
-6.51804e-14
  70
    32
  0
VERTEX
  8
0
  5
85D4
 10
-157.930
 20
293.406
 30
-6.51817e-14
  70
    32
  0
VERTEX
  8
0
  5
85D5
 10
-157.930
 20
293.413
 30
-6.51829e-14
  70
    32
  0
VERTEX
  8
0
  5
85D6
 10
-157.930
 20
293.420
 30
-6.51841e-14
  70
    32
  0
VERTEX
  8
0
  5
85D7
 10
-157.930
 20
293.426
 30
-6.51853e-14
  70
    32
  0
VERTEX
  8
0
  5
85D8
 10
-157.930
 20
293.433
 30
-6.51865e-14
  70
    32
  0
VERTEX
  8
0
  5
85D9
 10
-157.930
 20
293.440
 30
-6.51877e-14
  70
    32
  0
VERTEX
  8
0
  5
85DA
 10
-157.930
 20
293.447
 30
-6.51888e-14
  70
    32
  0
VERTEX
  8
0
  5
85DB
 10
-157.930
 20
293.453
 30
-6.51899e-14
  70
    32
  0
VERTEX
  8
0
  5
85DC
 10
-157.930
 20
293.460
 30
-6.51910e-14
  70
    32
  0
VERTEX
  8
0
  5
85DD
 10
-157.930
 20
293.467
 30
-6.51921e-14
  70
    32
  0
VERTEX
  8
0
  5
85DE
 10
-157.929
 20
293.474
 30
-6.51932e-14
  70
    32
  0
VERTEX
  8
0
  5
85DF
 10
-157.929
 20
293.481
 30
-6.51943e-14
  70
    32
  0
VERTEX
  8
0
  5
85E0
 10
-157.929
 20
293.487
 30
-6.51953e-14
  70
    32
  0
VERTEX
  8
0
  5
85E1
 10
-157.929
 20
293.494
 30
-6.51964e-14
  70
    32
  0
VERTEX
  8
0
  5
85E2
 10
-157.929
 20
293.501
 30
-6.51975e-14
  70
    32
  0
VERTEX
  8
0
  5
85E3
 10
-157.929
 20
293.508
 30
-6.51985e-14
  70
    32
  0
VERTEX
  8
0
  5
85E4
 10
-157.929
 20
293.515
 30
-6.51995e-14
  70
    32
  0
VERTEX
  8
0
  5
85E5
 10
-157.929
 20
293.522
 30
-6.52006e-14
  70
    32
  0
VERTEX
  8
0
  5
85E6
 10
-157.929
 20
293.529
 30
-6.52016e-14
  70
    32
  0
VERTEX
  8
0
  5
85E7
 10
-157.929
 20
293.536
 30
-6.52027e-14
  70
    32
  0
VERTEX
  8
0
  5
85E8
 10
-157.929
 20
293.543
 30
-6.52037e-14
  70
    32
  0
VERTEX
  8
0
  5
85E9
 10
-157.928
 20
293.550
 30
-6.52048e-14
  70
    32
  0
VERTEX
  8
0
  5
85EA
 10
-157.928
 20
293.557
 30
-6.52059e-14
  70
    32
  0
VERTEX
  8
0
  5
85EB
 10
-157.928
 20
293.564
 30
-6.52069e-14
  70
    32
  0
VERTEX
  8
0
  5
85EC
 10
-157.928
 20
293.571
 30
-6.52080e-14
  70
    32
  0
VERTEX
  8
0
  5
85ED
 10
-157.928
 20
293.579
 30
-6.52091e-14
  70
    32
  0
VERTEX
  8
0
  5
85EE
 10
-157.928
 20
293.586
 30
-6.52102e-14
  70
    32
  0
VERTEX
  8
0
  5
85EF
 10
-157.928
 20
293.593
 30
-6.52113e-14
  70
    32
  0
VERTEX
  8
0
  5
85F0
 10
-157.928
 20
293.600
 30
-6.52125e-14
  70
    32
  0
VERTEX
  8
0
  5
85F1
 10
-157.928
 20
293.607
 30
-6.52136e-14
  70
    32
  0
VERTEX
  8
0
  5
85F2
 10
-157.928
 20
293.614
 30
-6.52148e-14
  70
    32
  0
VERTEX
  8
0
  5
85F3
 10
-157.927
 20
293.622
 30
-6.52160e-14
  70
    32
  0
VERTEX
  8
0
  5
85F4
 10
-157.927
 20
293.629
 30
-6.52173e-14
  70
    32
  0
VERTEX
  8
0
  5
85F5
 10
-157.927
 20
293.636
 30
-6.52185e-14
  70
    32
  0
VERTEX
  8
0
  5
85F6
 10
-157.927
 20
293.644
 30
-6.52198e-14
  70
    32
  0
VERTEX
  8
0
  5
85F7
 10
-157.927
 20
293.651
 30
-6.52211e-14
  70
    32
  0
VERTEX
  8
0
  5
85F8
 10
-157.927
 20
293.658
 30
-6.52224e-14
  70
    32
  0
VERTEX
  8
0
  5
85F9
 10
-157.927
 20
293.666
 30
-6.52238e-14
  70
    32
  0
VERTEX
  8
0
  5
85FA
 10
-157.927
 20
293.673
 30
-6.52252e-14
  70
    32
  0
VERTEX
  8
0
  5
85FB
 10
-157.927
 20
293.680
 30
-6.52266e-14
  70
    32
  0
VERTEX
  8
0
  5
85FC
 10
-157.927
 20
293.688
 30
-6.52281e-14
  70
    32
  0
VERTEX
  8
0
  5
85FD
 10
-157.927
 20
293.695
 30
-6.52296e-14
  70
    32
  0
VERTEX
  8
0
  5
85FE
 10
-157.926
 20
293.703
 30
-6.52312e-14
  70
    32
  0
VERTEX
  8
0
  5
85FF
 10
-157.926
 20
293.710
 30
-6.52328e-14
  70
    32
  0
VERTEX
  8
0
  5
8600
 10
-157.926
 20
293.718
 30
-6.52344e-14
  70
    32
  0
VERTEX
  8
0
  5
8601
 10
-157.926
 20
293.725
 30
-6.52361e-14
  70
    32
  0
VERTEX
  8
0
  5
8602
 10
-157.926
 20
293.733
 30
-6.52378e-14
  70
    32
  0
VERTEX
  8
0
  5
8603
 10
-157.926
 20
293.740
 30
-6.52396e-14
  70
    32
  0
VERTEX
  8
0
  5
8604
 10
-157.926
 20
293.748
 30
-6.52414e-14
  70
    32
  0
VERTEX
  8
0
  5
8605
 10
-157.926
 20
293.755
 30
-6.52433e-14
  70
    32
  0
VERTEX
  8
0
  5
8606
 10
-157.926
 20
293.763
 30
-6.52452e-14
  70
    32
  0
VERTEX
  8
0
  5
8607
 10
-157.926
 20
293.770
 30
-6.52472e-14
  70
    32
  0
VERTEX
  8
0
  5
8608
 10
-157.926
 20
293.778
 30
-6.52492e-14
  70
    32
  0
VERTEX
  8
0
  5
8609
 10
-157.925
 20
293.786
 30
-6.52513e-14
  70
    32
  0
VERTEX
  8
0
  5
860A
 10
-157.925
 20
293.793
 30
-6.52533e-14
  70
    32
  0
VERTEX
  8
0
  5
860B
 10
-157.925
 20
293.801
 30
-6.52553e-14
  70
    32
  0
VERTEX
  8
0
  5
860C
 10
-157.925
 20
293.809
 30
-6.52572e-14
  70
    32
  0
VERTEX
  8
0
  5
860D
 10
-157.925
 20
293.816
 30
-6.52591e-14
  70
    32
  0
VERTEX
  8
0
  5
860E
 10
-157.925
 20
293.824
 30
-6.52609e-14
  70
    32
  0
VERTEX
  8
0
  5
860F
 10
-157.925
 20
293.832
 30
-6.52626e-14
  70
    32
  0
VERTEX
  8
0
  5
8610
 10
-157.925
 20
293.840
 30
-6.52643e-14
  70
    32
  0
VERTEX
  8
0
  5
8611
 10
-157.925
 20
293.847
 30
-6.52660e-14
  70
    32
  0
VERTEX
  8
0
  5
8612
 10
-157.925
 20
293.855
 30
-6.52676e-14
  70
    32
  0
VERTEX
  8
0
  5
8613
 10
-157.925
 20
293.863
 30
-6.52692e-14
  70
    32
  0
VERTEX
  8
0
  5
8614
 10
-157.924
 20
293.871
 30
-6.52708e-14
  70
    32
  0
VERTEX
  8
0
  5
8615
 10
-157.924
 20
293.879
 30
-6.52723e-14
  70
    32
  0
VERTEX
  8
0
  5
8616
 10
-157.924
 20
293.886
 30
-6.52737e-14
  70
    32
  0
VERTEX
  8
0
  5
8617
 10
-157.924
 20
293.894
 30
-6.52752e-14
  70
    32
  0
VERTEX
  8
0
  5
8618
 10
-157.924
 20
293.902
 30
-6.52765e-14
  70
    32
  0
VERTEX
  8
0
  5
8619
 10
-157.924
 20
293.910
 30
-6.52779e-14
  70
    32
  0
VERTEX
  8
0
  5
861A
 10
-157.924
 20
293.918
 30
-6.52792e-14
  70
    32
  0
VERTEX
  8
0
  5
861B
 10
-157.924
 20
293.926
 30
-6.52805e-14
  70
    32
  0
VERTEX
  8
0
  5
861C
 10
-157.924
 20
293.934
 30
-6.52818e-14
  70
    32
  0
VERTEX
  8
0
  5
861D
 10
-157.924
 20
293.942
 30
-6.52831e-14
  70
    32
  0
VERTEX
  8
0
  5
861E
 10
-157.924
 20
293.950
 30
-6.52843e-14
  70
    32
  0
VERTEX
  8
0
  5
861F
 10
-157.924
 20
293.958
 30
-6.52855e-14
  70
    32
  0
VERTEX
  8
0
  5
8620
 10
-157.923
 20
293.966
 30
-6.52866e-14
  70
    32
  0
VERTEX
  8
0
  5
8621
 10
-157.923
 20
293.974
 30
-6.52878e-14
  70
    32
  0
VERTEX
  8
0
  5
8622
 10
-157.923
 20
293.982
 30
-6.52889e-14
  70
    32
  0
VERTEX
  8
0
  5
8623
 10
-157.923
 20
293.990
 30
-6.52901e-14
  70
    32
  0
VERTEX
  8
0
  5
8624
 10
-157.923
 20
293.998
 30
-6.52912e-14
  70
    32
  0
VERTEX
  8
0
  5
8625
 10
-157.923
 20
294.006
 30
-6.52923e-14
  70
    32
  0
VERTEX
  8
0
  5
8626
 10
-157.923
 20
294.014
 30
-6.52933e-14
  70
    32
  0
VERTEX
  8
0
  5
8627
 10
-157.923
 20
294.022
 30
-6.52944e-14
  70
    32
  0
VERTEX
  8
0
  5
8628
 10
-157.923
 20
294.030
 30
-6.52955e-14
  70
    32
  0
VERTEX
  8
0
  5
8629
 10
-157.923
 20
294.039
 30
-6.52965e-14
  70
    32
  0
VERTEX
  8
0
  5
862A
 10
-157.923
 20
294.047
 30
-6.52976e-14
  70
    32
  0
VERTEX
  8
0
  5
862B
 10
-157.923
 20
294.055
 30
-6.52986e-14
  70
    32
  0
VERTEX
  8
0
  5
862C
 10
-157.922
 20
294.063
 30
-6.52997e-14
  70
    32
  0
VERTEX
  8
0
  5
862D
 10
-157.922
 20
294.071
 30
-6.53007e-14
  70
    32
  0
VERTEX
  8
0
  5
862E
 10
-157.922
 20
294.079
 30
-6.53018e-14
  70
    32
  0
VERTEX
  8
0
  5
862F
 10
-157.922
 20
294.088
 30
-6.53028e-14
  70
    32
  0
VERTEX
  8
0
  5
8630
 10
-157.922
 20
294.096
 30
-6.53039e-14
  70
    32
  0
VERTEX
  8
0
  5
8631
 10
-157.922
 20
294.104
 30
-6.53049e-14
  70
    32
  0
VERTEX
  8
0
  5
8632
 10
-157.922
 20
294.112
 30
-6.53060e-14
  70
    32
  0
VERTEX
  8
0
  5
8633
 10
-157.922
 20
294.121
 30
-6.53071e-14
  70
    32
  0
VERTEX
  8
0
  5
8634
 10
-157.922
 20
294.129
 30
-6.53081e-14
  70
    32
  0
VERTEX
  8
0
  5
8635
 10
-157.922
 20
294.137
 30
-6.53092e-14
  70
    32
  0
VERTEX
  8
0
  5
8636
 10
-157.922
 20
294.146
 30
-6.53104e-14
  70
    32
  0
VERTEX
  8
0
  5
8637
 10
-157.922
 20
294.154
 30
-6.53115e-14
  70
    32
  0
VERTEX
  8
0
  5
8638
 10
-157.921
 20
294.162
 30
-6.53126e-14
  70
    32
  0
VERTEX
  8
0
  5
8639
 10
-157.921
 20
294.171
 30
-6.53138e-14
  70
    32
  0
VERTEX
  8
0
  5
863A
 10
-157.921
 20
294.179
 30
-6.53150e-14
  70
    32
  0
VERTEX
  8
0
  5
863B
 10
-157.921
 20
294.187
 30
-6.53162e-14
  70
    32
  0
VERTEX
  8
0
  5
863C
 10
-157.921
 20
294.196
 30
-6.53174e-14
  70
    32
  0
VERTEX
  8
0
  5
863D
 10
-157.921
 20
294.204
 30
-6.53187e-14
  70
    32
  0
VERTEX
  8
0
  5
863E
 10
-157.921
 20
294.213
 30
-6.53199e-14
  70
    32
  0
VERTEX
  8
0
  5
863F
 10
-157.921
 20
294.221
 30
-6.53213e-14
  70
    32
  0
VERTEX
  8
0
  5
8640
 10
-157.921
 20
294.229
 30
-6.53226e-14
  70
    32
  0
VERTEX
  8
0
  5
8641
 10
-157.921
 20
294.238
 30
-6.53240e-14
  70
    32
  0
VERTEX
  8
0
  5
8642
 10
-157.921
 20
294.246
 30
-6.53254e-14
  70
    32
  0
VERTEX
  8
0
  5
8643
 10
-157.921
 20
294.255
 30
-6.53268e-14
  70
    32
  0
VERTEX
  8
0
  5
8644
 10
-157.921
 20
294.263
 30
-6.53283e-14
  70
    32
  0
VERTEX
  8
0
  5
8645
 10
-157.920
 20
294.272
 30
-6.53298e-14
  70
    32
  0
VERTEX
  8
0
  5
8646
 10
-157.920
 20
294.280
 30
-6.53314e-14
  70
    32
  0
VERTEX
  8
0
  5
8647
 10
-157.920
 20
294.289
 30
-6.53330e-14
  70
    32
  0
VERTEX
  8
0
  5
8648
 10
-157.920
 20
294.297
 30
-6.53346e-14
  70
    32
  0
VERTEX
  8
0
  5
8649
 10
-157.920
 20
294.306
 30
-6.53363e-14
  70
    32
  0
VERTEX
  8
0
  5
864A
 10
-157.920
 20
294.314
 30
-6.53380e-14
  70
    32
  0
VERTEX
  8
0
  5
864B
 10
-157.920
 20
294.323
 30
-6.53398e-14
  70
    32
  0
VERTEX
  8
0
  5
864C
 10
-157.920
 20
294.331
 30
-6.53416e-14
  70
    32
  0
VERTEX
  8
0
  5
864D
 10
-157.920
 20
294.340
 30
-6.53435e-14
  70
    32
  0
VERTEX
  8
0
  5
864E
 10
-157.920
 20
294.349
 30
-6.53454e-14
  70
    32
  0
VERTEX
  8
0
  5
864F
 10
-157.920
 20
294.357
 30
-6.53474e-14
  70
    32
  0
VERTEX
  8
0
  5
8650
 10
-157.920
 20
294.366
 30
-6.53495e-14
  70
    32
  0
VERTEX
  8
0
  5
8651
 10
-157.920
 20
294.374
 30
-6.53516e-14
  70
    32
  0
VERTEX
  8
0
  5
8652
 10
-157.920
 20
294.383
 30
-6.53537e-14
  70
    32
  0
VERTEX
  8
0
  5
8653
 10
-157.919
 20
294.392
 30
-6.53560e-14
  70
    32
  0
VERTEX
  8
0
  5
8654
 10
-157.919
 20
294.400
 30
-6.53582e-14
  70
    32
  0
VERTEX
  8
0
  5
8655
 10
-157.919
 20
294.409
 30
-6.53605e-14
  70
    32
  0
VERTEX
  8
0
  5
8656
 10
-157.919
 20
294.418
 30
-6.53629e-14
  70
    32
  0
VERTEX
  8
0
  5
8657
 10
-157.919
 20
294.426
 30
-6.53653e-14
  70
    32
  0
VERTEX
  8
0
  5
8658
 10
-157.919
 20
294.435
 30
-6.53678e-14
  70
    32
  0
VERTEX
  8
0
  5
8659
 10
-157.919
 20
294.444
 30
-6.53703e-14
  70
    32
  0
VERTEX
  8
0
  5
865A
 10
-157.919
 20
294.452
 30
-6.53729e-14
  70
    32
  0
VERTEX
  8
0
  5
865B
 10
-157.919
 20
294.461
 30
-6.53755e-14
  70
    32
  0
VERTEX
  8
0
  5
865C
 10
-157.919
 20
294.470
 30
-6.53781e-14
  70
    32
  0
VERTEX
  8
0
  5
865D
 10
-157.919
 20
294.479
 30
-6.53808e-14
  70
    32
  0
VERTEX
  8
0
  5
865E
 10
-157.919
 20
294.487
 30
-6.53835e-14
  70
    32
  0
VERTEX
  8
0
  5
865F
 10
-157.919
 20
294.496
 30
-6.53862e-14
  70
    32
  0
VERTEX
  8
0
  5
8660
 10
-157.919
 20
294.505
 30
-6.53890e-14
  70
    32
  0
VERTEX
  8
0
  5
8661
 10
-157.919
 20
294.514
 30
-6.53918e-14
  70
    32
  0
VERTEX
  8
0
  5
8662
 10
-157.918
 20
294.522
 30
-6.53947e-14
  70
    32
  0
VERTEX
  8
0
  5
8663
 10
-157.918
 20
294.531
 30
-6.53976e-14
  70
    32
  0
VERTEX
  8
0
  5
8664
 10
-157.918
 20
294.540
 30
-6.54005e-14
  70
    32
  0
VERTEX
  8
0
  5
8665
 10
-157.918
 20
294.549
 30
-6.54034e-14
  70
    32
  0
VERTEX
  8
0
  5
8666
 10
-157.918
 20
294.558
 30
-6.54064e-14
  70
    32
  0
VERTEX
  8
0
  5
8667
 10
-157.918
 20
294.566
 30
-6.54093e-14
  70
    32
  0
VERTEX
  8
0
  5
8668
 10
-157.918
 20
294.575
 30
-6.54123e-14
  70
    32
  0
VERTEX
  8
0
  5
8669
 10
-157.918
 20
294.584
 30
-6.54154e-14
  70
    32
  0
VERTEX
  8
0
  5
866A
 10
-157.918
 20
294.593
 30
-6.54184e-14
  70
    32
  0
VERTEX
  8
0
  5
866B
 10
-157.918
 20
294.602
 30
-6.54214e-14
  70
    32
  0
VERTEX
  8
0
  5
866C
 10
-157.918
 20
294.610
 30
-6.54245e-14
  70
    32
  0
VERTEX
  8
0
  5
866D
 10
-157.918
 20
294.619
 30
-6.54276e-14
  70
    32
  0
VERTEX
  8
0
  5
866E
 10
-157.918
 20
294.628
 30
-6.54307e-14
  70
    32
  0
VERTEX
  8
0
  5
866F
 10
-157.918
 20
294.637
 30
-6.54338e-14
  70
    32
  0
VERTEX
  8
0
  5
8670
 10
-157.918
 20
294.646
 30
-6.54369e-14
  70
    32
  0
VERTEX
  8
0
  5
8671
 10
-157.918
 20
294.655
 30
-6.54400e-14
  70
    32
  0
VERTEX
  8
0
  5
8672
 10
-157.918
 20
294.664
 30
-6.54432e-14
  70
    32
  0
VERTEX
  8
0
  5
8673
 10
-157.917
 20
294.673
 30
-6.54463e-14
  70
    32
  0
VERTEX
  8
0
  5
8674
 10
-157.917
 20
294.681
 30
-6.54494e-14
  70
    32
  0
VERTEX
  8
0
  5
8675
 10
-157.917
 20
294.690
 30
-6.54525e-14
  70
    32
  0
VERTEX
  8
0
  5
8676
 10
-157.917
 20
294.699
 30
-6.54557e-14
  70
    32
  0
VERTEX
  8
0
  5
8677
 10
-157.917
 20
294.708
 30
-6.54588e-14
  70
    32
  0
VERTEX
  8
0
  5
8678
 10
-157.917
 20
294.717
 30
-6.54619e-14
  70
    32
  0
VERTEX
  8
0
  5
8679
 10
-157.917
 20
294.726
 30
-6.54650e-14
  70
    32
  0
VERTEX
  8
0
  5
867A
 10
-157.917
 20
294.735
 30
-6.54681e-14
  70
    32
  0
VERTEX
  8
0
  5
867B
 10
-157.917
 20
294.744
 30
-6.54712e-14
  70
    32
  0
VERTEX
  8
0
  5
867C
 10
-157.917
 20
294.753
 30
-6.54743e-14
  70
    32
  0
VERTEX
  8
0
  5
867D
 10
-157.917
 20
294.762
 30
-6.54774e-14
  70
    32
  0
VERTEX
  8
0
  5
867E
 10
-157.917
 20
294.771
 30
-6.54805e-14
  70
    32
  0
VERTEX
  8
0
  5
867F
 10
-157.917
 20
294.780
 30
-6.54835e-14
  70
    32
  0
VERTEX
  8
0
  5
8680
 10
-157.917
 20
294.789
 30
-6.54865e-14
  70
    32
  0
VERTEX
  8
0
  5
8681
 10
-157.917
 20
294.798
 30
-6.54895e-14
  70
    32
  0
VERTEX
  8
0
  5
8682
 10
-157.917
 20
294.807
 30
-6.54925e-14
  70
    32
  0
VERTEX
  8
0
  5
8683
 10
-157.917
 20
294.816
 30
-6.54955e-14
  70
    32
  0
VERTEX
  8
0
  5
8684
 10
-157.917
 20
294.825
 30
-6.54984e-14
  70
    32
  0
VERTEX
  8
0
  5
8685
 10
-157.917
 20
294.834
 30
-6.55014e-14
  70
    32
  0
VERTEX
  8
0
  5
8686
 10
-157.917
 20
294.843
 30
-6.55042e-14
  70
    32
  0
VERTEX
  8
0
  5
8687
 10
-157.916
 20
294.852
 30
-6.55071e-14
  70
    32
  0
VERTEX
  8
0
  5
8688
 10
-157.916
 20
294.860
 30
-6.55099e-14
  70
    32
  0
VERTEX
  8
0
  5
8689
 10
-157.916
 20
294.869
 30
-6.55127e-14
  70
    32
  0
VERTEX
  8
0
  5
868A
 10
-157.916
 20
294.878
 30
-6.55155e-14
  70
    32
  0
VERTEX
  8
0
  5
868B
 10
-157.916
 20
294.887
 30
-6.55182e-14
  70
    32
  0
VERTEX
  8
0
  5
868C
 10
-157.916
 20
294.896
 30
-6.55209e-14
  70
    32
  0
VERTEX
  8
0
  5
868D
 10
-157.916
 20
294.905
 30
-6.55236e-14
  70
    32
  0
VERTEX
  8
0
  5
868E
 10
-157.916
 20
294.915
 30
-6.55262e-14
  70
    32
  0
VERTEX
  8
0
  5
868F
 10
-157.916
 20
294.924
 30
-6.55287e-14
  70
    32
  0
VERTEX
  8
0
  5
8690
 10
-157.916
 20
294.933
 30
-6.55313e-14
  70
    32
  0
VERTEX
  8
0
  5
8691
 10
-157.916
 20
294.942
 30
-6.55338e-14
  70
    32
  0
VERTEX
  8
0
  5
8692
 10
-157.916
 20
294.951
 30
-6.55362e-14
  70
    32
  0
VERTEX
  8
0
  5
8693
 10
-157.916
 20
294.960
 30
-6.55386e-14
  70
    32
  0
VERTEX
  8
0
  5
8694
 10
-157.916
 20
294.969
 30
-6.55409e-14
  70
    32
  0
VERTEX
  8
0
  5
8695
 10
-157.916
 20
294.978
 30
-6.55432e-14
  70
    32
  0
VERTEX
  8
0
  5
8696
 10
-157.916
 20
294.987
 30
-6.55454e-14
  70
    32
  0
VERTEX
  8
0
  5
8697
 10
-157.916
 20
294.996
 30
-6.55476e-14
  70
    32
  0
VERTEX
  8
0
  5
8698
 10
-157.916
 20
295.005
 30
-6.55497e-14
  70
    32
  0
VERTEX
  8
0
  5
8699
 10
-157.916
 20
295.014
 30
-6.55518e-14
  70
    32
  0
VERTEX
  8
0
  5
869A
 10
-157.916
 20
295.023
 30
-6.55538e-14
  70
    32
  0
VERTEX
  8
0
  5
869B
 10
-157.916
 20
295.032
 30
-6.55558e-14
  70
    32
  0
VERTEX
  8
0
  5
869C
 10
-157.916
 20
295.041
 30
-6.55577e-14
  70
    32
  0
VERTEX
  8
0
  5
869D
 10
-157.916
 20
295.050
 30
-6.55595e-14
  70
    32
  0
VERTEX
  8
0
  5
869E
 10
-157.916
 20
295.059
 30
-6.55613e-14
  70
    32
  0
VERTEX
  8
0
  5
869F
 10
-157.916
 20
295.068
 30
-6.55630e-14
  70
    32
  0
VERTEX
  8
0
  5
86A0
 10
-157.916
 20
295.077
 30
-6.55647e-14
  70
    32
  0
VERTEX
  8
0
  5
86A1
 10
-157.915
 20
295.086
 30
-6.55663e-14
  70
    32
  0
VERTEX
  8
0
  5
86A2
 10
-157.915
 20
295.095
 30
-6.55679e-14
  70
    32
  0
VERTEX
  8
0
  5
86A3
 10
-157.915
 20
295.104
 30
-6.55694e-14
  70
    32
  0
VERTEX
  8
0
  5
86A4
 10
-157.915
 20
295.113
 30
-6.55709e-14
  70
    32
  0
VERTEX
  8
0
  5
86A5
 10
-157.915
 20
295.122
 30
-6.55723e-14
  70
    32
  0
VERTEX
  8
0
  5
86A6
 10
-157.915
 20
295.131
 30
-6.55737e-14
  70
    32
  0
VERTEX
  8
0
  5
86A7
 10
-157.915
 20
295.140
 30
-6.55751e-14
  70
    32
  0
VERTEX
  8
0
  5
86A8
 10
-157.915
 20
295.149
 30
-6.55764e-14
  70
    32
  0
VERTEX
  8
0
  5
86A9
 10
-157.915
 20
295.158
 30
-6.55776e-14
  70
    32
  0
VERTEX
  8
0
  5
86AA
 10
-157.915
 20
295.167
 30
-6.55788e-14
  70
    32
  0
VERTEX
  8
0
  5
86AB
 10
-157.915
 20
295.176
 30
-6.55800e-14
  70
    32
  0
VERTEX
  8
0
  5
86AC
 10
-157.915
 20
295.185
 30
-6.55811e-14
  70
    32
  0
VERTEX
  8
0
  5
86AD
 10
-157.915
 20
295.194
 30
-6.55821e-14
  70
    32
  0
VERTEX
  8
0
  5
86AE
 10
-157.915
 20
295.203
 30
-6.55832e-14
  70
    32
  0
VERTEX
  8
0
  5
86AF
 10
-157.915
 20
295.212
 30
-6.55842e-14
  70
    32
  0
VERTEX
  8
0
  5
86B0
 10
-157.915
 20
295.221
 30
-6.55851e-14
  70
    32
  0
VERTEX
  8
0
  5
86B1
 10
-157.915
 20
295.231
 30
-6.55860e-14
  70
    32
  0
VERTEX
  8
0
  5
86B2
 10
-157.915
 20
295.240
 30
-6.55869e-14
  70
    32
  0
VERTEX
  8
0
  5
86B3
 10
-157.915
 20
295.249
 30
-6.55877e-14
  70
    32
  0
VERTEX
  8
0
  5
86B4
 10
-157.915
 20
295.258
 30
-6.55885e-14
  70
    32
  0
VERTEX
  8
0
  5
86B5
 10
-157.915
 20
295.267
 30
-6.55893e-14
  70
    32
  0
VERTEX
  8
0
  5
86B6
 10
-157.915
 20
295.276
 30
-6.55900e-14
  70
    32
  0
VERTEX
  8
0
  5
86B7
 10
-157.915
 20
295.285
 30
-6.55907e-14
  70
    32
  0
VERTEX
  8
0
  5
86B8
 10
-157.915
 20
295.294
 30
-6.55914e-14
  70
    32
  0
VERTEX
  8
0
  5
86B9
 10
-157.915
 20
295.303
 30
-6.55920e-14
  70
    32
  0
VERTEX
  8
0
  5
86BA
 10
-157.915
 20
295.312
 30
-6.55926e-14
  70
    32
  0
VERTEX
  8
0
  5
86BB
 10
-157.915
 20
295.321
 30
-6.55932e-14
  70
    32
  0
VERTEX
  8
0
  5
86BC
 10
-157.915
 20
295.330
 30
-6.55937e-14
  70
    32
  0
VERTEX
  8
0
  5
86BD
 10
-157.915
 20
295.339
 30
-6.55942e-14
  70
    32
  0
VERTEX
  8
0
  5
86BE
 10
-157.915
 20
295.348
 30
-6.55947e-14
  70
    32
  0
VERTEX
  8
0
  5
86BF
 10
-157.915
 20
295.357
 30
-6.55952e-14
  70
    32
  0
VERTEX
  8
0
  5
86C0
 10
-157.915
 20
295.366
 30
-6.55956e-14
  70
    32
  0
VERTEX
  8
0
  5
86C1
 10
-157.915
 20
295.375
 30
-6.55960e-14
  70
    32
  0
VERTEX
  8
0
  5
86C2
 10
-157.915
 20
295.383
 30
-6.55964e-14
  70
    32
  0
VERTEX
  8
0
  5
86C3
 10
-157.915
 20
295.392
 30
-6.55967e-14
  70
    32
  0
VERTEX
  8
0
  5
86C4
 10
-157.915
 20
295.401
 30
-6.55970e-14
  70
    32
  0
VERTEX
  8
0
  5
86C5
 10
-157.915
 20
295.410
 30
-6.55973e-14
  70
    32
  0
VERTEX
  8
0
  5
86C6
 10
-157.915
 20
295.419
 30
-6.55976e-14
  70
    32
  0
VERTEX
  8
0
  5
86C7
 10
-157.915
 20
295.428
 30
-6.55979e-14
  70
    32
  0
VERTEX
  8
0
  5
86C8
 10
-157.915
 20
295.437
 30
-6.55981e-14
  70
    32
  0
VERTEX
  8
0
  5
86C9
 10
-157.915
 20
295.446
 30
-6.55984e-14
  70
    32
  0
VERTEX
  8
0
  5
86CA
 10
-157.915
 20
295.455
 30
-6.55986e-14
  70
    32
  0
VERTEX
  8
0
  5
86CB
 10
-157.915
 20
295.464
 30
-6.55988e-14
  70
    32
  0
VERTEX
  8
0
  5
86CC
 10
-157.915
 20
295.473
 30
-6.55989e-14
  70
    32
  0
VERTEX
  8
0
  5
86CD
 10
-157.915
 20
295.482
 30
-6.55991e-14
  70
    32
  0
VERTEX
  8
0
  5
86CE
 10
-157.915
 20
295.491
 30
-6.55992e-14
  70
    32
  0
VERTEX
  8
0
  5
86CF
 10
-157.915
 20
295.500
 30
-6.55993e-14
  70
    32
  0
VERTEX
  8
0
  5
86D0
 10
-157.915
 20
295.509
 30
-6.55994e-14
  70
    32
  0
VERTEX
  8
0
  5
86D1
 10
-157.915
 20
295.517
 30
-6.55995e-14
  70
    32
  0
VERTEX
  8
0
  5
86D2
 10
-157.915
 20
295.526
 30
-6.55996e-14
  70
    32
  0
VERTEX
  8
0
  5
86D3
 10
-157.915
 20
295.535
 30
-6.55997e-14
  70
    32
  0
VERTEX
  8
0
  5
86D4
 10
-157.915
 20
295.544
 30
-6.55998e-14
  70
    32
  0
VERTEX
  8
0
  5
86D5
 10
-157.915
 20
295.553
 30
-6.55998e-14
  70
    32
  0
VERTEX
  8
0
  5
86D6
 10
-157.914
 20
295.562
 30
-6.55999e-14
  70
    32
  0
VERTEX
  8
0
  5
86D7
 10
-157.914
 20
295.571
 30
-6.55999e-14
  70
    32
  0
VERTEX
  8
0
  5
86D8
 10
-157.914
 20
295.580
 30
-6.55999e-14
  70
    32
  0
VERTEX
  8
0
  5
86D9
 10
-157.914
 20
295.588
 30
-6.56000e-14
  70
    32
  0
VERTEX
  8
0
  5
86DA
 10
-157.914
 20
295.597
 30
-6.56000e-14
  70
    32
  0
VERTEX
  8
0
  5
86DB
 10
-157.914
 20
295.606
 30
-6.56000e-14
  70
    32
  0
VERTEX
  8
0
  5
86DC
 10
-157.914
 20
295.615
 30
-6.56000e-14
  70
    32
  0
VERTEX
  8
0
  5
86DD
 10
-157.914
 20
295.624
 30
-6.56000e-14
  70
    32
  0
VERTEX
  8
0
  5
86DE
 10
-157.914
 20
295.632
 30
-6.56000e-14
  70
    32
  0
VERTEX
  8
0
  5
86DF
 10
-157.914
 20
295.641
 30
-6.56000e-14
  70
    32
  0
VERTEX
  8
0
  5
86E0
 10
-157.914
 20
295.650
 30
-6.56000e-14
  70
    32
  0
SEQEND
  8
0
  5
86E1
  0
LINE
  5
7D55
  8
0
  6
VERDECKT2
 62
     1
 10
-157.9500000000001023
 20
292.299999999999784
 30
-0.0000000000000649
 11
-161.9500000000001023
 21
292.299999999999784
 31
-0.0000000000000649
210
0.0
220
1.0
230
-0.0000000000000002
  0
LINE
  5
7D56
  8
0
  6
VERDECKT2
 62
     1
 10
-157.9500000000001023
 20
298.9999999999997726
 30
-0.0000000000000664
 11
-161.9500000000001023
 21
298.9999999999997726
 31
-0.0000000000000664
210
0.0
220
1.0
230
-0.0000000000000002
  0
LINE
  5
7D57
  8
0
  6
VERDECKT2
 62
     1
 10
-157.9500000000001023
 20
139.9999999999998863
 30
-0.0000000000000311
 11
-157.9500000000001023
 21
292.299999999999784
 31
-0.0000000000000649
210
0.0
220
1.0
230
-0.0000000000000002
  0
LINE
  5
7D58
  8
0
  6
VERDECKT2
 62
     1
 10
-157.9500000000001023
 20
298.9999999999997726
 30
-0.0000000000000664
 11
-157.9500000000001023
 21
308.0
 31
-0.0000000000000684
210
0.0
220
1.0
230
-0.0000000000000002
  0
LINE
  5
7D59
  8
0
  6
VERDECKT2
 62
     1
 10
157.9499999999999034
 20
139.9999999999998863
 30
-0.0000000000000311
 11
157.9499999999999034
 21
308.0
 31
-0.0000000000000684
210
0.0
220
1.0
230
-0.0000000000000002
  0
LINE
  5
7D5A
  8
0
  6
VERDECKT2
 62
     1
 10
-161.9500000000001023
 20
230.0000000000003126
 30
-0.0000000000000511
 11
-161.9500000000001023
 21
234.0000000000003126
 31
-0.000000000000052
210
0.0
220
1.0
230
-0.0000000000000002
  0
LINE
  5
7D5B
  8
0
  6
VERDECKT2
 62
     1
 10
161.9499999999999034
 20
229.9999999999992895
 30
-0.0000000000000511
 11
161.9499999999999034
 21
233.9999999999992895
 31
-0.000000000000052
210
0.0
220
1.0
230
-0.0000000000000002
  0
LINE
  5
7D5C
  8
0
  6
VERDECKT2
 62
     1
 10
-157.8500000000001933
 20
290.7071067811862122
 30
-0.0000000000000645
 11
-157.8500000000001933
 21
300.2928932188135036
 31
-0.0000000000000667
210
0.0
220
1.0
230
-0.0000000000000002
  0
LINE
  5
7D5D
  8
0
  6
VERDECKT2
 62
     1
 10
-156.8499999999999943
 20
290.7071067811862122
 30
-0.0000000000000645
 11
-156.8499999999999943
 21
300.2928932188136173
 31
-0.0000000000000667
210
0.0
220
1.0
230
-0.0000000000000002
  0
ARC
  5
7D5E
  8
0
  6
VERDECKT2
 62
     1
 10
157.350000000000108
 20
290.7071067811862122
 30
0.0
 40
0.5000000000000853
210
0.0
220
-0.0000000000000002
230
-1.0
 50
180.0
 51
0.0
  0
ARC
  5
7D5F
  8
0
  6
VERDECKT2
 62
     1
 10
157.350000000000108
 20
300.2928932188136173
 30
0.0
 40
0.5000000000001421
210
0.0
220
-0.0000000000000002
230
-1.0
 50
359.9999999999935199
 51
179.9999999999934914
  0
LINE
  5
7D60
  8
0
  6
VERDECKT2
 62
     1
 10
-161.9404288619739134
 20
298.4999999999998863
 30
-0.0000000000000663
 11
-157.8500000000001933
 21
298.4999999999998863
 31
-0.0000000000000663
210
0.0
220
1.0
230
-0.0000000000000002
  0
LINE
  5
7D61
  8
0
  6
VERDECKT2
 62
     1
 10
-161.9459863658252061
 20
292.4999999999998863
 30
-0.0000000000000649
 11
-157.8500000000001933
 21
292.4999999999998863
 31
-0.0000000000000649
210
0.0
220
1.0
230
-0.0000000000000002
  0
LINE
  5
7D62
  8
0
  6
VERDECKT2
 62
     1
 10
-157.850000000000307
 20
290.7071067811862122
 30
-0.0000000000000645
 11
-157.850000000000307
 21
300.2928932188135036
 31
-0.0000000000000667
210
0.0
220
1.0
230
-0.0000000000000002
  0
LINE
  5
7D63
  8
0
  6
VERDECKT2
 62
     1
 10
-156.8499999999999091
 20
290.7071067811862122
 30
-0.0000000000000645
 11
-156.8499999999999091
 21
300.2928932188136173
 31
-0.0000000000000667
210
0.0
220
1.0
230
-0.0000000000000002
  0
POLYLINE
  8
0
  5
86E2
  62
1
  66
     1
 10
0.000000
 20
0.000000
 30
0.000000
  70
     8
  0
VERTEX
  8
0
  5
86E3
 10
-157.922
 20
295.500
 30
-6.56000e-14
  70
    32
  0
VERTEX
  8
0
  5
86E4
 10
-157.922
 20
295.492
 30
-6.55999e-14
  70
    32
  0
VERTEX
  8
0
  5
86E5
 10
-157.922
 20
295.484
 30
-6.55998e-14
  70
    32
  0
VERTEX
  8
0
  5
86E6
 10
-157.922
 20
295.476
 30
-6.55995e-14
  70
    32
  0
VERTEX
  8
0
  5
86E7
 10
-157.922
 20
295.468
 30
-6.55991e-14
  70
    32
  0
VERTEX
  8
0
  5
86E8
 10
-157.922
 20
295.461
 30
-6.55986e-14
  70
    32
  0
VERTEX
  8
0
  5
86E9
 10
-157.922
 20
295.453
 30
-6.55980e-14
  70
    32
  0
VERTEX
  8
0
  5
86EA
 10
-157.922
 20
295.445
 30
-6.55973e-14
  70
    32
  0
VERTEX
  8
0
  5
86EB
 10
-157.922
 20
295.437
 30
-6.55965e-14
  70
    32
  0
VERTEX
  8
0
  5
86EC
 10
-157.922
 20
295.429
 30
-6.55956e-14
  70
    32
  0
VERTEX
  8
0
  5
86ED
 10
-157.922
 20
295.421
 30
-6.55946e-14
  70
    32
  0
VERTEX
  8
0
  5
86EE
 10
-157.922
 20
295.413
 30
-6.55935e-14
  70
    32
  0
VERTEX
  8
0
  5
86EF
 10
-157.922
 20
295.405
 30
-6.55923e-14
  70
    32
  0
VERTEX
  8
0
  5
86F0
 10
-157.922
 20
295.397
 30
-6.55911e-14
  70
    32
  0
VERTEX
  8
0
  5
86F1
 10
-157.922
 20
295.389
 30
-6.55897e-14
  70
    32
  0
VERTEX
  8
0
  5
86F2
 10
-157.922
 20
295.381
 30
-6.55883e-14
  70
    32
  0
VERTEX
  8
0
  5
86F3
 10
-157.922
 20
295.373
 30
-6.55868e-14
  70
    32
  0
VERTEX
  8
0
  5
86F4
 10
-157.922
 20
295.365
 30
-6.55852e-14
  70
    32
  0
VERTEX
  8
0
  5
86F5
 10
-157.922
 20
295.357
 30
-6.55835e-14
  70
    32
  0
VERTEX
  8
0
  5
86F6
 10
-157.922
 20
295.349
 30
-6.55818e-14
  70
    32
  0
VERTEX
  8
0
  5
86F7
 10
-157.922
 20
295.341
 30
-6.55800e-14
  70
    32
  0
VERTEX
  8
0
  5
86F8
 10
-157.922
 20
295.333
 30
-6.55781e-14
  70
    32
  0
VERTEX
  8
0
  5
86F9
 10
-157.922
 20
295.325
 30
-6.55762e-14
  70
    32
  0
VERTEX
  8
0
  5
86FA
 10
-157.922
 20
295.317
 30
-6.55742e-14
  70
    32
  0
VERTEX
  8
0
  5
86FB
 10
-157.922
 20
295.309
 30
-6.55721e-14
  70
    32
  0
VERTEX
  8
0
  5
86FC
 10
-157.922
 20
295.301
 30
-6.55700e-14
  70
    32
  0
VERTEX
  8
0
  5
86FD
 10
-157.922
 20
295.293
 30
-6.55678e-14
  70
    32
  0
VERTEX
  8
0
  5
86FE
 10
-157.922
 20
295.285
 30
-6.55656e-14
  70
    32
  0
VERTEX
  8
0
  5
86FF
 10
-157.922
 20
295.277
 30
-6.55633e-14
  70
    32
  0
VERTEX
  8
0
  5
8700
 10
-157.922
 20
295.269
 30
-6.55610e-14
  70
    32
  0
VERTEX
  8
0
  5
8701
 10
-157.922
 20
295.261
 30
-6.55586e-14
  70
    32
  0
VERTEX
  8
0
  5
8702
 10
-157.922
 20
295.253
 30
-6.55562e-14
  70
    32
  0
VERTEX
  8
0
  5
8703
 10
-157.922
 20
295.245
 30
-6.55538e-14
  70
    32
  0
VERTEX
  8
0
  5
8704
 10
-157.922
 20
295.237
 30
-6.55513e-14
  70
    32
  0
VERTEX
  8
0
  5
8705
 10
-157.922
 20
295.229
 30
-6.55487e-14
  70
    32
  0
VERTEX
  8
0
  5
8706
 10
-157.922
 20
295.221
 30
-6.55462e-14
  70
    32
  0
VERTEX
  8
0
  5
8707
 10
-157.922
 20
295.213
 30
-6.55436e-14
  70
    32
  0
VERTEX
  8
0
  5
8708
 10
-157.922
 20
295.205
 30
-6.55410e-14
  70
    32
  0
VERTEX
  8
0
  5
8709
 10
-157.922
 20
295.197
 30
-6.55383e-14
  70
    32
  0
VERTEX
  8
0
  5
870A
 10
-157.922
 20
295.189
 30
-6.55356e-14
  70
    32
  0
VERTEX
  8
0
  5
870B
 10
-157.922
 20
295.181
 30
-6.55329e-14
  70
    32
  0
VERTEX
  8
0
  5
870C
 10
-157.922
 20
295.173
 30
-6.55302e-14
  70
    32
  0
VERTEX
  8
0
  5
870D
 10
-157.922
 20
295.165
 30
-6.55275e-14
  70
    32
  0
VERTEX
  8
0
  5
870E
 10
-157.922
 20
295.157
 30
-6.55247e-14
  70
    32
  0
VERTEX
  8
0
  5
870F
 10
-157.922
 20
295.149
 30
-6.55220e-14
  70
    32
  0
VERTEX
  8
0
  5
8710
 10
-157.922
 20
295.141
 30
-6.55192e-14
  70
    32
  0
VERTEX
  8
0
  5
8711
 10
-157.922
 20
295.132
 30
-6.55164e-14
  70
    32
  0
VERTEX
  8
0
  5
8712
 10
-157.922
 20
295.124
 30
-6.55137e-14
  70
    32
  0
VERTEX
  8
0
  5
8713
 10
-157.922
 20
295.116
 30
-6.55109e-14
  70
    32
  0
VERTEX
  8
0
  5
8714
 10
-157.922
 20
295.108
 30
-6.55081e-14
  70
    32
  0
VERTEX
  8
0
  5
8715
 10
-157.922
 20
295.100
 30
-6.55053e-14
  70
    32
  0
VERTEX
  8
0
  5
8716
 10
-157.922
 20
295.092
 30
-6.55025e-14
  70
    32
  0
VERTEX
  8
0
  5
8717
 10
-157.922
 20
295.084
 30
-6.54998e-14
  70
    32
  0
VERTEX
  8
0
  5
8718
 10
-157.922
 20
295.076
 30
-6.54970e-14
  70
    32
  0
VERTEX
  8
0
  5
8719
 10
-157.922
 20
295.068
 30
-6.54943e-14
  70
    32
  0
VERTEX
  8
0
  5
871A
 10
-157.922
 20
295.060
 30
-6.54915e-14
  70
    32
  0
VERTEX
  8
0
  5
871B
 10
-157.922
 20
295.052
 30
-6.54888e-14
  70
    32
  0
VERTEX
  8
0
  5
871C
 10
-157.922
 20
295.043
 30
-6.54861e-14
  70
    32
  0
VERTEX
  8
0
  5
871D
 10
-157.922
 20
295.035
 30
-6.54835e-14
  70
    32
  0
VERTEX
  8
0
  5
871E
 10
-157.922
 20
295.027
 30
-6.54808e-14
  70
    32
  0
VERTEX
  8
0
  5
871F
 10
-157.922
 20
295.019
 30
-6.54782e-14
  70
    32
  0
VERTEX
  8
0
  5
8720
 10
-157.922
 20
295.011
 30
-6.54756e-14
  70
    32
  0
VERTEX
  8
0
  5
8721
 10
-157.922
 20
295.003
 30
-6.54731e-14
  70
    32
  0
VERTEX
  8
0
  5
8722
 10
-157.922
 20
294.995
 30
-6.54705e-14
  70
    32
  0
VERTEX
  8
0
  5
8723
 10
-157.922
 20
294.987
 30
-6.54680e-14
  70
    32
  0
VERTEX
  8
0
  5
8724
 10
-157.922
 20
294.979
 30
-6.54656e-14
  70
    32
  0
VERTEX
  8
0
  5
8725
 10
-157.922
 20
294.971
 30
-6.54632e-14
  70
    32
  0
VERTEX
  8
0
  5
8726
 10
-157.922
 20
294.963
 30
-6.54608e-14
  70
    32
  0
VERTEX
  8
0
  5
8727
 10
-157.922
 20
294.954
 30
-6.54585e-14
  70
    32
  0
VERTEX
  8
0
  5
8728
 10
-157.922
 20
294.946
 30
-6.54562e-14
  70
    32
  0
VERTEX
  8
0
  5
8729
 10
-157.923
 20
294.938
 30
-6.54540e-14
  70
    32
  0
VERTEX
  8
0
  5
872A
 10
-157.923
 20
294.930
 30
-6.54518e-14
  70
    32
  0
VERTEX
  8
0
  5
872B
 10
-157.923
 20
294.922
 30
-6.54497e-14
  70
    32
  0
VERTEX
  8
0
  5
872C
 10
-157.923
 20
294.914
 30
-6.54477e-14
  70
    32
  0
VERTEX
  8
0
  5
872D
 10
-157.923
 20
294.906
 30
-6.54457e-14
  70
    32
  0
VERTEX
  8
0
  5
872E
 10
-157.923
 20
294.898
 30
-6.54438e-14
  70
    32
  0
VERTEX
  8
0
  5
872F
 10
-157.923
 20
294.890
 30
-6.54419e-14
  70
    32
  0
VERTEX
  8
0
  5
8730
 10
-157.923
 20
294.882
 30
-6.54400e-14
  70
    32
  0
VERTEX
  8
0
  5
8731
 10
-157.923
 20
294.874
 30
-6.54382e-14
  70
    32
  0
VERTEX
  8
0
  5
8732
 10
-157.923
 20
294.866
 30
-6.54365e-14
  70
    32
  0
VERTEX
  8
0
  5
8733
 10
-157.923
 20
294.857
 30
-6.54348e-14
  70
    32
  0
VERTEX
  8
0
  5
8734
 10
-157.923
 20
294.849
 30
-6.54332e-14
  70
    32
  0
VERTEX
  8
0
  5
8735
 10
-157.923
 20
294.841
 30
-6.54316e-14
  70
    32
  0
VERTEX
  8
0
  5
8736
 10
-157.923
 20
294.833
 30
-6.54300e-14
  70
    32
  0
VERTEX
  8
0
  5
8737
 10
-157.923
 20
294.825
 30
-6.54285e-14
  70
    32
  0
VERTEX
  8
0
  5
8738
 10
-157.923
 20
294.817
 30
-6.54270e-14
  70
    32
  0
VERTEX
  8
0
  5
8739
 10
-157.923
 20
294.809
 30
-6.54256e-14
  70
    32
  0
VERTEX
  8
0
  5
873A
 10
-157.923
 20
294.801
 30
-6.54241e-14
  70
    32
  0
VERTEX
  8
0
  5
873B
 10
-157.923
 20
294.793
 30
-6.54228e-14
  70
    32
  0
VERTEX
  8
0
  5
873C
 10
-157.923
 20
294.785
 30
-6.54214e-14
  70
    32
  0
VERTEX
  8
0
  5
873D
 10
-157.923
 20
294.777
 30
-6.54201e-14
  70
    32
  0
VERTEX
  8
0
  5
873E
 10
-157.923
 20
294.769
 30
-6.54188e-14
  70
    32
  0
VERTEX
  8
0
  5
873F
 10
-157.923
 20
294.761
 30
-6.54176e-14
  70
    32
  0
VERTEX
  8
0
  5
8740
 10
-157.923
 20
294.753
 30
-6.54163e-14
  70
    32
  0
VERTEX
  8
0
  5
8741
 10
-157.923
 20
294.745
 30
-6.54151e-14
  70
    32
  0
VERTEX
  8
0
  5
8742
 10
-157.923
 20
294.737
 30
-6.54139e-14
  70
    32
  0
VERTEX
  8
0
  5
8743
 10
-157.923
 20
294.729
 30
-6.54128e-14
  70
    32
  0
VERTEX
  8
0
  5
8744
 10
-157.923
 20
294.721
 30
-6.54116e-14
  70
    32
  0
VERTEX
  8
0
  5
8745
 10
-157.923
 20
294.713
 30
-6.54105e-14
  70
    32
  0
VERTEX
  8
0
  5
8746
 10
-157.924
 20
294.705
 30
-6.54094e-14
  70
    32
  0
VERTEX
  8
0
  5
8747
 10
-157.924
 20
294.697
 30
-6.54083e-14
  70
    32
  0
VERTEX
  8
0
  5
8748
 10
-157.924
 20
294.689
 30
-6.54072e-14
  70
    32
  0
VERTEX
  8
0
  5
8749
 10
-157.924
 20
294.681
 30
-6.54061e-14
  70
    32
  0
VERTEX
  8
0
  5
874A
 10
-157.924
 20
294.673
 30
-6.54051e-14
  70
    32
  0
VERTEX
  8
0
  5
874B
 10
-157.924
 20
294.665
 30
-6.54040e-14
  70
    32
  0
VERTEX
  8
0
  5
874C
 10
-157.924
 20
294.657
 30
-6.54029e-14
  70
    32
  0
VERTEX
  8
0
  5
874D
 10
-157.924
 20
294.649
 30
-6.54019e-14
  70
    32
  0
VERTEX
  8
0
  5
874E
 10
-157.924
 20
294.641
 30
-6.54008e-14
  70
    32
  0
VERTEX
  8
0
  5
874F
 10
-157.924
 20
294.633
 30
-6.53998e-14
  70
    32
  0
VERTEX
  8
0
  5
8750
 10
-157.924
 20
294.625
 30
-6.53988e-14
  70
    32
  0
VERTEX
  8
0
  5
8751
 10
-157.924
 20
294.617
 30
-6.53977e-14
  70
    32
  0
VERTEX
  8
0
  5
8752
 10
-157.924
 20
294.609
 30
-6.53967e-14
  70
    32
  0
VERTEX
  8
0
  5
8753
 10
-157.924
 20
294.601
 30
-6.53956e-14
  70
    32
  0
VERTEX
  8
0
  5
8754
 10
-157.924
 20
294.593
 30
-6.53945e-14
  70
    32
  0
VERTEX
  8
0
  5
8755
 10
-157.924
 20
294.585
 30
-6.53935e-14
  70
    32
  0
VERTEX
  8
0
  5
8756
 10
-157.924
 20
294.577
 30
-6.53924e-14
  70
    32
  0
VERTEX
  8
0
  5
8757
 10
-157.924
 20
294.569
 30
-6.53913e-14
  70
    32
  0
VERTEX
  8
0
  5
8758
 10
-157.924
 20
294.561
 30
-6.53902e-14
  70
    32
  0
VERTEX
  8
0
  5
8759
 10
-157.924
 20
294.553
 30
-6.53891e-14
  70
    32
  0
VERTEX
  8
0
  5
875A
 10
-157.924
 20
294.545
 30
-6.53879e-14
  70
    32
  0
VERTEX
  8
0
  5
875B
 10
-157.924
 20
294.537
 30
-6.53868e-14
  70
    32
  0
VERTEX
  8
0
  5
875C
 10
-157.924
 20
294.530
 30
-6.53856e-14
  70
    32
  0
VERTEX
  8
0
  5
875D
 10
-157.925
 20
294.522
 30
-6.53844e-14
  70
    32
  0
VERTEX
  8
0
  5
875E
 10
-157.925
 20
294.514
 30
-6.53832e-14
  70
    32
  0
VERTEX
  8
0
  5
875F
 10
-157.925
 20
294.506
 30
-6.53820e-14
  70
    32
  0
VERTEX
  8
0
  5
8760
 10
-157.925
 20
294.498
 30
-6.53807e-14
  70
    32
  0
VERTEX
  8
0
  5
8761
 10
-157.925
 20
294.490
 30
-6.53794e-14
  70
    32
  0
VERTEX
  8
0
  5
8762
 10
-157.925
 20
294.482
 30
-6.53781e-14
  70
    32
  0
VERTEX
  8
0
  5
8763
 10
-157.925
 20
294.474
 30
-6.53767e-14
  70
    32
  0
VERTEX
  8
0
  5
8764
 10
-157.925
 20
294.467
 30
-6.53753e-14
  70
    32
  0
VERTEX
  8
0
  5
8765
 10
-157.925
 20
294.459
 30
-6.53739e-14
  70
    32
  0
VERTEX
  8
0
  5
8766
 10
-157.925
 20
294.451
 30
-6.53724e-14
  70
    32
  0
VERTEX
  8
0
  5
8767
 10
-157.925
 20
294.443
 30
-6.53709e-14
  70
    32
  0
VERTEX
  8
0
  5
8768
 10
-157.925
 20
294.435
 30
-6.53694e-14
  70
    32
  0
VERTEX
  8
0
  5
8769
 10
-157.925
 20
294.428
 30
-6.53678e-14
  70
    32
  0
VERTEX
  8
0
  5
876A
 10
-157.925
 20
294.420
 30
-6.53662e-14
  70
    32
  0
VERTEX
  8
0
  5
876B
 10
-157.925
 20
294.412
 30
-6.53646e-14
  70
    32
  0
VERTEX
  8
0
  5
876C
 10
-157.925
 20
294.404
 30
-6.53628e-14
  70
    32
  0
VERTEX
  8
0
  5
876D
 10
-157.925
 20
294.396
 30
-6.53611e-14
  70
    32
  0
VERTEX
  8
0
  5
876E
 10
-157.925
 20
294.389
 30
-6.53593e-14
  70
    32
  0
VERTEX
  8
0
  5
876F
 10
-157.925
 20
294.381
 30
-6.53574e-14
  70
    32
  0
VERTEX
  8
0
  5
8770
 10
-157.926
 20
294.373
 30
-6.53555e-14
  70
    32
  0
VERTEX
  8
0
  5
8771
 10
-157.926
 20
294.365
 30
-6.53536e-14
  70
    32
  0
VERTEX
  8
0
  5
8772
 10
-157.926
 20
294.358
 30
-6.53515e-14
  70
    32
  0
VERTEX
  8
0
  5
8773
 10
-157.926
 20
294.350
 30
-6.53495e-14
  70
    32
  0
VERTEX
  8
0
  5
8774
 10
-157.926
 20
294.342
 30
-6.53474e-14
  70
    32
  0
VERTEX
  8
0
  5
8775
 10
-157.926
 20
294.335
 30
-6.53454e-14
  70
    32
  0
VERTEX
  8
0
  5
8776
 10
-157.926
 20
294.327
 30
-6.53435e-14
  70
    32
  0
VERTEX
  8
0
  5
8777
 10
-157.926
 20
294.319
 30
-6.53416e-14
  70
    32
  0
VERTEX
  8
0
  5
8778
 10
-157.926
 20
294.312
 30
-6.53398e-14
  70
    32
  0
VERTEX
  8
0
  5
8779
 10
-157.926
 20
294.304
 30
-6.53380e-14
  70
    32
  0
VERTEX
  8
0
  5
877A
 10
-157.926
 20
294.296
 30
-6.53363e-14
  70
    32
  0
VERTEX
  8
0
  5
877B
 10
-157.926
 20
294.289
 30
-6.53346e-14
  70
    32
  0
VERTEX
  8
0
  5
877C
 10
-157.926
 20
294.281
 30
-6.53330e-14
  70
    32
  0
VERTEX
  8
0
  5
877D
 10
-157.926
 20
294.273
 30
-6.53314e-14
  70
    32
  0
VERTEX
  8
0
  5
877E
 10
-157.926
 20
294.266
 30
-6.53298e-14
  70
    32
  0
VERTEX
  8
0
  5
877F
 10
-157.926
 20
294.258
 30
-6.53283e-14
  70
    32
  0
VERTEX
  8
0
  5
8780
 10
-157.926
 20
294.251
 30
-6.53268e-14
  70
    32
  0
VERTEX
  8
0
  5
8781
 10
-157.927
 20
294.243
 30
-6.53254e-14
  70
    32
  0
VERTEX
  8
0
  5
8782
 10
-157.927
 20
294.235
 30
-6.53240e-14
  70
    32
  0
VERTEX
  8
0
  5
8783
 10
-157.927
 20
294.228
 30
-6.53226e-14
  70
    32
  0
VERTEX
  8
0
  5
8784
 10
-157.927
 20
294.220
 30
-6.53213e-14
  70
    32
  0
VERTEX
  8
0
  5
8785
 10
-157.927
 20
294.213
 30
-6.53199e-14
  70
    32
  0
VERTEX
  8
0
  5
8786
 10
-157.927
 20
294.205
 30
-6.53187e-14
  70
    32
  0
VERTEX
  8
0
  5
8787
 10
-157.927
 20
294.198
 30
-6.53174e-14
  70
    32
  0
VERTEX
  8
0
  5
8788
 10
-157.927
 20
294.190
 30
-6.53162e-14
  70
    32
  0
VERTEX
  8
0
  5
8789
 10
-157.927
 20
294.183
 30
-6.53150e-14
  70
    32
  0
VERTEX
  8
0
  5
878A
 10
-157.927
 20
294.175
 30
-6.53138e-14
  70
    32
  0
VERTEX
  8
0
  5
878B
 10
-157.927
 20
294.168
 30
-6.53126e-14
  70
    32
  0
VERTEX
  8
0
  5
878C
 10
-157.927
 20
294.160
 30
-6.53115e-14
  70
    32
  0
VERTEX
  8
0
  5
878D
 10
-157.927
 20
294.153
 30
-6.53104e-14
  70
    32
  0
VERTEX
  8
0
  5
878E
 10
-157.927
 20
294.145
 30
-6.53092e-14
  70
    32
  0
VERTEX
  8
0
  5
878F
 10
-157.927
 20
294.138
 30
-6.53081e-14
  70
    32
  0
VERTEX
  8
0
  5
8790
 10
-157.927
 20
294.131
 30
-6.53071e-14
  70
    32
  0
VERTEX
  8
0
  5
8791
 10
-157.928
 20
294.123
 30
-6.53060e-14
  70
    32
  0
VERTEX
  8
0
  5
8792
 10
-157.928
 20
294.116
 30
-6.53049e-14
  70
    32
  0
VERTEX
  8
0
  5
8793
 10
-157.928
 20
294.108
 30
-6.53039e-14
  70
    32
  0
VERTEX
  8
0
  5
8794
 10
-157.928
 20
294.101
 30
-6.53028e-14
  70
    32
  0
VERTEX
  8
0
  5
8795
 10
-157.928
 20
294.094
 30
-6.53018e-14
  70
    32
  0
VERTEX
  8
0
  5
8796
 10
-157.928
 20
294.086
 30
-6.53007e-14
  70
    32
  0
VERTEX
  8
0
  5
8797
 10
-157.928
 20
294.079
 30
-6.52997e-14
  70
    32
  0
VERTEX
  8
0
  5
8798
 10
-157.928
 20
294.072
 30
-6.52986e-14
  70
    32
  0
VERTEX
  8
0
  5
8799
 10
-157.928
 20
294.064
 30
-6.52976e-14
  70
    32
  0
VERTEX
  8
0
  5
879A
 10
-157.928
 20
294.057
 30
-6.52965e-14
  70
    32
  0
VERTEX
  8
0
  5
879B
 10
-157.928
 20
294.050
 30
-6.52955e-14
  70
    32
  0
VERTEX
  8
0
  5
879C
 10
-157.928
 20
294.042
 30
-6.52944e-14
  70
    32
  0
VERTEX
  8
0
  5
879D
 10
-157.928
 20
294.035
 30
-6.52933e-14
  70
    32
  0
VERTEX
  8
0
  5
879E
 10
-157.928
 20
294.028
 30
-6.52923e-14
  70
    32
  0
VERTEX
  8
0
  5
879F
 10
-157.928
 20
294.021
 30
-6.52912e-14
  70
    32
  0
VERTEX
  8
0
  5
87A0
 10
-157.929
 20
294.013
 30
-6.52901e-14
  70
    32
  0
VERTEX
  8
0
  5
87A1
 10
-157.929
 20
294.006
 30
-6.52889e-14
  70
    32
  0
VERTEX
  8
0
  5
87A2
 10
-157.929
 20
293.999
 30
-6.52878e-14
  70
    32
  0
VERTEX
  8
0
  5
87A3
 10
-157.929
 20
293.992
 30
-6.52866e-14
  70
    32
  0
VERTEX
  8
0
  5
87A4
 10
-157.929
 20
293.985
 30
-6.52855e-14
  70
    32
  0
VERTEX
  8
0
  5
87A5
 10
-157.929
 20
293.977
 30
-6.52843e-14
  70
    32
  0
VERTEX
  8
0
  5
87A6
 10
-157.929
 20
293.970
 30
-6.52831e-14
  70
    32
  0
VERTEX
  8
0
  5
87A7
 10
-157.929
 20
293.963
 30
-6.52818e-14
  70
    32
  0
VERTEX
  8
0
  5
87A8
 10
-157.929
 20
293.956
 30
-6.52805e-14
  70
    32
  0
VERTEX
  8
0
  5
87A9
 10
-157.929
 20
293.949
 30
-6.52792e-14
  70
    32
  0
VERTEX
  8
0
  5
87AA
 10
-157.929
 20
293.942
 30
-6.52779e-14
  70
    32
  0
VERTEX
  8
0
  5
87AB
 10
-157.929
 20
293.935
 30
-6.52765e-14
  70
    32
  0
VERTEX
  8
0
  5
87AC
 10
-157.929
 20
293.928
 30
-6.52752e-14
  70
    32
  0
VERTEX
  8
0
  5
87AD
 10
-157.929
 20
293.921
 30
-6.52737e-14
  70
    32
  0
VERTEX
  8
0
  5
87AE
 10
-157.929
 20
293.914
 30
-6.52723e-14
  70
    32
  0
VERTEX
  8
0
  5
87AF
 10
-157.930
 20
293.907
 30
-6.52708e-14
  70
    32
  0
VERTEX
  8
0
  5
87B0
 10
-157.930
 20
293.900
 30
-6.52692e-14
  70
    32
  0
VERTEX
  8
0
  5
87B1
 10
-157.930
 20
293.893
 30
-6.52676e-14
  70
    32
  0
VERTEX
  8
0
  5
87B2
 10
-157.930
 20
293.886
 30
-6.52660e-14
  70
    32
  0
VERTEX
  8
0
  5
87B3
 10
-157.930
 20
293.879
 30
-6.52643e-14
  70
    32
  0
VERTEX
  8
0
  5
87B4
 10
-157.930
 20
293.872
 30
-6.52626e-14
  70
    32
  0
VERTEX
  8
0
  5
87B5
 10
-157.930
 20
293.865
 30
-6.52609e-14
  70
    32
  0
VERTEX
  8
0
  5
87B6
 10
-157.930
 20
293.858
 30
-6.52591e-14
  70
    32
  0
VERTEX
  8
0
  5
87B7
 10
-157.930
 20
293.851
 30
-6.52572e-14
  70
    32
  0
VERTEX
  8
0
  5
87B8
 10
-157.930
 20
293.844
 30
-6.52553e-14
  70
    32
  0
VERTEX
  8
0
  5
87B9
 10
-157.930
 20
293.837
 30
-6.52533e-14
  70
    32
  0
VERTEX
  8
0
  5
87BA
 10
-157.930
 20
293.830
 30
-6.52513e-14
  70
    32
  0
VERTEX
  8
0
  5
87BB
 10
-157.930
 20
293.824
 30
-6.52492e-14
  70
    32
  0
VERTEX
  8
0
  5
87BC
 10
-157.930
 20
293.817
 30
-6.52472e-14
  70
    32
  0
VERTEX
  8
0
  5
87BD
 10
-157.931
 20
293.810
 30
-6.52452e-14
  70
    32
  0
VERTEX
  8
0
  5
87BE
 10
-157.931
 20
293.803
 30
-6.52433e-14
  70
    32
  0
VERTEX
  8
0
  5
87BF
 10
-157.931
 20
293.796
 30
-6.52414e-14
  70
    32
  0
VERTEX
  8
0
  5
87C0
 10
-157.931
 20
293.790
 30
-6.52396e-14
  70
    32
  0
VERTEX
  8
0
  5
87C1
 10
-157.931
 20
293.783
 30
-6.52378e-14
  70
    32
  0
VERTEX
  8
0
  5
87C2
 10
-157.931
 20
293.776
 30
-6.52361e-14
  70
    32
  0
VERTEX
  8
0
  5
87C3
 10
-157.931
 20
293.769
 30
-6.52344e-14
  70
    32
  0
VERTEX
  8
0
  5
87C4
 10
-157.931
 20
293.763
 30
-6.52328e-14
  70
    32
  0
VERTEX
  8
0
  5
87C5
 10
-157.931
 20
293.756
 30
-6.52312e-14
  70
    32
  0
VERTEX
  8
0
  5
87C6
 10
-157.931
 20
293.749
 30
-6.52296e-14
  70
    32
  0
VERTEX
  8
0
  5
87C7
 10
-157.931
 20
293.743
 30
-6.52281e-14
  70
    32
  0
VERTEX
  8
0
  5
87C8
 10
-157.931
 20
293.736
 30
-6.52266e-14
  70
    32
  0
VERTEX
  8
0
  5
87C9
 10
-157.931
 20
293.729
 30
-6.52252e-14
  70
    32
  0
VERTEX
  8
0
  5
87CA
 10
-157.932
 20
293.723
 30
-6.52238e-14
  70
    32
  0
VERTEX
  8
0
  5
87CB
 10
-157.932
 20
293.716
 30
-6.52224e-14
  70
    32
  0
VERTEX
  8
0
  5
87CC
 10
-157.932
 20
293.710
 30
-6.52211e-14
  70
    32
  0
VERTEX
  8
0
  5
87CD
 10
-157.932
 20
293.703
 30
-6.52198e-14
  70
    32
  0
VERTEX
  8
0
  5
87CE
 10
-157.932
 20
293.697
 30
-6.52185e-14
  70
    32
  0
VERTEX
  8
0
  5
87CF
 10
-157.932
 20
293.690
 30
-6.52173e-14
  70
    32
  0
VERTEX
  8
0
  5
87D0
 10
-157.932
 20
293.684
 30
-6.52160e-14
  70
    32
  0
VERTEX
  8
0
  5
87D1
 10
-157.932
 20
293.677
 30
-6.52148e-14
  70
    32
  0
VERTEX
  8
0
  5
87D2
 10
-157.932
 20
293.671
 30
-6.52136e-14
  70
    32
  0
VERTEX
  8
0
  5
87D3
 10
-157.932
 20
293.664
 30
-6.52125e-14
  70
    32
  0
VERTEX
  8
0
  5
87D4
 10
-157.932
 20
293.658
 30
-6.52113e-14
  70
    32
  0
VERTEX
  8
0
  5
87D5
 10
-157.932
 20
293.651
 30
-6.52102e-14
  70
    32
  0
VERTEX
  8
0
  5
87D6
 10
-157.932
 20
293.645
 30
-6.52091e-14
  70
    32
  0
VERTEX
  8
0
  5
87D7
 10
-157.932
 20
293.639
 30
-6.52080e-14
  70
    32
  0
VERTEX
  8
0
  5
87D8
 10
-157.933
 20
293.632
 30
-6.52069e-14
  70
    32
  0
VERTEX
  8
0
  5
87D9
 10
-157.933
 20
293.626
 30
-6.52059e-14
  70
    32
  0
VERTEX
  8
0
  5
87DA
 10
-157.933
 20
293.620
 30
-6.52048e-14
  70
    32
  0
VERTEX
  8
0
  5
87DB
 10
-157.933
 20
293.613
 30
-6.52037e-14
  70
    32
  0
VERTEX
  8
0
  5
87DC
 10
-157.933
 20
293.607
 30
-6.52027e-14
  70
    32
  0
VERTEX
  8
0
  5
87DD
 10
-157.933
 20
293.601
 30
-6.52016e-14
  70
    32
  0
VERTEX
  8
0
  5
87DE
 10
-157.933
 20
293.594
 30
-6.52006e-14
  70
    32
  0
VERTEX
  8
0
  5
87DF
 10
-157.933
 20
293.588
 30
-6.51995e-14
  70
    32
  0
VERTEX
  8
0
  5
87E0
 10
-157.933
 20
293.582
 30
-6.51985e-14
  70
    32
  0
VERTEX
  8
0
  5
87E1
 10
-157.933
 20
293.576
 30
-6.51975e-14
  70
    32
  0
VERTEX
  8
0
  5
87E2
 10
-157.933
 20
293.570
 30
-6.51964e-14
  70
    32
  0
VERTEX
  8
0
  5
87E3
 10
-157.933
 20
293.563
 30
-6.51953e-14
  70
    32
  0
VERTEX
  8
0
  5
87E4
 10
-157.933
 20
293.557
 30
-6.51943e-14
  70
    32
  0
VERTEX
  8
0
  5
87E5
 10
-157.934
 20
293.551
 30
-6.51932e-14
  70
    32
  0
VERTEX
  8
0
  5
87E6
 10
-157.934
 20
293.545
 30
-6.51921e-14
  70
    32
  0
VERTEX
  8
0
  5
87E7
 10
-157.934
 20
293.539
 30
-6.51910e-14
  70
    32
  0
VERTEX
  8
0
  5
87E8
 10
-157.934
 20
293.533
 30
-6.51899e-14
  70
    32
  0
VERTEX
  8
0
  5
87E9
 10
-157.934
 20
293.527
 30
-6.51888e-14
  70
    32
  0
VERTEX
  8
0
  5
87EA
 10
-157.934
 20
293.521
 30
-6.51877e-14
  70
    32
  0
VERTEX
  8
0
  5
87EB
 10
-157.934
 20
293.515
 30
-6.51865e-14
  70
    32
  0
VERTEX
  8
0
  5
87EC
 10
-157.934
 20
293.509
 30
-6.51853e-14
  70
    32
  0
VERTEX
  8
0
  5
87ED
 10
-157.934
 20
293.503
 30
-6.51841e-14
  70
    32
  0
VERTEX
  8
0
  5
87EE
 10
-157.934
 20
293.497
 30
-6.51829e-14
  70
    32
  0
VERTEX
  8
0
  5
87EF
 10
-157.934
 20
293.491
 30
-6.51817e-14
  70
    32
  0
VERTEX
  8
0
  5
87F0
 10
-157.934
 20
293.485
 30
-6.51804e-14
  70
    32
  0
VERTEX
  8
0
  5
87F1
 10
-157.934
 20
293.479
 30
-6.51791e-14
  70
    32
  0
VERTEX
  8
0
  5
87F2
 10
-157.935
 20
293.473
 30
-6.51777e-14
  70
    32
  0
VERTEX
  8
0
  5
87F3
 10
-157.935
 20
293.467
 30
-6.51764e-14
  70
    32
  0
VERTEX
  8
0
  5
87F4
 10
-157.935
 20
293.461
 30
-6.51750e-14
  70
    32
  0
VERTEX
  8
0
  5
87F5
 10
-157.935
 20
293.456
 30
-6.51735e-14
  70
    32
  0
VERTEX
  8
0
  5
87F6
 10
-157.935
 20
293.450
 30
-6.51721e-14
  70
    32
  0
VERTEX
  8
0
  5
87F7
 10
-157.935
 20
293.444
 30
-6.51706e-14
  70
    32
  0
VERTEX
  8
0
  5
87F8
 10
-157.935
 20
293.438
 30
-6.51690e-14
  70
    32
  0
VERTEX
  8
0
  5
87F9
 10
-157.935
 20
293.432
 30
-6.51674e-14
  70
    32
  0
VERTEX
  8
0
  5
87FA
 10
-157.935
 20
293.427
 30
-6.51658e-14
  70
    32
  0
VERTEX
  8
0
  5
87FB
 10
-157.935
 20
293.421
 30
-6.51641e-14
  70
    32
  0
VERTEX
  8
0
  5
87FC
 10
-157.935
 20
293.415
 30
-6.51624e-14
  70
    32
  0
VERTEX
  8
0
  5
87FD
 10
-157.935
 20
293.410
 30
-6.51606e-14
  70
    32
  0
VERTEX
  8
0
  5
87FE
 10
-157.935
 20
293.404
 30
-6.51588e-14
  70
    32
  0
VERTEX
  8
0
  5
87FF
 10
-157.935
 20
293.398
 30
-6.51570e-14
  70
    32
  0
VERTEX
  8
0
  5
8800
 10
-157.936
 20
293.393
 30
-6.51550e-14
  70
    32
  0
VERTEX
  8
0
  5
8801
 10
-157.936
 20
293.387
 30
-6.51531e-14
  70
    32
  0
VERTEX
  8
0
  5
8802
 10
-157.936
 20
293.381
 30
-6.51510e-14
  70
    32
  0
VERTEX
  8
0
  5
8803
 10
-157.936
 20
293.376
 30
-6.51490e-14
  70
    32
  0
VERTEX
  8
0
  5
8804
 10
-157.936
 20
293.370
 30
-6.51469e-14
  70
    32
  0
VERTEX
  8
0
  5
8805
 10
-157.936
 20
293.365
 30
-6.51450e-14
  70
    32
  0
VERTEX
  8
0
  5
8806
 10
-157.936
 20
293.359
 30
-6.51430e-14
  70
    32
  0
VERTEX
  8
0
  5
8807
 10
-157.936
 20
293.354
 30
-6.51412e-14
  70
    32
  0
VERTEX
  8
0
  5
8808
 10
-157.936
 20
293.348
 30
-6.51394e-14
  70
    32
  0
VERTEX
  8
0
  5
8809
 10
-157.936
 20
293.343
 30
-6.51376e-14
  70
    32
  0
VERTEX
  8
0
  5
880A
 10
-157.936
 20
293.337
 30
-6.51359e-14
  70
    32
  0
VERTEX
  8
0
  5
880B
 10
-157.936
 20
293.332
 30
-6.51342e-14
  70
    32
  0
VERTEX
  8
0
  5
880C
 10
-157.936
 20
293.326
 30
-6.51326e-14
  70
    32
  0
VERTEX
  8
0
  5
880D
 10
-157.937
 20
293.321
 30
-6.51310e-14
  70
    32
  0
VERTEX
  8
0
  5
880E
 10
-157.937
 20
293.315
 30
-6.51294e-14
  70
    32
  0
VERTEX
  8
0
  5
880F
 10
-157.937
 20
293.310
 30
-6.51279e-14
  70
    32
  0
VERTEX
  8
0
  5
8810
 10
-157.937
 20
293.305
 30
-6.51265e-14
  70
    32
  0
VERTEX
  8
0
  5
8811
 10
-157.937
 20
293.299
 30
-6.51250e-14
  70
    32
  0
VERTEX
  8
0
  5
8812
 10
-157.937
 20
293.294
 30
-6.51236e-14
  70
    32
  0
VERTEX
  8
0
  5
8813
 10
-157.937
 20
293.288
 30
-6.51223e-14
  70
    32
  0
VERTEX
  8
0
  5
8814
 10
-157.937
 20
293.283
 30
-6.51209e-14
  70
    32
  0
VERTEX
  8
0
  5
8815
 10
-157.937
 20
293.278
 30
-6.51196e-14
  70
    32
  0
VERTEX
  8
0
  5
8816
 10
-157.937
 20
293.272
 30
-6.51183e-14
  70
    32
  0
VERTEX
  8
0
  5
8817
 10
-157.937
 20
293.267
 30
-6.51171e-14
  70
    32
  0
VERTEX
  8
0
  5
8818
 10
-157.937
 20
293.262
 30
-6.51159e-14
  70
    32
  0
VERTEX
  8
0
  5
8819
 10
-157.937
 20
293.256
 30
-6.51147e-14
  70
    32
  0
VERTEX
  8
0
  5
881A
 10
-157.938
 20
293.251
 30
-6.51135e-14
  70
    32
  0
VERTEX
  8
0
  5
881B
 10
-157.938
 20
293.246
 30
-6.51123e-14
  70
    32
  0
VERTEX
  8
0
  5
881C
 10
-157.938
 20
293.240
 30
-6.51112e-14
  70
    32
  0
VERTEX
  8
0
  5
881D
 10
-157.938
 20
293.235
 30
-6.51101e-14
  70
    32
  0
VERTEX
  8
0
  5
881E
 10
-157.938
 20
293.230
 30
-6.51090e-14
  70
    32
  0
VERTEX
  8
0
  5
881F
 10
-157.938
 20
293.225
 30
-6.51079e-14
  70
    32
  0
VERTEX
  8
0
  5
8820
 10
-157.938
 20
293.219
 30
-6.51068e-14
  70
    32
  0
VERTEX
  8
0
  5
8821
 10
-157.938
 20
293.214
 30
-6.51057e-14
  70
    32
  0
VERTEX
  8
0
  5
8822
 10
-157.938
 20
293.209
 30
-6.51047e-14
  70
    32
  0
VERTEX
  8
0
  5
8823
 10
-157.938
 20
293.204
 30
-6.51036e-14
  70
    32
  0
VERTEX
  8
0
  5
8824
 10
-157.938
 20
293.198
 30
-6.51025e-14
  70
    32
  0
VERTEX
  8
0
  5
8825
 10
-157.938
 20
293.193
 30
-6.51015e-14
  70
    32
  0
VERTEX
  8
0
  5
8826
 10
-157.938
 20
293.188
 30
-6.51005e-14
  70
    32
  0
VERTEX
  8
0
  5
8827
 10
-157.939
 20
293.183
 30
-6.50994e-14
  70
    32
  0
VERTEX
  8
0
  5
8828
 10
-157.939
 20
293.178
 30
-6.50984e-14
  70
    32
  0
VERTEX
  8
0
  5
8829
 10
-157.939
 20
293.173
 30
-6.50973e-14
  70
    32
  0
VERTEX
  8
0
  5
882A
 10
-157.939
 20
293.168
 30
-6.50963e-14
  70
    32
  0
VERTEX
  8
0
  5
882B
 10
-157.939
 20
293.163
 30
-6.50952e-14
  70
    32
  0
VERTEX
  8
0
  5
882C
 10
-157.939
 20
293.157
 30
-6.50941e-14
  70
    32
  0
VERTEX
  8
0
  5
882D
 10
-157.939
 20
293.152
 30
-6.50931e-14
  70
    32
  0
VERTEX
  8
0
  5
882E
 10
-157.939
 20
293.147
 30
-6.50920e-14
  70
    32
  0
VERTEX
  8
0
  5
882F
 10
-157.939
 20
293.142
 30
-6.50909e-14
  70
    32
  0
VERTEX
  8
0
  5
8830
 10
-157.939
 20
293.137
 30
-6.50898e-14
  70
    32
  0
VERTEX
  8
0
  5
8831
 10
-157.939
 20
293.132
 30
-6.50887e-14
  70
    32
  0
VERTEX
  8
0
  5
8832
 10
-157.939
 20
293.127
 30
-6.50875e-14
  70
    32
  0
VERTEX
  8
0
  5
8833
 10
-157.939
 20
293.122
 30
-6.50864e-14
  70
    32
  0
VERTEX
  8
0
  5
8834
 10
-157.939
 20
293.117
 30
-6.50852e-14
  70
    32
  0
VERTEX
  8
0
  5
8835
 10
-157.940
 20
293.112
 30
-6.50840e-14
  70
    32
  0
VERTEX
  8
0
  5
8836
 10
-157.940
 20
293.107
 30
-6.50827e-14
  70
    32
  0
VERTEX
  8
0
  5
8837
 10
-157.940
 20
293.103
 30
-6.50815e-14
  70
    32
  0
VERTEX
  8
0
  5
8838
 10
-157.940
 20
293.098
 30
-6.50802e-14
  70
    32
  0
VERTEX
  8
0
  5
8839
 10
-157.940
 20
293.093
 30
-6.50789e-14
  70
    32
  0
VERTEX
  8
0
  5
883A
 10
-157.940
 20
293.088
 30
-6.50776e-14
  70
    32
  0
VERTEX
  8
0
  5
883B
 10
-157.940
 20
293.083
 30
-6.50762e-14
  70
    32
  0
VERTEX
  8
0
  5
883C
 10
-157.940
 20
293.078
 30
-6.50748e-14
  70
    32
  0
VERTEX
  8
0
  5
883D
 10
-157.940
 20
293.073
 30
-6.50734e-14
  70
    32
  0
VERTEX
  8
0
  5
883E
 10
-157.940
 20
293.069
 30
-6.50719e-14
  70
    32
  0
VERTEX
  8
0
  5
883F
 10
-157.940
 20
293.064
 30
-6.50704e-14
  70
    32
  0
VERTEX
  8
0
  5
8840
 10
-157.940
 20
293.059
 30
-6.50688e-14
  70
    32
  0
VERTEX
  8
0
  5
8841
 10
-157.940
 20
293.054
 30
-6.50672e-14
  70
    32
  0
VERTEX
  8
0
  5
8842
 10
-157.941
 20
293.049
 30
-6.50656e-14
  70
    32
  0
VERTEX
  8
0
  5
8843
 10
-157.941
 20
293.045
 30
-6.50639e-14
  70
    32
  0
VERTEX
  8
0
  5
8844
 10
-157.941
 20
293.040
 30
-6.50622e-14
  70
    32
  0
VERTEX
  8
0
  5
8845
 10
-157.941
 20
293.035
 30
-6.50604e-14
  70
    32
  0
VERTEX
  8
0
  5
8846
 10
-157.941
 20
293.031
 30
-6.50586e-14
  70
    32
  0
VERTEX
  8
0
  5
8847
 10
-157.941
 20
293.026
 30
-6.50567e-14
  70
    32
  0
VERTEX
  8
0
  5
8848
 10
-157.941
 20
293.021
 30
-6.50548e-14
  70
    32
  0
VERTEX
  8
0
  5
8849
 10
-157.941
 20
293.017
 30
-6.50528e-14
  70
    32
  0
VERTEX
  8
0
  5
884A
 10
-157.941
 20
293.012
 30
-6.50508e-14
  70
    32
  0
VERTEX
  8
0
  5
884B
 10
-157.941
 20
293.008
 30
-6.50487e-14
  70
    32
  0
VERTEX
  8
0
  5
884C
 10
-157.941
 20
293.003
 30
-6.50467e-14
  70
    32
  0
VERTEX
  8
0
  5
884D
 10
-157.941
 20
292.998
 30
-6.50447e-14
  70
    32
  0
VERTEX
  8
0
  5
884E
 10
-157.941
 20
292.994
 30
-6.50428e-14
  70
    32
  0
VERTEX
  8
0
  5
884F
 10
-157.941
 20
292.989
 30
-6.50410e-14
  70
    32
  0
VERTEX
  8
0
  5
8850
 10
-157.942
 20
292.985
 30
-6.50392e-14
  70
    32
  0
VERTEX
  8
0
  5
8851
 10
-157.942
 20
292.980
 30
-6.50374e-14
  70
    32
  0
VERTEX
  8
0
  5
8852
 10
-157.942
 20
292.976
 30
-6.50357e-14
  70
    32
  0
VERTEX
  8
0
  5
8853
 10
-157.942
 20
292.971
 30
-6.50341e-14
  70
    32
  0
VERTEX
  8
0
  5
8854
 10
-157.942
 20
292.967
 30
-6.50325e-14
  70
    32
  0
VERTEX
  8
0
  5
8855
 10
-157.942
 20
292.963
 30
-6.50309e-14
  70
    32
  0
VERTEX
  8
0
  5
8856
 10
-157.942
 20
292.958
 30
-6.50295e-14
  70
    32
  0
VERTEX
  8
0
  5
8857
 10
-157.942
 20
292.954
 30
-6.50280e-14
  70
    32
  0
VERTEX
  8
0
  5
8858
 10
-157.942
 20
292.949
 30
-6.50266e-14
  70
    32
  0
VERTEX
  8
0
  5
8859
 10
-157.942
 20
292.945
 30
-6.50253e-14
  70
    32
  0
VERTEX
  8
0
  5
885A
 10
-157.942
 20
292.941
 30
-6.50240e-14
  70
    32
  0
VERTEX
  8
0
  5
885B
 10
-157.942
 20
292.936
 30
-6.50227e-14
  70
    32
  0
VERTEX
  8
0
  5
885C
 10
-157.942
 20
292.932
 30
-6.50215e-14
  70
    32
  0
VERTEX
  8
0
  5
885D
 10
-157.942
 20
292.928
 30
-6.50203e-14
  70
    32
  0
VERTEX
  8
0
  5
885E
 10
-157.943
 20
292.924
 30
-6.50192e-14
  70
    32
  0
VERTEX
  8
0
  5
885F
 10
-157.943
 20
292.919
 30
-6.50181e-14
  70
    32
  0
VERTEX
  8
0
  5
8860
 10
-157.943
 20
292.915
 30
-6.50171e-14
  70
    32
  0
VERTEX
  8
0
  5
8861
 10
-157.943
 20
292.911
 30
-6.50161e-14
  70
    32
  0
VERTEX
  8
0
  5
8862
 10
-157.943
 20
292.907
 30
-6.50151e-14
  70
    32
  0
VERTEX
  8
0
  5
8863
 10
-157.943
 20
292.903
 30
-6.50142e-14
  70
    32
  0
VERTEX
  8
0
  5
8864
 10
-157.943
 20
292.898
 30
-6.50133e-14
  70
    32
  0
VERTEX
  8
0
  5
8865
 10
-157.943
 20
292.894
 30
-6.50125e-14
  70
    32
  0
VERTEX
  8
0
  5
8866
 10
-157.943
 20
292.890
 30
-6.50117e-14
  70
    32
  0
VERTEX
  8
0
  5
8867
 10
-157.943
 20
292.886
 30
-6.50109e-14
  70
    32
  0
VERTEX
  8
0
  5
8868
 10
-157.943
 20
292.882
 30
-6.50102e-14
  70
    32
  0
VERTEX
  8
0
  5
8869
 10
-157.943
 20
292.878
 30
-6.50095e-14
  70
    32
  0
VERTEX
  8
0
  5
886A
 10
-157.943
 20
292.874
 30
-6.50088e-14
  70
    32
  0
VERTEX
  8
0
  5
886B
 10
-157.943
 20
292.870
 30
-6.50081e-14
  70
    32
  0
VERTEX
  8
0
  5
886C
 10
-157.943
 20
292.866
 30
-6.50075e-14
  70
    32
  0
VERTEX
  8
0
  5
886D
 10
-157.944
 20
292.862
 30
-6.50070e-14
  70
    32
  0
VERTEX
  8
0
  5
886E
 10
-157.944
 20
292.858
 30
-6.50064e-14
  70
    32
  0
VERTEX
  8
0
  5
886F
 10
-157.944
 20
292.854
 30
-6.50059e-14
  70
    32
  0
VERTEX
  8
0
  5
8870
 10
-157.944
 20
292.850
 30
-6.50054e-14
  70
    32
  0
VERTEX
  8
0
  5
8871
 10
-157.944
 20
292.846
 30
-6.50050e-14
  70
    32
  0
VERTEX
  8
0
  5
8872
 10
-157.944
 20
292.842
 30
-6.50045e-14
  70
    32
  0
VERTEX
  8
0
  5
8873
 10
-157.944
 20
292.839
 30
-6.50041e-14
  70
    32
  0
VERTEX
  8
0
  5
8874
 10
-157.944
 20
292.835
 30
-6.50037e-14
  70
    32
  0
VERTEX
  8
0
  5
8875
 10
-157.944
 20
292.831
 30
-6.50034e-14
  70
    32
  0
VERTEX
  8
0
  5
8876
 10
-157.944
 20
292.827
 30
-6.50030e-14
  70
    32
  0
VERTEX
  8
0
  5
8877
 10
-157.944
 20
292.823
 30
-6.50027e-14
  70
    32
  0
VERTEX
  8
0
  5
8878
 10
-157.944
 20
292.820
 30
-6.50024e-14
  70
    32
  0
VERTEX
  8
0
  5
8879
 10
-157.944
 20
292.816
 30
-6.50022e-14
  70
    32
  0
VERTEX
  8
0
  5
887A
 10
-157.944
 20
292.812
 30
-6.50019e-14
  70
    32
  0
VERTEX
  8
0
  5
887B
 10
-157.944
 20
292.808
 30
-6.50017e-14
  70
    32
  0
VERTEX
  8
0
  5
887C
 10
-157.945
 20
292.805
 30
-6.50015e-14
  70
    32
  0
VERTEX
  8
0
  5
887D
 10
-157.945
 20
292.801
 30
-6.50013e-14
  70
    32
  0
VERTEX
  8
0
  5
887E
 10
-157.945
 20
292.797
 30
-6.50011e-14
  70
    32
  0
VERTEX
  8
0
  5
887F
 10
-157.945
 20
292.794
 30
-6.50010e-14
  70
    32
  0
VERTEX
  8
0
  5
8880
 10
-157.945
 20
292.790
 30
-6.50008e-14
  70
    32
  0
VERTEX
  8
0
  5
8881
 10
-157.945
 20
292.787
 30
-6.50007e-14
  70
    32
  0
VERTEX
  8
0
  5
8882
 10
-157.945
 20
292.783
 30
-6.50006e-14
  70
    32
  0
VERTEX
  8
0
  5
8883
 10
-157.945
 20
292.780
 30
-6.50005e-14
  70
    32
  0
VERTEX
  8
0
  5
8884
 10
-157.945
 20
292.776
 30
-6.50004e-14
  70
    32
  0
VERTEX
  8
0
  5
8885
 10
-157.945
 20
292.773
 30
-6.50003e-14
  70
    32
  0
VERTEX
  8
0
  5
8886
 10
-157.945
 20
292.769
 30
-6.50002e-14
  70
    32
  0
VERTEX
  8
0
  5
8887
 10
-157.945
 20
292.766
 30
-6.50002e-14
  70
    32
  0
VERTEX
  8
0
  5
8888
 10
-157.945
 20
292.762
 30
-6.50001e-14
  70
    32
  0
VERTEX
  8
0
  5
8889
 10
-157.945
 20
292.759
 30
-6.50001e-14
  70
    32
  0
VERTEX
  8
0
  5
888A
 10
-157.945
 20
292.755
 30
-6.50001e-14
  70
    32
  0
VERTEX
  8
0
  5
888B
 10
-157.945
 20
292.752
 30
-6.50001e-14
  70
    32
  0
VERTEX
  8
0
  5
888C
 10
-157.945
 20
292.749
 30
-6.50000e-14
  70
    32
  0
VERTEX
  8
0
  5
888D
 10
-157.946
 20
292.745
 30
-6.50000e-14
  70
    32
  0
VERTEX
  8
0
  5
888E
 10
-157.946
 20
292.742
 30
-6.50000e-14
  70
    32
  0
VERTEX
  8
0
  5
888F
 10
-157.946
 20
292.739
 30
-6.50000e-14
  70
    32
  0
VERTEX
  8
0
  5
8890
 10
-157.946
 20
292.736
 30
-6.50000e-14
  70
    32
  0
VERTEX
  8
0
  5
8891
 10
-157.946
 20
292.732
 30
-6.50000e-14
  70
    32
  0
VERTEX
  8
0
  5
8892
 10
-157.946
 20
292.729
 30
-6.50000e-14
  70
    32
  0
VERTEX
  8
0
  5
8893
 10
-157.946
 20
292.726
 30
-6.50000e-14
  70
    32
  0
VERTEX
  8
0
  5
8894
 10
-157.946
 20
292.723
 30
-6.50000e-14
  70
    32
  0
VERTEX
  8
0
  5
8895
 10
-157.946
 20
292.720
 30
-6.50000e-14
  70
    32
  0
VERTEX
  8
0
  5
8896
 10
-157.946
 20
292.717
 30
-6.50000e-14
  70
    32
  0
VERTEX
  8
0
  5
8897
 10
-157.946
 20
292.713
 30
-6.50000e-14
  70
    32
  0
VERTEX
  8
0
  5
8898
 10
-157.946
 20
292.710
 30
-6.50000e-14
  70
    32
  0
VERTEX
  8
0
  5
8899
 10
-157.946
 20
292.707
 30
-6.50000e-14
  70
    32
  0
VERTEX
  8
0
  5
889A
 10
-157.946
 20
292.704
 30
-6.50000e-14
  70
    32
  0
VERTEX
  8
0
  5
889B
 10
-157.946
 20
292.701
 30
-6.50000e-14
  70
    32
  0
VERTEX
  8
0
  5
889C
 10
-157.946
 20
292.698
 30
-6.50000e-14
  70
    32
  0
VERTEX
  8
0
  5
889D
 10
-157.946
 20
292.695
 30
-6.50000e-14
  70
    32
  0
VERTEX
  8
0
  5
889E
 10
-157.946
 20
292.692
 30
-6.50000e-14
  70
    32
  0
VERTEX
  8
0
  5
889F
 10
-157.947
 20
292.689
 30
-6.50000e-14
  70
    32
  0
VERTEX
  8
0
  5
88A0
 10
-157.947
 20
292.686
 30
-6.50000e-14
  70
    32
  0
VERTEX
  8
0
  5
88A1
 10
-157.947
 20
292.684
 30
-6.50000e-14
  70
    32
  0
VERTEX
  8
0
  5
88A2
 10
-157.947
 20
292.681
 30
-6.50000e-14
  70
    32
  0
VERTEX
  8
0
  5
88A3
 10
-157.947
 20
292.678
 30
-6.50000e-14
  70
    32
  0
VERTEX
  8
0
  5
88A4
 10
-157.947
 20
292.675
 30
-6.50000e-14
  70
    32
  0
VERTEX
  8
0
  5
88A5
 10
-157.947
 20
292.672
 30
-6.50000e-14
  70
    32
  0
VERTEX
  8
0
  5
88A6
 10
-157.947
 20
292.670
 30
-6.50000e-14
  70
    32
  0
VERTEX
  8
0
  5
88A7
 10
-157.947
 20
292.667
 30
-6.50000e-14
  70
    32
  0
VERTEX
  8
0
  5
88A8
 10
-157.947
 20
292.664
 30
-6.50000e-14
  70
    32
  0
VERTEX
  8
0
  5
88A9
 10
-157.947
 20
292.661
 30
-6.50000e-14
  70
    32
  0
VERTEX
  8
0
  5
88AA
 10
-157.947
 20
292.659
 30
-6.50000e-14
  70
    32
  0
VERTEX
  8
0
  5
88AB
 10
-157.947
 20
292.656
 30
-6.50000e-14
  70
    32
  0
VERTEX
  8
0
  5
88AC
 10
-157.947
 20
292.653
 30
-6.50000e-14
  70
    32
  0
VERTEX
  8
0
  5
88AD
 10
-157.947
 20
292.651
 30
-6.50000e-14
  70
    32
  0
VERTEX
  8
0
  5
88AE
 10
-157.947
 20
292.648
 30
-6.50000e-14
  70
    32
  0
VERTEX
  8
0
  5
88AF
 10
-157.947
 20
292.646
 30
-6.50000e-14
  70
    32
  0
VERTEX
  8
0
  5
88B0
 10
-157.947
 20
292.643
 30
-6.50000e-14
  70
    32
  0
VERTEX
  8
0
  5
88B1
 10
-157.947
 20
292.640
 30
-6.50000e-14
  70
    32
  0
VERTEX
  8
0
  5
88B2
 10
-157.947
 20
292.638
 30
-6.50000e-14
  70
    32
  0
VERTEX
  8
0
  5
88B3
 10
-157.947
 20
292.635
 30
-6.50000e-14
  70
    32
  0
VERTEX
  8
0
  5
88B4
 10
-157.948
 20
292.633
 30
-6.50000e-14
  70
    32
  0
VERTEX
  8
0
  5
88B5
 10
-157.948
 20
292.631
 30
-6.50000e-14
  70
    32
  0
VERTEX
  8
0
  5
88B6
 10
-157.948
 20
292.628
 30
-6.50000e-14
  70
    32
  0
VERTEX
  8
0
  5
88B7
 10
-157.948
 20
292.626
 30
-6.50000e-14
  70
    32
  0
VERTEX
  8
0
  5
88B8
 10
-157.948
 20
292.623
 30
-6.50000e-14
  70
    32
  0
VERTEX
  8
0
  5
88B9
 10
-157.948
 20
292.621
 30
-6.50000e-14
  70
    32
  0
VERTEX
  8
0
  5
88BA
 10
-157.948
 20
292.619
 30
-6.50000e-14
  70
    32
  0
VERTEX
  8
0
  5
88BB
 10
-157.948
 20
292.616
 30
-6.50000e-14
  70
    32
  0
VERTEX
  8
0
  5
88BC
 10
-157.948
 20
292.614
 30
-6.50000e-14
  70
    32
  0
VERTEX
  8
0
  5
88BD
 10
-157.948
 20
292.612
 30
-6.50000e-14
  70
    32
  0
VERTEX
  8
0
  5
88BE
 10
-157.948
 20
292.610
 30
-6.50000e-14
  70
    32
  0
VERTEX
  8
0
  5
88BF
 10
-157.948
 20
292.607
 30
-6.50000e-14
  70
    32
  0
VERTEX
  8
0
  5
88C0
 10
-157.948
 20
292.605
 30
-6.50000e-14
  70
    32
  0
VERTEX
  8
0
  5
88C1
 10
-157.948
 20
292.603
 30
-6.50000e-14
  70
    32
  0
VERTEX
  8
0
  5
88C2
 10
-157.948
 20
292.601
 30
-6.50000e-14
  70
    32
  0
VERTEX
  8
0
  5
88C3
 10
-157.948
 20
292.599
 30
-6.50000e-14
  70
    32
  0
VERTEX
  8
0
  5
88C4
 10
-157.948
 20
292.597
 30
-6.50000e-14
  70
    32
  0
VERTEX
  8
0
  5
88C5
 10
-157.948
 20
292.595
 30
-6.50000e-14
  70
    32
  0
VERTEX
  8
0
  5
88C6
 10
-157.948
 20
292.593
 30
-6.50000e-14
  70
    32
  0
VERTEX
  8
0
  5
88C7
 10
-157.948
 20
292.590
 30
-6.50000e-14
  70
    32
  0
VERTEX
  8
0
  5
88C8
 10
-157.948
 20
292.588
 30
-6.50000e-14
  70
    32
  0
VERTEX
  8
0
  5
88C9
 10
-157.948
 20
292.586
 30
-6.50000e-14
  70
    32
  0
VERTEX
  8
0
  5
88CA
 10
-157.948
 20
292.585
 30
-6.50000e-14
  70
    32
  0
VERTEX
  8
0
  5
88CB
 10
-157.948
 20
292.583
 30
-6.50000e-14
  70
    32
  0
VERTEX
  8
0
  5
88CC
 10
-157.948
 20
292.581
 30
-6.50000e-14
  70
    32
  0
VERTEX
  8
0
  5
88CD
 10
-157.949
 20
292.579
 30
-6.50000e-14
  70
    32
  0
VERTEX
  8
0
  5
88CE
 10
-157.949
 20
292.577
 30
-6.50000e-14
  70
    32
  0
VERTEX
  8
0
  5
88CF
 10
-157.949
 20
292.575
 30
-6.50000e-14
  70
    32
  0
VERTEX
  8
0
  5
88D0
 10
-157.949
 20
292.573
 30
-6.50000e-14
  70
    32
  0
VERTEX
  8
0
  5
88D1
 10
-157.949
 20
292.571
 30
-6.50000e-14
  70
    32
  0
VERTEX
  8
0
  5
88D2
 10
-157.949
 20
292.570
 30
-6.50000e-14
  70
    32
  0
VERTEX
  8
0
  5
88D3
 10
-157.949
 20
292.568
 30
-6.50000e-14
  70
    32
  0
VERTEX
  8
0
  5
88D4
 10
-157.949
 20
292.566
 30
-6.50000e-14
  70
    32
  0
VERTEX
  8
0
  5
88D5
 10
-157.949
 20
292.564
 30
-6.50000e-14
  70
    32
  0
VERTEX
  8
0
  5
88D6
 10
-157.949
 20
292.563
 30
-6.50000e-14
  70
    32
  0
VERTEX
  8
0
  5
88D7
 10
-157.949
 20
292.561
 30
-6.50000e-14
  70
    32
  0
VERTEX
  8
0
  5
88D8
 10
-157.949
 20
292.559
 30
-6.50000e-14
  70
    32
  0
VERTEX
  8
0
  5
88D9
 10
-157.949
 20
292.558
 30
-6.50000e-14
  70
    32
  0
VERTEX
  8
0
  5
88DA
 10
-157.949
 20
292.556
 30
-6.50000e-14
  70
    32
  0
VERTEX
  8
0
  5
88DB
 10
-157.949
 20
292.555
 30
-6.50000e-14
  70
    32
  0
VERTEX
  8
0
  5
88DC
 10
-157.949
 20
292.553
 30
-6.49998e-14
  70
    32
  0
VERTEX
  8
0
  5
88DD
 10
-157.949
 20
292.552
 30
-6.49995e-14
  70
    32
  0
VERTEX
  8
0
  5
88DE
 10
-157.949
 20
292.550
 30
-6.49992e-14
  70
    32
  0
VERTEX
  8
0
  5
88DF
 10
-157.949
 20
292.549
 30
-6.49987e-14
  70
    32
  0
VERTEX
  8
0
  5
88E0
 10
-157.949
 20
292.547
 30
-6.49981e-14
  70
    32
  0
VERTEX
  8
0
  5
88E1
 10
-157.949
 20
292.546
 30
-6.49974e-14
  70
    32
  0
VERTEX
  8
0
  5
88E2
 10
-157.949
 20
292.544
 30
-6.49967e-14
  70
    32
  0
VERTEX
  8
0
  5
88E3
 10
-157.949
 20
292.543
 30
-6.49958e-14
  70
    32
  0
VERTEX
  8
0
  5
88E4
 10
-157.949
 20
292.541
 30
-6.49949e-14
  70
    32
  0
VERTEX
  8
0
  5
88E5
 10
-157.949
 20
292.540
 30
-6.49938e-14
  70
    32
  0
VERTEX
  8
0
  5
88E6
 10
-157.949
 20
292.539
 30
-6.49927e-14
  70
    32
  0
VERTEX
  8
0
  5
88E7
 10
-157.949
 20
292.537
 30
-6.49915e-14
  70
    32
  0
VERTEX
  8
0
  5
88E8
 10
-157.949
 20
292.536
 30
-6.49903e-14
  70
    32
  0
VERTEX
  8
0
  5
88E9
 10
-157.949
 20
292.535
 30
-6.49889e-14
  70
    32
  0
VERTEX
  8
0
  5
88EA
 10
-157.949
 20
292.534
 30
-6.49875e-14
  70
    32
  0
VERTEX
  8
0
  5
88EB
 10
-157.949
 20
292.533
 30
-6.49861e-14
  70
    32
  0
VERTEX
  8
0
  5
88EC
 10
-157.949
 20
292.531
 30
-6.49845e-14
  70
    32
  0
VERTEX
  8
0
  5
88ED
 10
-157.949
 20
292.530
 30
-6.49829e-14
  70
    32
  0
VERTEX
  8
0
  5
88EE
 10
-157.949
 20
292.529
 30
-6.49813e-14
  70
    32
  0
VERTEX
  8
0
  5
88EF
 10
-157.949
 20
292.528
 30
-6.49796e-14
  70
    32
  0
VERTEX
  8
0
  5
88F0
 10
-157.949
 20
292.527
 30
-6.49778e-14
  70
    32
  0
VERTEX
  8
0
  5
88F1
 10
-157.950
 20
292.526
 30
-6.49761e-14
  70
    32
  0
VERTEX
  8
0
  5
88F2
 10
-157.950
 20
292.525
 30
-6.49742e-14
  70
    32
  0
VERTEX
  8
0
  5
88F3
 10
-157.950
 20
292.524
 30
-6.49724e-14
  70
    32
  0
VERTEX
  8
0
  5
88F4
 10
-157.950
 20
292.523
 30
-6.49705e-14
  70
    32
  0
VERTEX
  8
0
  5
88F5
 10
-157.950
 20
292.522
 30
-6.49685e-14
  70
    32
  0
VERTEX
  8
0
  5
88F6
 10
-157.950
 20
292.521
 30
-6.49665e-14
  70
    32
  0
VERTEX
  8
0
  5
88F7
 10
-157.950
 20
292.520
 30
-6.49645e-14
  70
    32
  0
VERTEX
  8
0
  5
88F8
 10
-157.950
 20
292.519
 30
-6.49625e-14
  70
    32
  0
VERTEX
  8
0
  5
88F9
 10
-157.950
 20
292.518
 30
-6.49605e-14
  70
    32
  0
VERTEX
  8
0
  5
88FA
 10
-157.950
 20
292.517
 30
-6.49584e-14
  70
    32
  0
VERTEX
  8
0
  5
88FB
 10
-157.950
 20
292.516
 30
-6.49564e-14
  70
    32
  0
VERTEX
  8
0
  5
88FC
 10
-157.950
 20
292.515
 30
-6.49543e-14
  70
    32
  0
VERTEX
  8
0
  5
88FD
 10
-157.950
 20
292.515
 30
-6.49522e-14
  70
    32
  0
VERTEX
  8
0
  5
88FE
 10
-157.950
 20
292.514
 30
-6.49501e-14
  70
    32
  0
VERTEX
  8
0
  5
88FF
 10
-157.950
 20
292.513
 30
-6.49480e-14
  70
    32
  0
VERTEX
  8
0
  5
8900
 10
-157.950
 20
292.512
 30
-6.49460e-14
  70
    32
  0
VERTEX
  8
0
  5
8901
 10
-157.950
 20
292.512
 30
-6.49439e-14
  70
    32
  0
VERTEX
  8
0
  5
8902
 10
-157.950
 20
292.511
 30
-6.49418e-14
  70
    32
  0
VERTEX
  8
0
  5
8903
 10
-157.950
 20
292.510
 30
-6.49398e-14
  70
    32
  0
VERTEX
  8
0
  5
8904
 10
-157.950
 20
292.510
 30
-6.49377e-14
  70
    32
  0
VERTEX
  8
0
  5
8905
 10
-157.950
 20
292.509
 30
-6.49357e-14
  70
    32
  0
VERTEX
  8
0
  5
8906
 10
-157.950
 20
292.508
 30
-6.49337e-14
  70
    32
  0
VERTEX
  8
0
  5
8907
 10
-157.950
 20
292.508
 30
-6.49317e-14
  70
    32
  0
VERTEX
  8
0
  5
8908
 10
-157.950
 20
292.507
 30
-6.49298e-14
  70
    32
  0
VERTEX
  8
0
  5
8909
 10
-157.950
 20
292.507
 30
-6.49279e-14
  70
    32
  0
VERTEX
  8
0
  5
890A
 10
-157.950
 20
292.506
 30
-6.49260e-14
  70
    32
  0
VERTEX
  8
0
  5
890B
 10
-157.950
 20
292.506
 30
-6.49242e-14
  70
    32
  0
VERTEX
  8
0
  5
890C
 10
-157.950
 20
292.505
 30
-6.49224e-14
  70
    32
  0
VERTEX
  8
0
  5
890D
 10
-157.950
 20
292.505
 30
-6.49206e-14
  70
    32
  0
VERTEX
  8
0
  5
890E
 10
-157.950
 20
292.504
 30
-6.49189e-14
  70
    32
  0
VERTEX
  8
0
  5
890F
 10
-157.950
 20
292.504
 30
-6.49173e-14
  70
    32
  0
VERTEX
  8
0
  5
8910
 10
-157.950
 20
292.503
 30
-6.49157e-14
  70
    32
  0
VERTEX
  8
0
  5
8911
 10
-157.950
 20
292.503
 30
-6.49141e-14
  70
    32
  0
VERTEX
  8
0
  5
8912
 10
-157.950
 20
292.503
 30
-6.49127e-14
  70
    32
  0
VERTEX
  8
0
  5
8913
 10
-157.950
 20
292.502
 30
-6.49112e-14
  70
    32
  0
VERTEX
  8
0
  5
8914
 10
-157.950
 20
292.502
 30
-6.49099e-14
  70
    32
  0
VERTEX
  8
0
  5
8915
 10
-157.950
 20
292.502
 30
-6.49086e-14
  70
    32
  0
VERTEX
  8
0
  5
8916
 10
-157.950
 20
292.502
 30
-6.49074e-14
  70
    32
  0
VERTEX
  8
0
  5
8917
 10
-157.950
 20
292.501
 30
-6.49063e-14
  70
    32
  0
VERTEX
  8
0
  5
8918
 10
-157.950
 20
292.501
 30
-6.49053e-14
  70
    32
  0
VERTEX
  8
0
  5
8919
 10
-157.950
 20
292.501
 30
-6.49043e-14
  70
    32
  0
VERTEX
  8
0
  5
891A
 10
-157.950
 20
292.501
 30
-6.49034e-14
  70
    32
  0
VERTEX
  8
0
  5
891B
 10
-157.950
 20
292.501
 30
-6.49027e-14
  70
    32
  0
VERTEX
  8
0
  5
891C
 10
-157.950
 20
292.500
 30
-6.49020e-14
  70
    32
  0
VERTEX
  8
0
  5
891D
 10
-157.950
 20
292.500
 30
-6.49014e-14
  70
    32
  0
VERTEX
  8
0
  5
891E
 10
-157.950
 20
292.500
 30
-6.49009e-14
  70
    32
  0
VERTEX
  8
0
  5
891F
 10
-157.950
 20
292.500
 30
-6.49005e-14
  70
    32
  0
VERTEX
  8
0
  5
8920
 10
-157.950
 20
292.500
 30
-6.49002e-14
  70
    32
  0
VERTEX
  8
0
  5
8921
 10
-157.950
 20
292.500
 30
-6.49001e-14
  70
    32
  0
VERTEX
  8
0
  5
8922
 10
-157.950
 20
292.500
 30
-6.49000e-14
  70
    32
  0
SEQEND
  8
0
  5
8923
  0
POLYLINE
  8
0
  5
8924
  62
1
  66
     1
 10
0.000000
 20
0.000000
 30
0.000000
  70
     8
  0
VERTEX
  8
0
  5
8925
 10
-157.950
 20
298.500
 30
-6.63000e-14
  70
    32
  0
VERTEX
  8
0
  5
8926
 10
-157.950
 20
298.500
 30
-6.63000e-14
  70
    32
  0
VERTEX
  8
0
  5
8927
 10
-157.950
 20
298.500
 30
-6.63000e-14
  70
    32
  0
VERTEX
  8
0
  5
8928
 10
-157.950
 20
298.500
 30
-6.63000e-14
  70
    32
  0
VERTEX
  8
0
  5
8929
 10
-157.950
 20
298.500
 30
-6.63000e-14
  70
    32
  0
VERTEX
  8
0
  5
892A
 10
-157.950
 20
298.500
 30
-6.63000e-14
  70
    32
  0
VERTEX
  8
0
  5
892B
 10
-157.950
 20
298.500
 30
-6.63000e-14
  70
    32
  0
VERTEX
  8
0
  5
892C
 10
-157.950
 20
298.499
 30
-6.63000e-14
  70
    32
  0
VERTEX
  8
0
  5
892D
 10
-157.950
 20
298.499
 30
-6.63000e-14
  70
    32
  0
VERTEX
  8
0
  5
892E
 10
-157.950
 20
298.499
 30
-6.63000e-14
  70
    32
  0
VERTEX
  8
0
  5
892F
 10
-157.950
 20
298.499
 30
-6.63000e-14
  70
    32
  0
VERTEX
  8
0
  5
8930
 10
-157.950
 20
298.499
 30
-6.63000e-14
  70
    32
  0
VERTEX
  8
0
  5
8931
 10
-157.950
 20
298.498
 30
-6.63000e-14
  70
    32
  0
VERTEX
  8
0
  5
8932
 10
-157.950
 20
298.498
 30
-6.63000e-14
  70
    32
  0
VERTEX
  8
0
  5
8933
 10
-157.950
 20
298.498
 30
-6.63000e-14
  70
    32
  0
VERTEX
  8
0
  5
8934
 10
-157.950
 20
298.498
 30
-6.63000e-14
  70
    32
  0
VERTEX
  8
0
  5
8935
 10
-157.950
 20
298.497
 30
-6.63000e-14
  70
    32
  0
VERTEX
  8
0
  5
8936
 10
-157.950
 20
298.497
 30
-6.63000e-14
  70
    32
  0
VERTEX
  8
0
  5
8937
 10
-157.950
 20
298.497
 30
-6.63000e-14
  70
    32
  0
VERTEX
  8
0
  5
8938
 10
-157.950
 20
298.496
 30
-6.63000e-14
  70
    32
  0
VERTEX
  8
0
  5
8939
 10
-157.950
 20
298.496
 30
-6.63000e-14
  70
    32
  0
VERTEX
  8
0
  5
893A
 10
-157.950
 20
298.495
 30
-6.63000e-14
  70
    32
  0
VERTEX
  8
0
  5
893B
 10
-157.950
 20
298.495
 30
-6.63000e-14
  70
    32
  0
VERTEX
  8
0
  5
893C
 10
-157.950
 20
298.494
 30
-6.63000e-14
  70
    32
  0
VERTEX
  8
0
  5
893D
 10
-157.950
 20
298.494
 30
-6.63000e-14
  70
    32
  0
VERTEX
  8
0
  5
893E
 10
-157.950
 20
298.493
 30
-6.63000e-14
  70
    32
  0
VERTEX
  8
0
  5
893F
 10
-157.950
 20
298.493
 30
-6.63000e-14
  70
    32
  0
VERTEX
  8
0
  5
8940
 10
-157.950
 20
298.492
 30
-6.63000e-14
  70
    32
  0
VERTEX
  8
0
  5
8941
 10
-157.950
 20
298.492
 30
-6.63000e-14
  70
    32
  0
VERTEX
  8
0
  5
8942
 10
-157.950
 20
298.491
 30
-6.63000e-14
  70
    32
  0
VERTEX
  8
0
  5
8943
 10
-157.950
 20
298.490
 30
-6.63000e-14
  70
    32
  0
VERTEX
  8
0
  5
8944
 10
-157.950
 20
298.490
 30
-6.63000e-14
  70
    32
  0
VERTEX
  8
0
  5
8945
 10
-157.950
 20
298.489
 30
-6.63000e-14
  70
    32
  0
VERTEX
  8
0
  5
8946
 10
-157.950
 20
298.488
 30
-6.63000e-14
  70
    32
  0
VERTEX
  8
0
  5
8947
 10
-157.950
 20
298.488
 30
-6.63000e-14
  70
    32
  0
VERTEX
  8
0
  5
8948
 10
-157.950
 20
298.487
 30
-6.63000e-14
  70
    32
  0
VERTEX
  8
0
  5
8949
 10
-157.950
 20
298.486
 30
-6.63000e-14
  70
    32
  0
VERTEX
  8
0
  5
894A
 10
-157.950
 20
298.485
 30
-6.63000e-14
  70
    32
  0
VERTEX
  8
0
  5
894B
 10
-157.950
 20
298.485
 30
-6.63000e-14
  70
    32
  0
VERTEX
  8
0
  5
894C
 10
-157.950
 20
298.484
 30
-6.63000e-14
  70
    32
  0
VERTEX
  8
0
  5
894D
 10
-157.950
 20
298.483
 30
-6.63000e-14
  70
    32
  0
VERTEX
  8
0
  5
894E
 10
-157.950
 20
298.482
 30
-6.63000e-14
  70
    32
  0
VERTEX
  8
0
  5
894F
 10
-157.950
 20
298.481
 30
-6.63000e-14
  70
    32
  0
VERTEX
  8
0
  5
8950
 10
-157.950
 20
298.480
 30
-6.63000e-14
  70
    32
  0
VERTEX
  8
0
  5
8951
 10
-157.950
 20
298.479
 30
-6.63000e-14
  70
    32
  0
VERTEX
  8
0
  5
8952
 10
-157.950
 20
298.478
 30
-6.63000e-14
  70
    32
  0
VERTEX
  8
0
  5
8953
 10
-157.950
 20
298.477
 30
-6.63000e-14
  70
    32
  0
VERTEX
  8
0
  5
8954
 10
-157.950
 20
298.476
 30
-6.63000e-14
  70
    32
  0
VERTEX
  8
0
  5
8955
 10
-157.950
 20
298.475
 30
-6.63000e-14
  70
    32
  0
VERTEX
  8
0
  5
8956
 10
-157.950
 20
298.474
 30
-6.63000e-14
  70
    32
  0
VERTEX
  8
0
  5
8957
 10
-157.949
 20
298.473
 30
-6.63000e-14
  70
    32
  0
VERTEX
  8
0
  5
8958
 10
-157.949
 20
298.472
 30
-6.63000e-14
  70
    32
  0
VERTEX
  8
0
  5
8959
 10
-157.949
 20
298.471
 30
-6.63000e-14
  70
    32
  0
VERTEX
  8
0
  5
895A
 10
-157.949
 20
298.470
 30
-6.63000e-14
  70
    32
  0
VERTEX
  8
0
  5
895B
 10
-157.949
 20
298.469
 30
-6.63000e-14
  70
    32
  0
VERTEX
  8
0
  5
895C
 10
-157.949
 20
298.467
 30
-6.63000e-14
  70
    32
  0
VERTEX
  8
0
  5
895D
 10
-157.949
 20
298.466
 30
-6.63000e-14
  70
    32
  0
VERTEX
  8
0
  5
895E
 10
-157.949
 20
298.465
 30
-6.63000e-14
  70
    32
  0
VERTEX
  8
0
  5
895F
 10
-157.949
 20
298.464
 30
-6.63000e-14
  70
    32
  0
VERTEX
  8
0
  5
8960
 10
-157.949
 20
298.463
 30
-6.63000e-14
  70
    32
  0
VERTEX
  8
0
  5
8961
 10
-157.949
 20
298.461
 30
-6.63000e-14
  70
    32
  0
VERTEX
  8
0
  5
8962
 10
-157.949
 20
298.460
 30
-6.63000e-14
  70
    32
  0
VERTEX
  8
0
  5
8963
 10
-157.949
 20
298.459
 30
-6.63000e-14
  70
    32
  0
VERTEX
  8
0
  5
8964
 10
-157.949
 20
298.457
 30
-6.63000e-14
  70
    32
  0
VERTEX
  8
0
  5
8965
 10
-157.949
 20
298.456
 30
-6.63000e-14
  70
    32
  0
VERTEX
  8
0
  5
8966
 10
-157.949
 20
298.454
 30
-6.63000e-14
  70
    32
  0
VERTEX
  8
0
  5
8967
 10
-157.949
 20
298.453
 30
-6.63000e-14
  70
    32
  0
VERTEX
  8
0
  5
8968
 10
-157.949
 20
298.451
 30
-6.63000e-14
  70
    32
  0
VERTEX
  8
0
  5
8969
 10
-157.949
 20
298.450
 30
-6.63000e-14
  70
    32
  0
VERTEX
  8
0
  5
896A
 10
-157.949
 20
298.448
 30
-6.63000e-14
  70
    32
  0
VERTEX
  8
0
  5
896B
 10
-157.949
 20
298.447
 30
-6.63000e-14
  70
    32
  0
VERTEX
  8
0
  5
896C
 10
-157.949
 20
298.445
 30
-6.63000e-14
  70
    32
  0
VERTEX
  8
0
  5
896D
 10
-157.949
 20
298.444
 30
-6.63000e-14
  70
    32
  0
VERTEX
  8
0
  5
896E
 10
-157.949
 20
298.442
 30
-6.62999e-14
  70
    32
  0
VERTEX
  8
0
  5
896F
 10
-157.949
 20
298.441
 30
-6.62997e-14
  70
    32
  0
VERTEX
  8
0
  5
8970
 10
-157.949
 20
298.439
 30
-6.62994e-14
  70
    32
  0
VERTEX
  8
0
  5
8971
 10
-157.949
 20
298.437
 30
-6.62990e-14
  70
    32
  0
VERTEX
  8
0
  5
8972
 10
-157.949
 20
298.436
 30
-6.62985e-14
  70
    32
  0
VERTEX
  8
0
  5
8973
 10
-157.949
 20
298.434
 30
-6.62979e-14
  70
    32
  0
VERTEX
  8
0
  5
8974
 10
-157.949
 20
298.432
 30
-6.62972e-14
  70
    32
  0
VERTEX
  8
0
  5
8975
 10
-157.949
 20
298.430
 30
-6.62965e-14
  70
    32
  0
VERTEX
  8
0
  5
8976
 10
-157.949
 20
298.429
 30
-6.62956e-14
  70
    32
  0
VERTEX
  8
0
  5
8977
 10
-157.949
 20
298.427
 30
-6.62946e-14
  70
    32
  0
VERTEX
  8
0
  5
8978
 10
-157.949
 20
298.425
 30
-6.62936e-14
  70
    32
  0
VERTEX
  8
0
  5
8979
 10
-157.949
 20
298.423
 30
-6.62924e-14
  70
    32
  0
VERTEX
  8
0
  5
897A
 10
-157.949
 20
298.421
 30
-6.62912e-14
  70
    32
  0
VERTEX
  8
0
  5
897B
 10
-157.948
 20
298.419
 30
-6.62899e-14
  70
    32
  0
VERTEX
  8
0
  5
897C
 10
-157.948
 20
298.417
 30
-6.62886e-14
  70
    32
  0
VERTEX
  8
0
  5
897D
 10
-157.948
 20
298.415
 30
-6.62872e-14
  70
    32
  0
VERTEX
  8
0
  5
897E
 10
-157.948
 20
298.414
 30
-6.62857e-14
  70
    32
  0
VERTEX
  8
0
  5
897F
 10
-157.948
 20
298.412
 30
-6.62841e-14
  70
    32
  0
VERTEX
  8
0
  5
8980
 10
-157.948
 20
298.410
 30
-6.62825e-14
  70
    32
  0
VERTEX
  8
0
  5
8981
 10
-157.948
 20
298.407
 30
-6.62809e-14
  70
    32
  0
VERTEX
  8
0
  5
8982
 10
-157.948
 20
298.405
 30
-6.62792e-14
  70
    32
  0
VERTEX
  8
0
  5
8983
 10
-157.948
 20
298.403
 30
-6.62774e-14
  70
    32
  0
VERTEX
  8
0
  5
8984
 10
-157.948
 20
298.401
 30
-6.62756e-14
  70
    32
  0
VERTEX
  8
0
  5
8985
 10
-157.948
 20
298.399
 30
-6.62738e-14
  70
    32
  0
VERTEX
  8
0
  5
8986
 10
-157.948
 20
298.397
 30
-6.62719e-14
  70
    32
  0
VERTEX
  8
0
  5
8987
 10
-157.948
 20
298.395
 30
-6.62700e-14
  70
    32
  0
VERTEX
  8
0
  5
8988
 10
-157.948
 20
298.393
 30
-6.62680e-14
  70
    32
  0
VERTEX
  8
0
  5
8989
 10
-157.948
 20
298.390
 30
-6.62660e-14
  70
    32
  0
VERTEX
  8
0
  5
898A
 10
-157.948
 20
298.388
 30
-6.62640e-14
  70
    32
  0
VERTEX
  8
0
  5
898B
 10
-157.948
 20
298.386
 30
-6.62620e-14
  70
    32
  0
VERTEX
  8
0
  5
898C
 10
-157.948
 20
298.384
 30
-6.62600e-14
  70
    32
  0
VERTEX
  8
0
  5
898D
 10
-157.948
 20
298.381
 30
-6.62579e-14
  70
    32
  0
VERTEX
  8
0
  5
898E
 10
-157.948
 20
298.379
 30
-6.62559e-14
  70
    32
  0
VERTEX
  8
0
  5
898F
 10
-157.948
 20
298.377
 30
-6.62538e-14
  70
    32
  0
VERTEX
  8
0
  5
8990
 10
-157.948
 20
298.374
 30
-6.62517e-14
  70
    32
  0
VERTEX
  8
0
  5
8991
 10
-157.948
 20
298.372
 30
-6.62496e-14
  70
    32
  0
VERTEX
  8
0
  5
8992
 10
-157.948
 20
298.369
 30
-6.62475e-14
  70
    32
  0
VERTEX
  8
0
  5
8993
 10
-157.948
 20
298.367
 30
-6.62454e-14
  70
    32
  0
VERTEX
  8
0
  5
8994
 10
-157.947
 20
298.365
 30
-6.62434e-14
  70
    32
  0
VERTEX
  8
0
  5
8995
 10
-157.947
 20
298.362
 30
-6.62413e-14
  70
    32
  0
VERTEX
  8
0
  5
8996
 10
-157.947
 20
298.360
 30
-6.62392e-14
  70
    32
  0
VERTEX
  8
0
  5
8997
 10
-157.947
 20
298.357
 30
-6.62372e-14
  70
    32
  0
VERTEX
  8
0
  5
8998
 10
-157.947
 20
298.354
 30
-6.62352e-14
  70
    32
  0
VERTEX
  8
0
  5
8999
 10
-157.947
 20
298.352
 30
-6.62332e-14
  70
    32
  0
VERTEX
  8
0
  5
899A
 10
-157.947
 20
298.349
 30
-6.62312e-14
  70
    32
  0
VERTEX
  8
0
  5
899B
 10
-157.947
 20
298.347
 30
-6.62293e-14
  70
    32
  0
VERTEX
  8
0
  5
899C
 10
-157.947
 20
298.344
 30
-6.62274e-14
  70
    32
  0
VERTEX
  8
0
  5
899D
 10
-157.947
 20
298.341
 30
-6.62255e-14
  70
    32
  0
VERTEX
  8
0
  5
899E
 10
-157.947
 20
298.339
 30
-6.62237e-14
  70
    32
  0
VERTEX
  8
0
  5
899F
 10
-157.947
 20
298.336
 30
-6.62219e-14
  70
    32
  0
VERTEX
  8
0
  5
89A0
 10
-157.947
 20
298.333
 30
-6.62202e-14
  70
    32
  0
VERTEX
  8
0
  5
89A1
 10
-157.947
 20
298.330
 30
-6.62185e-14
  70
    32
  0
VERTEX
  8
0
  5
89A2
 10
-157.947
 20
298.328
 30
-6.62169e-14
  70
    32
  0
VERTEX
  8
0
  5
89A3
 10
-157.947
 20
298.325
 30
-6.62153e-14
  70
    32
  0
VERTEX
  8
0
  5
89A4
 10
-157.947
 20
298.322
 30
-6.62138e-14
  70
    32
  0
VERTEX
  8
0
  5
89A5
 10
-157.947
 20
298.319
 30
-6.62123e-14
  70
    32
  0
VERTEX
  8
0
  5
89A6
 10
-157.947
 20
298.316
 30
-6.62109e-14
  70
    32
  0
VERTEX
  8
0
  5
89A7
 10
-157.947
 20
298.314
 30
-6.62096e-14
  70
    32
  0
VERTEX
  8
0
  5
89A8
 10
-157.947
 20
298.311
 30
-6.62083e-14
  70
    32
  0
VERTEX
  8
0
  5
89A9
 10
-157.946
 20
298.308
 30
-6.62071e-14
  70
    32
  0
VERTEX
  8
0
  5
89AA
 10
-157.946
 20
298.305
 30
-6.62060e-14
  70
    32
  0
VERTEX
  8
0
  5
89AB
 10
-157.946
 20
298.302
 30
-6.62050e-14
  70
    32
  0
VERTEX
  8
0
  5
89AC
 10
-157.946
 20
298.299
 30
-6.62041e-14
  70
    32
  0
VERTEX
  8
0
  5
89AD
 10
-157.946
 20
298.296
 30
-6.62032e-14
  70
    32
  0
VERTEX
  8
0
  5
89AE
 10
-157.946
 20
298.293
 30
-6.62025e-14
  70
    32
  0
VERTEX
  8
0
  5
89AF
 10
-157.946
 20
298.290
 30
-6.62018e-14
  70
    32
  0
VERTEX
  8
0
  5
89B0
 10
-157.946
 20
298.287
 30
-6.62013e-14
  70
    32
  0
VERTEX
  8
0
  5
89B1
 10
-157.946
 20
298.283
 30
-6.62008e-14
  70
    32
  0
VERTEX
  8
0
  5
89B2
 10
-157.946
 20
298.280
 30
-6.62004e-14
  70
    32
  0
VERTEX
  8
0
  5
89B3
 10
-157.946
 20
298.277
 30
-6.62002e-14
  70
    32
  0
VERTEX
  8
0
  5
89B4
 10
-157.946
 20
298.274
 30
-6.62000e-14
  70
    32
  0
VERTEX
  8
0
  5
89B5
 10
-157.946
 20
298.271
 30
-6.62000e-14
  70
    32
  0
VERTEX
  8
0
  5
89B6
 10
-157.946
 20
298.268
 30
-6.62000e-14
  70
    32
  0
VERTEX
  8
0
  5
89B7
 10
-157.946
 20
298.264
 30
-6.62000e-14
  70
    32
  0
VERTEX
  8
0
  5
89B8
 10
-157.946
 20
298.261
 30
-6.62000e-14
  70
    32
  0
VERTEX
  8
0
  5
89B9
 10
-157.946
 20
298.258
 30
-6.62000e-14
  70
    32
  0
VERTEX
  8
0
  5
89BA
 10
-157.946
 20
298.255
 30
-6.62000e-14
  70
    32
  0
VERTEX
  8
0
  5
89BB
 10
-157.945
 20
298.251
 30
-6.62000e-14
  70
    32
  0
VERTEX
  8
0
  5
89BC
 10
-157.945
 20
298.248
 30
-6.61999e-14
  70
    32
  0
VERTEX
  8
0
  5
89BD
 10
-157.945
 20
298.245
 30
-6.61999e-14
  70
    32
  0
VERTEX
  8
0
  5
89BE
 10
-157.945
 20
298.241
 30
-6.61999e-14
  70
    32
  0
VERTEX
  8
0
  5
89BF
 10
-157.945
 20
298.238
 30
-6.61999e-14
  70
    32
  0
VERTEX
  8
0
  5
89C0
 10
-157.945
 20
298.234
 30
-6.61998e-14
  70
    32
  0
VERTEX
  8
0
  5
89C1
 10
-157.945
 20
298.231
 30
-6.61998e-14
  70
    32
  0
VERTEX
  8
0
  5
89C2
 10
-157.945
 20
298.227
 30
-6.61997e-14
  70
    32
  0
VERTEX
  8
0
  5
89C3
 10
-157.945
 20
298.224
 30
-6.61996e-14
  70
    32
  0
VERTEX
  8
0
  5
89C4
 10
-157.945
 20
298.220
 30
-6.61995e-14
  70
    32
  0
VERTEX
  8
0
  5
89C5
 10
-157.945
 20
298.217
 30
-6.61994e-14
  70
    32
  0
VERTEX
  8
0
  5
89C6
 10
-157.945
 20
298.213
 30
-6.61993e-14
  70
    32
  0
VERTEX
  8
0
  5
89C7
 10
-157.945
 20
298.210
 30
-6.61992e-14
  70
    32
  0
VERTEX
  8
0
  5
89C8
 10
-157.945
 20
298.206
 30
-6.61990e-14
  70
    32
  0
VERTEX
  8
0
  5
89C9
 10
-157.945
 20
298.203
 30
-6.61989e-14
  70
    32
  0
VERTEX
  8
0
  5
89CA
 10
-157.945
 20
298.199
 30
-6.61987e-14
  70
    32
  0
VERTEX
  8
0
  5
89CB
 10
-157.945
 20
298.195
 30
-6.61985e-14
  70
    32
  0
VERTEX
  8
0
  5
89CC
 10
-157.944
 20
298.192
 30
-6.61983e-14
  70
    32
  0
VERTEX
  8
0
  5
89CD
 10
-157.944
 20
298.188
 30
-6.61981e-14
  70
    32
  0
VERTEX
  8
0
  5
89CE
 10
-157.944
 20
298.184
 30
-6.61978e-14
  70
    32
  0
VERTEX
  8
0
  5
89CF
 10
-157.944
 20
298.180
 30
-6.61976e-14
  70
    32
  0
VERTEX
  8
0
  5
89D0
 10
-157.944
 20
298.177
 30
-6.61973e-14
  70
    32
  0
VERTEX
  8
0
  5
89D1
 10
-157.944
 20
298.173
 30
-6.61970e-14
  70
    32
  0
VERTEX
  8
0
  5
89D2
 10
-157.944
 20
298.169
 30
-6.61966e-14
  70
    32
  0
VERTEX
  8
0
  5
89D3
 10
-157.944
 20
298.165
 30
-6.61963e-14
  70
    32
  0
VERTEX
  8
0
  5
89D4
 10
-157.944
 20
298.161
 30
-6.61959e-14
  70
    32
  0
VERTEX
  8
0
  5
89D5
 10
-157.944
 20
298.158
 30
-6.61955e-14
  70
    32
  0
VERTEX
  8
0
  5
89D6
 10
-157.944
 20
298.154
 30
-6.61950e-14
  70
    32
  0
VERTEX
  8
0
  5
89D7
 10
-157.944
 20
298.150
 30
-6.61946e-14
  70
    32
  0
VERTEX
  8
0
  5
89D8
 10
-157.944
 20
298.146
 30
-6.61941e-14
  70
    32
  0
VERTEX
  8
0
  5
89D9
 10
-157.944
 20
298.142
 30
-6.61936e-14
  70
    32
  0
VERTEX
  8
0
  5
89DA
 10
-157.944
 20
298.138
 30
-6.61930e-14
  70
    32
  0
VERTEX
  8
0
  5
89DB
 10
-157.943
 20
298.134
 30
-6.61925e-14
  70
    32
  0
VERTEX
  8
0
  5
89DC
 10
-157.943
 20
298.130
 30
-6.61919e-14
  70
    32
  0
VERTEX
  8
0
  5
89DD
 10
-157.943
 20
298.126
 30
-6.61912e-14
  70
    32
  0
VERTEX
  8
0
  5
89DE
 10
-157.943
 20
298.122
 30
-6.61905e-14
  70
    32
  0
VERTEX
  8
0
  5
89DF
 10
-157.943
 20
298.118
 30
-6.61898e-14
  70
    32
  0
VERTEX
  8
0
  5
89E0
 10
-157.943
 20
298.114
 30
-6.61891e-14
  70
    32
  0
VERTEX
  8
0
  5
89E1
 10
-157.943
 20
298.110
 30
-6.61883e-14
  70
    32
  0
VERTEX
  8
0
  5
89E2
 10
-157.943
 20
298.106
 30
-6.61875e-14
  70
    32
  0
VERTEX
  8
0
  5
89E3
 10
-157.943
 20
298.102
 30
-6.61867e-14
  70
    32
  0
VERTEX
  8
0
  5
89E4
 10
-157.943
 20
298.097
 30
-6.61858e-14
  70
    32
  0
VERTEX
  8
0
  5
89E5
 10
-157.943
 20
298.093
 30
-6.61849e-14
  70
    32
  0
VERTEX
  8
0
  5
89E6
 10
-157.943
 20
298.089
 30
-6.61839e-14
  70
    32
  0
VERTEX
  8
0
  5
89E7
 10
-157.943
 20
298.085
 30
-6.61829e-14
  70
    32
  0
VERTEX
  8
0
  5
89E8
 10
-157.943
 20
298.081
 30
-6.61819e-14
  70
    32
  0
VERTEX
  8
0
  5
89E9
 10
-157.943
 20
298.076
 30
-6.61808e-14
  70
    32
  0
VERTEX
  8
0
  5
89EA
 10
-157.942
 20
298.072
 30
-6.61797e-14
  70
    32
  0
VERTEX
  8
0
  5
89EB
 10
-157.942
 20
298.068
 30
-6.61785e-14
  70
    32
  0
VERTEX
  8
0
  5
89EC
 10
-157.942
 20
298.064
 30
-6.61773e-14
  70
    32
  0
VERTEX
  8
0
  5
89ED
 10
-157.942
 20
298.059
 30
-6.61760e-14
  70
    32
  0
VERTEX
  8
0
  5
89EE
 10
-157.942
 20
298.055
 30
-6.61747e-14
  70
    32
  0
VERTEX
  8
0
  5
89EF
 10
-157.942
 20
298.051
 30
-6.61734e-14
  70
    32
  0
VERTEX
  8
0
  5
89F0
 10
-157.942
 20
298.046
 30
-6.61720e-14
  70
    32
  0
VERTEX
  8
0
  5
89F1
 10
-157.942
 20
298.042
 30
-6.61705e-14
  70
    32
  0
VERTEX
  8
0
  5
89F2
 10
-157.942
 20
298.037
 30
-6.61691e-14
  70
    32
  0
VERTEX
  8
0
  5
89F3
 10
-157.942
 20
298.033
 30
-6.61675e-14
  70
    32
  0
VERTEX
  8
0
  5
89F4
 10
-157.942
 20
298.029
 30
-6.61659e-14
  70
    32
  0
VERTEX
  8
0
  5
89F5
 10
-157.942
 20
298.024
 30
-6.61643e-14
  70
    32
  0
VERTEX
  8
0
  5
89F6
 10
-157.942
 20
298.020
 30
-6.61626e-14
  70
    32
  0
VERTEX
  8
0
  5
89F7
 10
-157.942
 20
298.015
 30
-6.61608e-14
  70
    32
  0
VERTEX
  8
0
  5
89F8
 10
-157.941
 20
298.011
 30
-6.61590e-14
  70
    32
  0
VERTEX
  8
0
  5
89F9
 10
-157.941
 20
298.006
 30
-6.61572e-14
  70
    32
  0
VERTEX
  8
0
  5
89FA
 10
-157.941
 20
298.002
 30
-6.61553e-14
  70
    32
  0
VERTEX
  8
0
  5
89FB
 10
-157.941
 20
297.997
 30
-6.61533e-14
  70
    32
  0
VERTEX
  8
0
  5
89FC
 10
-157.941
 20
297.992
 30
-6.61513e-14
  70
    32
  0
VERTEX
  8
0
  5
89FD
 10
-157.941
 20
297.988
 30
-6.61492e-14
  70
    32
  0
VERTEX
  8
0
  5
89FE
 10
-157.941
 20
297.983
 30
-6.61472e-14
  70
    32
  0
VERTEX
  8
0
  5
89FF
 10
-157.941
 20
297.979
 30
-6.61452e-14
  70
    32
  0
VERTEX
  8
0
  5
8A00
 10
-157.941
 20
297.974
 30
-6.61433e-14
  70
    32
  0
VERTEX
  8
0
  5
8A01
 10
-157.941
 20
297.969
 30
-6.61414e-14
  70
    32
  0
VERTEX
  8
0
  5
8A02
 10
-157.941
 20
297.965
 30
-6.61396e-14
  70
    32
  0
VERTEX
  8
0
  5
8A03
 10
-157.941
 20
297.960
 30
-6.61378e-14
  70
    32
  0
VERTEX
  8
0
  5
8A04
 10
-157.941
 20
297.955
 30
-6.61361e-14
  70
    32
  0
VERTEX
  8
0
  5
8A05
 10
-157.941
 20
297.951
 30
-6.61345e-14
  70
    32
  0
VERTEX
  8
0
  5
8A06
 10
-157.940
 20
297.946
 30
-6.61329e-14
  70
    32
  0
VERTEX
  8
0
  5
8A07
 10
-157.940
 20
297.941
 30
-6.61313e-14
  70
    32
  0
VERTEX
  8
0
  5
8A08
 10
-157.940
 20
297.936
 30
-6.61298e-14
  70
    32
  0
VERTEX
  8
0
  5
8A09
 10
-157.940
 20
297.931
 30
-6.61284e-14
  70
    32
  0
VERTEX
  8
0
  5
8A0A
 10
-157.940
 20
297.927
 30
-6.61270e-14
  70
    32
  0
VERTEX
  8
0
  5
8A0B
 10
-157.940
 20
297.922
 30
-6.61256e-14
  70
    32
  0
VERTEX
  8
0
  5
8A0C
 10
-157.940
 20
297.917
 30
-6.61243e-14
  70
    32
  0
VERTEX
  8
0
  5
8A0D
 10
-157.940
 20
297.912
 30
-6.61230e-14
  70
    32
  0
VERTEX
  8
0
  5
8A0E
 10
-157.940
 20
297.907
 30
-6.61218e-14
  70
    32
  0
VERTEX
  8
0
  5
8A0F
 10
-157.940
 20
297.902
 30
-6.61206e-14
  70
    32
  0
VERTEX
  8
0
  5
8A10
 10
-157.940
 20
297.897
 30
-6.61195e-14
  70
    32
  0
VERTEX
  8
0
  5
8A11
 10
-157.940
 20
297.893
 30
-6.61184e-14
  70
    32
  0
VERTEX
  8
0
  5
8A12
 10
-157.940
 20
297.888
 30
-6.61173e-14
  70
    32
  0
VERTEX
  8
0
  5
8A13
 10
-157.939
 20
297.883
 30
-6.61163e-14
  70
    32
  0
VERTEX
  8
0
  5
8A14
 10
-157.939
 20
297.878
 30
-6.61154e-14
  70
    32
  0
VERTEX
  8
0
  5
8A15
 10
-157.939
 20
297.873
 30
-6.61144e-14
  70
    32
  0
VERTEX
  8
0
  5
8A16
 10
-157.939
 20
297.868
 30
-6.61135e-14
  70
    32
  0
VERTEX
  8
0
  5
8A17
 10
-157.939
 20
297.863
 30
-6.61127e-14
  70
    32
  0
VERTEX
  8
0
  5
8A18
 10
-157.939
 20
297.858
 30
-6.61119e-14
  70
    32
  0
VERTEX
  8
0
  5
8A19
 10
-157.939
 20
297.853
 30
-6.61111e-14
  70
    32
  0
VERTEX
  8
0
  5
8A1A
 10
-157.939
 20
297.848
 30
-6.61103e-14
  70
    32
  0
VERTEX
  8
0
  5
8A1B
 10
-157.939
 20
297.843
 30
-6.61096e-14
  70
    32
  0
VERTEX
  8
0
  5
8A1C
 10
-157.939
 20
297.837
 30
-6.61089e-14
  70
    32
  0
VERTEX
  8
0
  5
8A1D
 10
-157.939
 20
297.832
 30
-6.61083e-14
  70
    32
  0
VERTEX
  8
0
  5
8A1E
 10
-157.939
 20
297.827
 30
-6.61077e-14
  70
    32
  0
VERTEX
  8
0
  5
8A1F
 10
-157.939
 20
297.822
 30
-6.61071e-14
  70
    32
  0
VERTEX
  8
0
  5
8A20
 10
-157.939
 20
297.817
 30
-6.61065e-14
  70
    32
  0
VERTEX
  8
0
  5
8A21
 10
-157.938
 20
297.812
 30
-6.61060e-14
  70
    32
  0
VERTEX
  8
0
  5
8A22
 10
-157.938
 20
297.807
 30
-6.61055e-14
  70
    32
  0
VERTEX
  8
0
  5
8A23
 10
-157.938
 20
297.802
 30
-6.61051e-14
  70
    32
  0
VERTEX
  8
0
  5
8A24
 10
-157.938
 20
297.796
 30
-6.61046e-14
  70
    32
  0
VERTEX
  8
0
  5
8A25
 10
-157.938
 20
297.791
 30
-6.61042e-14
  70
    32
  0
VERTEX
  8
0
  5
8A26
 10
-157.938
 20
297.786
 30
-6.61038e-14
  70
    32
  0
VERTEX
  8
0
  5
8A27
 10
-157.938
 20
297.781
 30
-6.61035e-14
  70
    32
  0
VERTEX
  8
0
  5
8A28
 10
-157.938
 20
297.775
 30
-6.61031e-14
  70
    32
  0
VERTEX
  8
0
  5
8A29
 10
-157.938
 20
297.770
 30
-6.61028e-14
  70
    32
  0
VERTEX
  8
0
  5
8A2A
 10
-157.938
 20
297.765
 30
-6.61025e-14
  70
    32
  0
VERTEX
  8
0
  5
8A2B
 10
-157.938
 20
297.760
 30
-6.61022e-14
  70
    32
  0
VERTEX
  8
0
  5
8A2C
 10
-157.938
 20
297.754
 30
-6.61020e-14
  70
    32
  0
VERTEX
  8
0
  5
8A2D
 10
-157.938
 20
297.749
 30
-6.61017e-14
  70
    32
  0
VERTEX
  8
0
  5
8A2E
 10
-157.937
 20
297.744
 30
-6.61015e-14
  70
    32
  0
VERTEX
  8
0
  5
8A2F
 10
-157.937
 20
297.738
 30
-6.61013e-14
  70
    32
  0
VERTEX
  8
0
  5
8A30
 10
-157.937
 20
297.733
 30
-6.61012e-14
  70
    32
  0
VERTEX
  8
0
  5
8A31
 10
-157.937
 20
297.728
 30
-6.61010e-14
  70
    32
  0
VERTEX
  8
0
  5
8A32
 10
-157.937
 20
297.722
 30
-6.61009e-14
  70
    32
  0
VERTEX
  8
0
  5
8A33
 10
-157.937
 20
297.717
 30
-6.61007e-14
  70
    32
  0
VERTEX
  8
0
  5
8A34
 10
-157.937
 20
297.712
 30
-6.61006e-14
  70
    32
  0
VERTEX
  8
0
  5
8A35
 10
-157.937
 20
297.706
 30
-6.61005e-14
  70
    32
  0
VERTEX
  8
0
  5
8A36
 10
-157.937
 20
297.701
 30
-6.61004e-14
  70
    32
  0
VERTEX
  8
0
  5
8A37
 10
-157.937
 20
297.695
 30
-6.61003e-14
  70
    32
  0
VERTEX
  8
0
  5
8A38
 10
-157.937
 20
297.690
 30
-6.61003e-14
  70
    32
  0
VERTEX
  8
0
  5
8A39
 10
-157.937
 20
297.685
 30
-6.61002e-14
  70
    32
  0
VERTEX
  8
0
  5
8A3A
 10
-157.937
 20
297.679
 30
-6.61002e-14
  70
    32
  0
VERTEX
  8
0
  5
8A3B
 10
-157.936
 20
297.674
 30
-6.61001e-14
  70
    32
  0
VERTEX
  8
0
  5
8A3C
 10
-157.936
 20
297.668
 30
-6.61001e-14
  70
    32
  0
VERTEX
  8
0
  5
8A3D
 10
-157.936
 20
297.663
 30
-6.61001e-14
  70
    32
  0
VERTEX
  8
0
  5
8A3E
 10
-157.936
 20
297.657
 30
-6.61000e-14
  70
    32
  0
VERTEX
  8
0
  5
8A3F
 10
-157.936
 20
297.652
 30
-6.61000e-14
  70
    32
  0
VERTEX
  8
0
  5
8A40
 10
-157.936
 20
297.646
 30
-6.61000e-14
  70
    32
  0
VERTEX
  8
0
  5
8A41
 10
-157.936
 20
297.641
 30
-6.61000e-14
  70
    32
  0
VERTEX
  8
0
  5
8A42
 10
-157.936
 20
297.635
 30
-6.61000e-14
  70
    32
  0
VERTEX
  8
0
  5
8A43
 10
-157.936
 20
297.630
 30
-6.61000e-14
  70
    32
  0
VERTEX
  8
0
  5
8A44
 10
-157.936
 20
297.624
 30
-6.61000e-14
  70
    32
  0
VERTEX
  8
0
  5
8A45
 10
-157.936
 20
297.619
 30
-6.61000e-14
  70
    32
  0
VERTEX
  8
0
  5
8A46
 10
-157.936
 20
297.613
 30
-6.60999e-14
  70
    32
  0
VERTEX
  8
0
  5
8A47
 10
-157.936
 20
297.607
 30
-6.60996e-14
  70
    32
  0
VERTEX
  8
0
  5
8A48
 10
-157.935
 20
297.602
 30
-6.60993e-14
  70
    32
  0
VERTEX
  8
0
  5
8A49
 10
-157.935
 20
297.596
 30
-6.60989e-14
  70
    32
  0
VERTEX
  8
0
  5
8A4A
 10
-157.935
 20
297.590
 30
-6.60983e-14
  70
    32
  0
VERTEX
  8
0
  5
8A4B
 10
-157.935
 20
297.585
 30
-6.60977e-14
  70
    32
  0
VERTEX
  8
0
  5
8A4C
 10
-157.935
 20
297.579
 30
-6.60969e-14
  70
    32
  0
VERTEX
  8
0
  5
8A4D
 10
-157.935
 20
297.573
 30
-6.60961e-14
  70
    32
  0
VERTEX
  8
0
  5
8A4E
 10
-157.935
 20
297.568
 30
-6.60951e-14
  70
    32
  0
VERTEX
  8
0
  5
8A4F
 10
-157.935
 20
297.562
 30
-6.60941e-14
  70
    32
  0
VERTEX
  8
0
  5
8A50
 10
-157.935
 20
297.556
 30
-6.60929e-14
  70
    32
  0
VERTEX
  8
0
  5
8A51
 10
-157.935
 20
297.550
 30
-6.60917e-14
  70
    32
  0
VERTEX
  8
0
  5
8A52
 10
-157.935
 20
297.544
 30
-6.60904e-14
  70
    32
  0
VERTEX
  8
0
  5
8A53
 10
-157.935
 20
297.539
 30
-6.60890e-14
  70
    32
  0
VERTEX
  8
0
  5
8A54
 10
-157.935
 20
297.533
 30
-6.60876e-14
  70
    32
  0
VERTEX
  8
0
  5
8A55
 10
-157.935
 20
297.527
 30
-6.60860e-14
  70
    32
  0
VERTEX
  8
0
  5
8A56
 10
-157.934
 20
297.521
 30
-6.60844e-14
  70
    32
  0
VERTEX
  8
0
  5
8A57
 10
-157.934
 20
297.515
 30
-6.60827e-14
  70
    32
  0
VERTEX
  8
0
  5
8A58
 10
-157.934
 20
297.509
 30
-6.60809e-14
  70
    32
  0
VERTEX
  8
0
  5
8A59
 10
-157.934
 20
297.503
 30
-6.60791e-14
  70
    32
  0
VERTEX
  8
0
  5
8A5A
 10
-157.934
 20
297.497
 30
-6.60772e-14
  70
    32
  0
VERTEX
  8
0
  5
8A5B
 10
-157.934
 20
297.491
 30
-6.60752e-14
  70
    32
  0
VERTEX
  8
0
  5
8A5C
 10
-157.934
 20
297.485
 30
-6.60732e-14
  70
    32
  0
VERTEX
  8
0
  5
8A5D
 10
-157.934
 20
297.479
 30
-6.60711e-14
  70
    32
  0
VERTEX
  8
0
  5
8A5E
 10
-157.934
 20
297.473
 30
-6.60689e-14
  70
    32
  0
VERTEX
  8
0
  5
8A5F
 10
-157.934
 20
297.467
 30
-6.60667e-14
  70
    32
  0
VERTEX
  8
0
  5
8A60
 10
-157.934
 20
297.461
 30
-6.60645e-14
  70
    32
  0
VERTEX
  8
0
  5
8A61
 10
-157.934
 20
297.455
 30
-6.60622e-14
  70
    32
  0
VERTEX
  8
0
  5
8A62
 10
-157.934
 20
297.449
 30
-6.60598e-14
  70
    32
  0
VERTEX
  8
0
  5
8A63
 10
-157.933
 20
297.443
 30
-6.60574e-14
  70
    32
  0
VERTEX
  8
0
  5
8A64
 10
-157.933
 20
297.437
 30
-6.60550e-14
  70
    32
  0
VERTEX
  8
0
  5
8A65
 10
-157.933
 20
297.430
 30
-6.60525e-14
  70
    32
  0
VERTEX
  8
0
  5
8A66
 10
-157.933
 20
297.424
 30
-6.60500e-14
  70
    32
  0
VERTEX
  8
0
  5
8A67
 10
-157.933
 20
297.418
 30
-6.60475e-14
  70
    32
  0
VERTEX
  8
0
  5
8A68
 10
-157.933
 20
297.412
 30
-6.60449e-14
  70
    32
  0
VERTEX
  8
0
  5
8A69
 10
-157.933
 20
297.406
 30
-6.60423e-14
  70
    32
  0
VERTEX
  8
0
  5
8A6A
 10
-157.933
 20
297.399
 30
-6.60396e-14
  70
    32
  0
VERTEX
  8
0
  5
8A6B
 10
-157.933
 20
297.393
 30
-6.60370e-14
  70
    32
  0
VERTEX
  8
0
  5
8A6C
 10
-157.933
 20
297.387
 30
-6.60343e-14
  70
    32
  0
VERTEX
  8
0
  5
8A6D
 10
-157.933
 20
297.380
 30
-6.60316e-14
  70
    32
  0
VERTEX
  8
0
  5
8A6E
 10
-157.933
 20
297.374
 30
-6.60289e-14
  70
    32
  0
VERTEX
  8
0
  5
8A6F
 10
-157.933
 20
297.368
 30
-6.60261e-14
  70
    32
  0
VERTEX
  8
0
  5
8A70
 10
-157.932
 20
297.361
 30
-6.60234e-14
  70
    32
  0
VERTEX
  8
0
  5
8A71
 10
-157.932
 20
297.355
 30
-6.60206e-14
  70
    32
  0
VERTEX
  8
0
  5
8A72
 10
-157.932
 20
297.349
 30
-6.60178e-14
  70
    32
  0
VERTEX
  8
0
  5
8A73
 10
-157.932
 20
297.342
 30
-6.60151e-14
  70
    32
  0
VERTEX
  8
0
  5
8A74
 10
-157.932
 20
297.336
 30
-6.60123e-14
  70
    32
  0
VERTEX
  8
0
  5
8A75
 10
-157.932
 20
297.329
 30
-6.60095e-14
  70
    32
  0
VERTEX
  8
0
  5
8A76
 10
-157.932
 20
297.323
 30
-6.60067e-14
  70
    32
  0
VERTEX
  8
0
  5
8A77
 10
-157.932
 20
297.316
 30
-6.60039e-14
  70
    32
  0
VERTEX
  8
0
  5
8A78
 10
-157.932
 20
297.310
 30
-6.60012e-14
  70
    32
  0
VERTEX
  8
0
  5
8A79
 10
-157.932
 20
297.303
 30
-6.59984e-14
  70
    32
  0
VERTEX
  8
0
  5
8A7A
 10
-157.932
 20
297.297
 30
-6.59956e-14
  70
    32
  0
VERTEX
  8
0
  5
8A7B
 10
-157.932
 20
297.290
 30
-6.59929e-14
  70
    32
  0
VERTEX
  8
0
  5
8A7C
 10
-157.932
 20
297.284
 30
-6.59902e-14
  70
    32
  0
VERTEX
  8
0
  5
8A7D
 10
-157.932
 20
297.277
 30
-6.59875e-14
  70
    32
  0
VERTEX
  8
0
  5
8A7E
 10
-157.931
 20
297.271
 30
-6.59848e-14
  70
    32
  0
VERTEX
  8
0
  5
8A7F
 10
-157.931
 20
297.264
 30
-6.59821e-14
  70
    32
  0
VERTEX
  8
0
  5
8A80
 10
-157.931
 20
297.257
 30
-6.59795e-14
  70
    32
  0
VERTEX
  8
0
  5
8A81
 10
-157.931
 20
297.251
 30
-6.59769e-14
  70
    32
  0
VERTEX
  8
0
  5
8A82
 10
-157.931
 20
297.244
 30
-6.59743e-14
  70
    32
  0
VERTEX
  8
0
  5
8A83
 10
-157.931
 20
297.237
 30
-6.59718e-14
  70
    32
  0
VERTEX
  8
0
  5
8A84
 10
-157.931
 20
297.231
 30
-6.59693e-14
  70
    32
  0
VERTEX
  8
0
  5
8A85
 10
-157.931
 20
297.224
 30
-6.59668e-14
  70
    32
  0
VERTEX
  8
0
  5
8A86
 10
-157.931
 20
297.217
 30
-6.59644e-14
  70
    32
  0
VERTEX
  8
0
  5
8A87
 10
-157.931
 20
297.210
 30
-6.59620e-14
  70
    32
  0
VERTEX
  8
0
  5
8A88
 10
-157.931
 20
297.204
 30
-6.59597e-14
  70
    32
  0
VERTEX
  8
0
  5
8A89
 10
-157.931
 20
297.197
 30
-6.59574e-14
  70
    32
  0
VERTEX
  8
0
  5
8A8A
 10
-157.931
 20
297.190
 30
-6.59551e-14
  70
    32
  0
VERTEX
  8
0
  5
8A8B
 10
-157.930
 20
297.183
 30
-6.59529e-14
  70
    32
  0
VERTEX
  8
0
  5
8A8C
 10
-157.930
 20
297.176
 30
-6.59508e-14
  70
    32
  0
VERTEX
  8
0
  5
8A8D
 10
-157.930
 20
297.170
 30
-6.59487e-14
  70
    32
  0
VERTEX
  8
0
  5
8A8E
 10
-157.930
 20
297.163
 30
-6.59467e-14
  70
    32
  0
VERTEX
  8
0
  5
8A8F
 10
-157.930
 20
297.156
 30
-6.59447e-14
  70
    32
  0
VERTEX
  8
0
  5
8A90
 10
-157.930
 20
297.149
 30
-6.59428e-14
  70
    32
  0
VERTEX
  8
0
  5
8A91
 10
-157.930
 20
297.142
 30
-6.59409e-14
  70
    32
  0
VERTEX
  8
0
  5
8A92
 10
-157.930
 20
297.135
 30
-6.59391e-14
  70
    32
  0
VERTEX
  8
0
  5
8A93
 10
-157.930
 20
297.128
 30
-6.59374e-14
  70
    32
  0
VERTEX
  8
0
  5
8A94
 10
-157.930
 20
297.121
 30
-6.59357e-14
  70
    32
  0
VERTEX
  8
0
  5
8A95
 10
-157.930
 20
297.114
 30
-6.59340e-14
  70
    32
  0
VERTEX
  8
0
  5
8A96
 10
-157.930
 20
297.107
 30
-6.59324e-14
  70
    32
  0
VERTEX
  8
0
  5
8A97
 10
-157.930
 20
297.100
 30
-6.59308e-14
  70
    32
  0
VERTEX
  8
0
  5
8A98
 10
-157.930
 20
297.093
 30
-6.59292e-14
  70
    32
  0
VERTEX
  8
0
  5
8A99
 10
-157.929
 20
297.086
 30
-6.59277e-14
  70
    32
  0
VERTEX
  8
0
  5
8A9A
 10
-157.929
 20
297.079
 30
-6.59263e-14
  70
    32
  0
VERTEX
  8
0
  5
8A9B
 10
-157.929
 20
297.072
 30
-6.59248e-14
  70
    32
  0
VERTEX
  8
0
  5
8A9C
 10
-157.929
 20
297.065
 30
-6.59235e-14
  70
    32
  0
VERTEX
  8
0
  5
8A9D
 10
-157.929
 20
297.058
 30
-6.59221e-14
  70
    32
  0
VERTEX
  8
0
  5
8A9E
 10
-157.929
 20
297.051
 30
-6.59208e-14
  70
    32
  0
VERTEX
  8
0
  5
8A9F
 10
-157.929
 20
297.044
 30
-6.59195e-14
  70
    32
  0
VERTEX
  8
0
  5
8AA0
 10
-157.929
 20
297.037
 30
-6.59182e-14
  70
    32
  0
VERTEX
  8
0
  5
8AA1
 10
-157.929
 20
297.030
 30
-6.59169e-14
  70
    32
  0
VERTEX
  8
0
  5
8AA2
 10
-157.929
 20
297.023
 30
-6.59157e-14
  70
    32
  0
VERTEX
  8
0
  5
8AA3
 10
-157.929
 20
297.015
 30
-6.59145e-14
  70
    32
  0
VERTEX
  8
0
  5
8AA4
 10
-157.929
 20
297.008
 30
-6.59134e-14
  70
    32
  0
VERTEX
  8
0
  5
8AA5
 10
-157.929
 20
297.001
 30
-6.59122e-14
  70
    32
  0
VERTEX
  8
0
  5
8AA6
 10
-157.929
 20
296.994
 30
-6.59111e-14
  70
    32
  0
VERTEX
  8
0
  5
8AA7
 10
-157.929
 20
296.987
 30
-6.59099e-14
  70
    32
  0
VERTEX
  8
0
  5
8AA8
 10
-157.928
 20
296.979
 30
-6.59088e-14
  70
    32
  0
VERTEX
  8
0
  5
8AA9
 10
-157.928
 20
296.972
 30
-6.59077e-14
  70
    32
  0
VERTEX
  8
0
  5
8AAA
 10
-157.928
 20
296.965
 30
-6.59067e-14
  70
    32
  0
VERTEX
  8
0
  5
8AAB
 10
-157.928
 20
296.958
 30
-6.59056e-14
  70
    32
  0
VERTEX
  8
0
  5
8AAC
 10
-157.928
 20
296.950
 30
-6.59045e-14
  70
    32
  0
VERTEX
  8
0
  5
8AAD
 10
-157.928
 20
296.943
 30
-6.59035e-14
  70
    32
  0
VERTEX
  8
0
  5
8AAE
 10
-157.928
 20
296.936
 30
-6.59024e-14
  70
    32
  0
VERTEX
  8
0
  5
8AAF
 10
-157.928
 20
296.928
 30
-6.59014e-14
  70
    32
  0
VERTEX
  8
0
  5
8AB0
 10
-157.928
 20
296.921
 30
-6.59003e-14
  70
    32
  0
VERTEX
  8
0
  5
8AB1
 10
-157.928
 20
296.914
 30
-6.58993e-14
  70
    32
  0
VERTEX
  8
0
  5
8AB2
 10
-157.928
 20
296.906
 30
-6.58982e-14
  70
    32
  0
VERTEX
  8
0
  5
8AB3
 10
-157.928
 20
296.899
 30
-6.58972e-14
  70
    32
  0
VERTEX
  8
0
  5
8AB4
 10
-157.928
 20
296.892
 30
-6.58961e-14
  70
    32
  0
VERTEX
  8
0
  5
8AB5
 10
-157.928
 20
296.884
 30
-6.58951e-14
  70
    32
  0
VERTEX
  8
0
  5
8AB6
 10
-157.928
 20
296.877
 30
-6.58940e-14
  70
    32
  0
VERTEX
  8
0
  5
8AB7
 10
-157.927
 20
296.869
 30
-6.58929e-14
  70
    32
  0
VERTEX
  8
0
  5
8AB8
 10
-157.927
 20
296.862
 30
-6.58919e-14
  70
    32
  0
VERTEX
  8
0
  5
8AB9
 10
-157.927
 20
296.855
 30
-6.58908e-14
  70
    32
  0
VERTEX
  8
0
  5
8ABA
 10
-157.927
 20
296.847
 30
-6.58896e-14
  70
    32
  0
VERTEX
  8
0
  5
8ABB
 10
-157.927
 20
296.840
 30
-6.58885e-14
  70
    32
  0
VERTEX
  8
0
  5
8ABC
 10
-157.927
 20
296.832
 30
-6.58874e-14
  70
    32
  0
VERTEX
  8
0
  5
8ABD
 10
-157.927
 20
296.825
 30
-6.58862e-14
  70
    32
  0
VERTEX
  8
0
  5
8ABE
 10
-157.927
 20
296.817
 30
-6.58850e-14
  70
    32
  0
VERTEX
  8
0
  5
8ABF
 10
-157.927
 20
296.810
 30
-6.58838e-14
  70
    32
  0
VERTEX
  8
0
  5
8AC0
 10
-157.927
 20
296.802
 30
-6.58826e-14
  70
    32
  0
VERTEX
  8
0
  5
8AC1
 10
-157.927
 20
296.795
 30
-6.58813e-14
  70
    32
  0
VERTEX
  8
0
  5
8AC2
 10
-157.927
 20
296.787
 30
-6.58801e-14
  70
    32
  0
VERTEX
  8
0
  5
8AC3
 10
-157.927
 20
296.780
 30
-6.58787e-14
  70
    32
  0
VERTEX
  8
0
  5
8AC4
 10
-157.927
 20
296.772
 30
-6.58774e-14
  70
    32
  0
VERTEX
  8
0
  5
8AC5
 10
-157.927
 20
296.765
 30
-6.58760e-14
  70
    32
  0
VERTEX
  8
0
  5
8AC6
 10
-157.927
 20
296.757
 30
-6.58746e-14
  70
    32
  0
VERTEX
  8
0
  5
8AC7
 10
-157.926
 20
296.749
 30
-6.58732e-14
  70
    32
  0
VERTEX
  8
0
  5
8AC8
 10
-157.926
 20
296.742
 30
-6.58717e-14
  70
    32
  0
VERTEX
  8
0
  5
8AC9
 10
-157.926
 20
296.734
 30
-6.58702e-14
  70
    32
  0
VERTEX
  8
0
  5
8ACA
 10
-157.926
 20
296.727
 30
-6.58686e-14
  70
    32
  0
VERTEX
  8
0
  5
8ACB
 10
-157.926
 20
296.719
 30
-6.58670e-14
  70
    32
  0
VERTEX
  8
0
  5
8ACC
 10
-157.926
 20
296.711
 30
-6.58654e-14
  70
    32
  0
VERTEX
  8
0
  5
8ACD
 10
-157.926
 20
296.704
 30
-6.58637e-14
  70
    32
  0
VERTEX
  8
0
  5
8ACE
 10
-157.926
 20
296.696
 30
-6.58620e-14
  70
    32
  0
VERTEX
  8
0
  5
8ACF
 10
-157.926
 20
296.688
 30
-6.58602e-14
  70
    32
  0
VERTEX
  8
0
  5
8AD0
 10
-157.926
 20
296.681
 30
-6.58584e-14
  70
    32
  0
VERTEX
  8
0
  5
8AD1
 10
-157.926
 20
296.673
 30
-6.58565e-14
  70
    32
  0
VERTEX
  8
0
  5
8AD2
 10
-157.926
 20
296.665
 30
-6.58546e-14
  70
    32
  0
VERTEX
  8
0
  5
8AD3
 10
-157.926
 20
296.658
 30
-6.58526e-14
  70
    32
  0
VERTEX
  8
0
  5
8AD4
 10
-157.926
 20
296.650
 30
-6.58505e-14
  70
    32
  0
VERTEX
  8
0
  5
8AD5
 10
-157.926
 20
296.642
 30
-6.58485e-14
  70
    32
  0
VERTEX
  8
0
  5
8AD6
 10
-157.926
 20
296.635
 30
-6.58464e-14
  70
    32
  0
VERTEX
  8
0
  5
8AD7
 10
-157.926
 20
296.627
 30
-6.58445e-14
  70
    32
  0
VERTEX
  8
0
  5
8AD8
 10
-157.925
 20
296.619
 30
-6.58426e-14
  70
    32
  0
VERTEX
  8
0
  5
8AD9
 10
-157.925
 20
296.611
 30
-6.58407e-14
  70
    32
  0
VERTEX
  8
0
  5
8ADA
 10
-157.925
 20
296.604
 30
-6.58389e-14
  70
    32
  0
VERTEX
  8
0
  5
8ADB
 10
-157.925
 20
296.596
 30
-6.58372e-14
  70
    32
  0
VERTEX
  8
0
  5
8ADC
 10
-157.925
 20
296.588
 30
-6.58354e-14
  70
    32
  0
VERTEX
  8
0
  5
8ADD
 10
-157.925
 20
296.580
 30
-6.58338e-14
  70
    32
  0
VERTEX
  8
0
  5
8ADE
 10
-157.925
 20
296.572
 30
-6.58322e-14
  70
    32
  0
VERTEX
  8
0
  5
8ADF
 10
-157.925
 20
296.565
 30
-6.58306e-14
  70
    32
  0
VERTEX
  8
0
  5
8AE0
 10
-157.925
 20
296.557
 30
-6.58291e-14
  70
    32
  0
VERTEX
  8
0
  5
8AE1
 10
-157.925
 20
296.549
 30
-6.58276e-14
  70
    32
  0
VERTEX
  8
0
  5
8AE2
 10
-157.925
 20
296.541
 30
-6.58261e-14
  70
    32
  0
VERTEX
  8
0
  5
8AE3
 10
-157.925
 20
296.533
 30
-6.58247e-14
  70
    32
  0
VERTEX
  8
0
  5
8AE4
 10
-157.925
 20
296.526
 30
-6.58233e-14
  70
    32
  0
VERTEX
  8
0
  5
8AE5
 10
-157.925
 20
296.518
 30
-6.58219e-14
  70
    32
  0
VERTEX
  8
0
  5
8AE6
 10
-157.925
 20
296.510
 30
-6.58206e-14
  70
    32
  0
VERTEX
  8
0
  5
8AE7
 10
-157.925
 20
296.502
 30
-6.58193e-14
  70
    32
  0
VERTEX
  8
0
  5
8AE8
 10
-157.925
 20
296.494
 30
-6.58180e-14
  70
    32
  0
VERTEX
  8
0
  5
8AE9
 10
-157.925
 20
296.486
 30
-6.58168e-14
  70
    32
  0
VERTEX
  8
0
  5
8AEA
 10
-157.925
 20
296.478
 30
-6.58156e-14
  70
    32
  0
VERTEX
  8
0
  5
8AEB
 10
-157.924
 20
296.470
 30
-6.58144e-14
  70
    32
  0
VERTEX
  8
0
  5
8AEC
 10
-157.924
 20
296.463
 30
-6.58132e-14
  70
    32
  0
VERTEX
  8
0
  5
8AED
 10
-157.924
 20
296.455
 30
-6.58121e-14
  70
    32
  0
VERTEX
  8
0
  5
8AEE
 10
-157.924
 20
296.447
 30
-6.58109e-14
  70
    32
  0
VERTEX
  8
0
  5
8AEF
 10
-157.924
 20
296.439
 30
-6.58098e-14
  70
    32
  0
VERTEX
  8
0
  5
8AF0
 10
-157.924
 20
296.431
 30
-6.58087e-14
  70
    32
  0
VERTEX
  8
0
  5
8AF1
 10
-157.924
 20
296.423
 30
-6.58076e-14
  70
    32
  0
VERTEX
  8
0
  5
8AF2
 10
-157.924
 20
296.415
 30
-6.58065e-14
  70
    32
  0
VERTEX
  8
0
  5
8AF3
 10
-157.924
 20
296.407
 30
-6.58055e-14
  70
    32
  0
VERTEX
  8
0
  5
8AF4
 10
-157.924
 20
296.399
 30
-6.58044e-14
  70
    32
  0
VERTEX
  8
0
  5
8AF5
 10
-157.924
 20
296.391
 30
-6.58033e-14
  70
    32
  0
VERTEX
  8
0
  5
8AF6
 10
-157.924
 20
296.383
 30
-6.58023e-14
  70
    32
  0
VERTEX
  8
0
  5
8AF7
 10
-157.924
 20
296.375
 30
-6.58012e-14
  70
    32
  0
VERTEX
  8
0
  5
8AF8
 10
-157.924
 20
296.367
 30
-6.58002e-14
  70
    32
  0
VERTEX
  8
0
  5
8AF9
 10
-157.924
 20
296.359
 30
-6.57992e-14
  70
    32
  0
VERTEX
  8
0
  5
8AFA
 10
-157.924
 20
296.351
 30
-6.57981e-14
  70
    32
  0
VERTEX
  8
0
  5
8AFB
 10
-157.924
 20
296.343
 30
-6.57971e-14
  70
    32
  0
VERTEX
  8
0
  5
8AFC
 10
-157.924
 20
296.335
 30
-6.57960e-14
  70
    32
  0
VERTEX
  8
0
  5
8AFD
 10
-157.924
 20
296.327
 30
-6.57949e-14
  70
    32
  0
VERTEX
  8
0
  5
8AFE
 10
-157.924
 20
296.319
 30
-6.57939e-14
  70
    32
  0
VERTEX
  8
0
  5
8AFF
 10
-157.924
 20
296.311
 30
-6.57928e-14
  70
    32
  0
VERTEX
  8
0
  5
8B00
 10
-157.924
 20
296.303
 30
-6.57917e-14
  70
    32
  0
VERTEX
  8
0
  5
8B01
 10
-157.924
 20
296.295
 30
-6.57906e-14
  70
    32
  0
VERTEX
  8
0
  5
8B02
 10
-157.923
 20
296.287
 30
-6.57895e-14
  70
    32
  0
VERTEX
  8
0
  5
8B03
 10
-157.923
 20
296.279
 30
-6.57884e-14
  70
    32
  0
VERTEX
  8
0
  5
8B04
 10
-157.923
 20
296.271
 30
-6.57872e-14
  70
    32
  0
VERTEX
  8
0
  5
8B05
 10
-157.923
 20
296.263
 30
-6.57861e-14
  70
    32
  0
VERTEX
  8
0
  5
8B06
 10
-157.923
 20
296.255
 30
-6.57849e-14
  70
    32
  0
VERTEX
  8
0
  5
8B07
 10
-157.923
 20
296.247
 30
-6.57837e-14
  70
    32
  0
VERTEX
  8
0
  5
8B08
 10
-157.923
 20
296.239
 30
-6.57824e-14
  70
    32
  0
VERTEX
  8
0
  5
8B09
 10
-157.923
 20
296.231
 30
-6.57812e-14
  70
    32
  0
VERTEX
  8
0
  5
8B0A
 10
-157.923
 20
296.223
 30
-6.57799e-14
  70
    32
  0
VERTEX
  8
0
  5
8B0B
 10
-157.923
 20
296.215
 30
-6.57786e-14
  70
    32
  0
VERTEX
  8
0
  5
8B0C
 10
-157.923
 20
296.207
 30
-6.57772e-14
  70
    32
  0
VERTEX
  8
0
  5
8B0D
 10
-157.923
 20
296.199
 30
-6.57759e-14
  70
    32
  0
VERTEX
  8
0
  5
8B0E
 10
-157.923
 20
296.191
 30
-6.57744e-14
  70
    32
  0
VERTEX
  8
0
  5
8B0F
 10
-157.923
 20
296.183
 30
-6.57730e-14
  70
    32
  0
VERTEX
  8
0
  5
8B10
 10
-157.923
 20
296.175
 30
-6.57715e-14
  70
    32
  0
VERTEX
  8
0
  5
8B11
 10
-157.923
 20
296.167
 30
-6.57700e-14
  70
    32
  0
VERTEX
  8
0
  5
8B12
 10
-157.923
 20
296.159
 30
-6.57684e-14
  70
    32
  0
VERTEX
  8
0
  5
8B13
 10
-157.923
 20
296.151
 30
-6.57668e-14
  70
    32
  0
VERTEX
  8
0
  5
8B14
 10
-157.923
 20
296.143
 30
-6.57652e-14
  70
    32
  0
VERTEX
  8
0
  5
8B15
 10
-157.923
 20
296.134
 30
-6.57635e-14
  70
    32
  0
VERTEX
  8
0
  5
8B16
 10
-157.923
 20
296.126
 30
-6.57618e-14
  70
    32
  0
VERTEX
  8
0
  5
8B17
 10
-157.923
 20
296.118
 30
-6.57600e-14
  70
    32
  0
VERTEX
  8
0
  5
8B18
 10
-157.923
 20
296.110
 30
-6.57581e-14
  70
    32
  0
VERTEX
  8
0
  5
8B19
 10
-157.923
 20
296.102
 30
-6.57562e-14
  70
    32
  0
VERTEX
  8
0
  5
8B1A
 10
-157.923
 20
296.094
 30
-6.57543e-14
  70
    32
  0
VERTEX
  8
0
  5
8B1B
 10
-157.923
 20
296.086
 30
-6.57523e-14
  70
    32
  0
VERTEX
  8
0
  5
8B1C
 10
-157.923
 20
296.078
 30
-6.57503e-14
  70
    32
  0
VERTEX
  8
0
  5
8B1D
 10
-157.923
 20
296.070
 30
-6.57482e-14
  70
    32
  0
VERTEX
  8
0
  5
8B1E
 10
-157.923
 20
296.062
 30
-6.57462e-14
  70
    32
  0
VERTEX
  8
0
  5
8B1F
 10
-157.922
 20
296.054
 30
-6.57442e-14
  70
    32
  0
VERTEX
  8
0
  5
8B20
 10
-157.922
 20
296.046
 30
-6.57423e-14
  70
    32
  0
VERTEX
  8
0
  5
8B21
 10
-157.922
 20
296.037
 30
-6.57405e-14
  70
    32
  0
VERTEX
  8
0
  5
8B22
 10
-157.922
 20
296.029
 30
-6.57387e-14
  70
    32
  0
VERTEX
  8
0
  5
8B23
 10
-157.922
 20
296.021
 30
-6.57369e-14
  70
    32
  0
VERTEX
  8
0
  5
8B24
 10
-157.922
 20
296.013
 30
-6.57352e-14
  70
    32
  0
VERTEX
  8
0
  5
8B25
 10
-157.922
 20
296.005
 30
-6.57335e-14
  70
    32
  0
VERTEX
  8
0
  5
8B26
 10
-157.922
 20
295.997
 30
-6.57318e-14
  70
    32
  0
VERTEX
  8
0
  5
8B27
 10
-157.922
 20
295.989
 30
-6.57302e-14
  70
    32
  0
VERTEX
  8
0
  5
8B28
 10
-157.922
 20
295.981
 30
-6.57286e-14
  70
    32
  0
VERTEX
  8
0
  5
8B29
 10
-157.922
 20
295.973
 30
-6.57271e-14
  70
    32
  0
VERTEX
  8
0
  5
8B2A
 10
-157.922
 20
295.965
 30
-6.57256e-14
  70
    32
  0
VERTEX
  8
0
  5
8B2B
 10
-157.922
 20
295.957
 30
-6.57241e-14
  70
    32
  0
VERTEX
  8
0
  5
8B2C
 10
-157.922
 20
295.948
 30
-6.57226e-14
  70
    32
  0
VERTEX
  8
0
  5
8B2D
 10
-157.922
 20
295.940
 30
-6.57211e-14
  70
    32
  0
VERTEX
  8
0
  5
8B2E
 10
-157.922
 20
295.932
 30
-6.57197e-14
  70
    32
  0
VERTEX
  8
0
  5
8B2F
 10
-157.922
 20
295.924
 30
-6.57182e-14
  70
    32
  0
VERTEX
  8
0
  5
8B30
 10
-157.922
 20
295.916
 30
-6.57168e-14
  70
    32
  0
VERTEX
  8
0
  5
8B31
 10
-157.922
 20
295.908
 30
-6.57154e-14
  70
    32
  0
VERTEX
  8
0
  5
8B32
 10
-157.922
 20
295.900
 30
-6.57140e-14
  70
    32
  0
VERTEX
  8
0
  5
8B33
 10
-157.922
 20
295.892
 30
-6.57126e-14
  70
    32
  0
VERTEX
  8
0
  5
8B34
 10
-157.922
 20
295.884
 30
-6.57112e-14
  70
    32
  0
VERTEX
  8
0
  5
8B35
 10
-157.922
 20
295.876
 30
-6.57098e-14
  70
    32
  0
VERTEX
  8
0
  5
8B36
 10
-157.922
 20
295.868
 30
-6.57084e-14
  70
    32
  0
VERTEX
  8
0
  5
8B37
 10
-157.922
 20
295.859
 30
-6.57070e-14
  70
    32
  0
VERTEX
  8
0
  5
8B38
 10
-157.922
 20
295.851
 30
-6.57056e-14
  70
    32
  0
VERTEX
  8
0
  5
8B39
 10
-157.922
 20
295.843
 30
-6.57042e-14
  70
    32
  0
VERTEX
  8
0
  5
8B3A
 10
-157.922
 20
295.835
 30
-6.57028e-14
  70
    32
  0
VERTEX
  8
0
  5
8B3B
 10
-157.922
 20
295.827
 30
-6.57014e-14
  70
    32
  0
VERTEX
  8
0
  5
8B3C
 10
-157.922
 20
295.819
 30
-6.56999e-14
  70
    32
  0
VERTEX
  8
0
  5
8B3D
 10
-157.922
 20
295.811
 30
-6.56984e-14
  70
    32
  0
VERTEX
  8
0
  5
8B3E
 10
-157.922
 20
295.803
 30
-6.56969e-14
  70
    32
  0
VERTEX
  8
0
  5
8B3F
 10
-157.922
 20
295.795
 30
-6.56954e-14
  70
    32
  0
VERTEX
  8
0
  5
8B40
 10
-157.922
 20
295.787
 30
-6.56938e-14
  70
    32
  0
VERTEX
  8
0
  5
8B41
 10
-157.922
 20
295.779
 30
-6.56923e-14
  70
    32
  0
VERTEX
  8
0
  5
8B42
 10
-157.922
 20
295.771
 30
-6.56907e-14
  70
    32
  0
VERTEX
  8
0
  5
8B43
 10
-157.922
 20
295.763
 30
-6.56890e-14
  70
    32
  0
VERTEX
  8
0
  5
8B44
 10
-157.922
 20
295.755
 30
-6.56873e-14
  70
    32
  0
VERTEX
  8
0
  5
8B45
 10
-157.922
 20
295.747
 30
-6.56856e-14
  70
    32
  0
VERTEX
  8
0
  5
8B46
 10
-157.922
 20
295.739
 30
-6.56839e-14
  70
    32
  0
VERTEX
  8
0
  5
8B47
 10
-157.922
 20
295.731
 30
-6.56821e-14
  70
    32
  0
VERTEX
  8
0
  5
8B48
 10
-157.922
 20
295.723
 30
-6.56802e-14
  70
    32
  0
VERTEX
  8
0
  5
8B49
 10
-157.922
 20
295.715
 30
-6.56783e-14
  70
    32
  0
VERTEX
  8
0
  5
8B4A
 10
-157.922
 20
295.707
 30
-6.56764e-14
  70
    32
  0
VERTEX
  8
0
  5
8B4B
 10
-157.922
 20
295.699
 30
-6.56744e-14
  70
    32
  0
VERTEX
  8
0
  5
8B4C
 10
-157.922
 20
295.691
 30
-6.56723e-14
  70
    32
  0
VERTEX
  8
0
  5
8B4D
 10
-157.922
 20
295.683
 30
-6.56702e-14
  70
    32
  0
VERTEX
  8
0
  5
8B4E
 10
-157.922
 20
295.675
 30
-6.56680e-14
  70
    32
  0
VERTEX
  8
0
  5
8B4F
 10
-157.922
 20
295.667
 30
-6.56658e-14
  70
    32
  0
VERTEX
  8
0
  5
8B50
 10
-157.922
 20
295.659
 30
-6.56635e-14
  70
    32
  0
VERTEX
  8
0
  5
8B51
 10
-157.922
 20
295.651
 30
-6.56611e-14
  70
    32
  0
VERTEX
  8
0
  5
8B52
 10
-157.922
 20
295.643
 30
-6.56587e-14
  70
    32
  0
VERTEX
  8
0
  5
8B53
 10
-157.922
 20
295.635
 30
-6.56562e-14
  70
    32
  0
VERTEX
  8
0
  5
8B54
 10
-157.922
 20
295.627
 30
-6.56536e-14
  70
    32
  0
VERTEX
  8
0
  5
8B55
 10
-157.922
 20
295.619
 30
-6.56509e-14
  70
    32
  0
VERTEX
  8
0
  5
8B56
 10
-157.922
 20
295.611
 30
-6.56482e-14
  70
    32
  0
VERTEX
  8
0
  5
8B57
 10
-157.922
 20
295.603
 30
-6.56453e-14
  70
    32
  0
VERTEX
  8
0
  5
8B58
 10
-157.922
 20
295.595
 30
-6.56424e-14
  70
    32
  0
VERTEX
  8
0
  5
8B59
 10
-157.922
 20
295.587
 30
-6.56394e-14
  70
    32
  0
VERTEX
  8
0
  5
8B5A
 10
-157.922
 20
295.579
 30
-6.56363e-14
  70
    32
  0
VERTEX
  8
0
  5
8B5B
 10
-157.922
 20
295.571
 30
-6.56332e-14
  70
    32
  0
VERTEX
  8
0
  5
8B5C
 10
-157.922
 20
295.563
 30
-6.56299e-14
  70
    32
  0
VERTEX
  8
0
  5
8B5D
 10
-157.922
 20
295.555
 30
-6.56265e-14
  70
    32
  0
VERTEX
  8
0
  5
8B5E
 10
-157.922
 20
295.547
 30
-6.56230e-14
  70
    32
  0
VERTEX
  8
0
  5
8B5F
 10
-157.922
 20
295.539
 30
-6.56195e-14
  70
    32
  0
VERTEX
  8
0
  5
8B60
 10
-157.922
 20
295.532
 30
-6.56158e-14
  70
    32
  0
VERTEX
  8
0
  5
8B61
 10
-157.922
 20
295.524
 30
-6.56120e-14
  70
    32
  0
VERTEX
  8
0
  5
8B62
 10
-157.922
 20
295.516
 30
-6.56081e-14
  70
    32
  0
VERTEX
  8
0
  5
8B63
 10
-157.922
 20
295.508
 30
-6.56041e-14
  70
    32
  0
VERTEX
  8
0
  5
8B64
 10
-157.922
 20
295.500
 30
-6.56000e-14
  70
    32
  0
SEQEND
  8
0
  5
8B65
  0
ARC
  5
7D66
  8
0
  6
VERDECKT2
 62
     1
 10
157.350000000000108
 20
290.7071067811862122
 30
0.0
 40
0.5000000000000853
210
0.0
220
-0.0000000000000002
230
-1.0
 50
180.0
 51
0.0
  0
ARC
  5
7D67
  8
0
  6
VERDECKT2
 62
     1
 10
157.350000000000108
 20
300.2928932188136173
 30
0.0
 40
0.5000000000001421
210
0.0
220
-0.0000000000000002
230
-1.0
 50
359.9999999999935199
 51
179.9999999999934914
  0
LINE
  5
7D68
  8
0
  6
VERDECKT2
 62
     1
 10
-157.9499999999993065
 20
298.4999999999998863
 30
-0.0000000000000663
 11
-157.850000000000307
 21
298.4999999999998863
 31
-0.0000000000000663
210
0.0
220
1.0
230
-0.0000000000000002
  0
LINE
  5
7D69
  8
0
  6
VERDECKT2
 62
     1
 10
-157.9499999999993065
 20
292.4999999999998863
 30
-0.0000000000000649
 11
-157.850000000000307
 21
292.4999999999998863
 31
-0.0000000000000649
210
0.0
220
1.0
230
-0.0000000000000002
  0
LINE
  5
7D6A
  8
0
  6
VERDECKT2
 62
     1
 10
157.9500000000003013
 20
308.0
 30
-0.0000000000000684
 11
157.9500000000003013
 21
139.9999999999998863
 31
-0.0000000000000311
210
0.0
220
1.0
230
-0.0000000000000002
  0
LINE
  5
7D6B
  8
0
  6
VERDECKT2
 62
     1
 10
-157.9499999999993065
 20
308.0
 30
-0.0000000000000684
 11
-157.9499999999993065
 21
298.4999999999998863
 31
-0.0000000000000663
210
0.0
220
1.0
230
-0.0000000000000002
  0
LINE
  5
7D6C
  8
0
  6
VERDECKT2
 62
     1
 10
-157.9499999999993065
 20
292.4999999999998863
 30
-0.0000000000000649
 11
-157.9499999999993065
 21
139.9999999999998863
 31
-0.0000000000000311
210
0.0
220
1.0
230
-0.0000000000000002
  0
LINE
  5
7D6D
  8
0
  6
VERDECKT2
 62
     1
 10
136.5000000000003979
 20
308.0
 30
-0.0000000000000684
 11
136.5000000000003979
 21
139.999999999999801
 31
-0.0000000000000311
210
0.0
220
1.0
230
-0.0000000000000002
  0
LINE
  5
7D6E
  8
0
  6
VERDECKT2
 62
     1
 10
-136.4999999999994884
 20
308.0
 30
-0.0000000000000684
 11
-136.4999999999994884
 21
139.999999999999801
 31
-0.0000000000000311
210
0.0
220
1.0
230
-0.0000000000000002
  0
LINE
  5
7D6F
  8
0
  6
VERDECKT2
 62
     1
 10
-136.500000000000199
 20
139.9999999999998863
 30
-0.0000000000000311
 11
-136.500000000000199
 21
312.0
 31
-0.0000000000000693
210
0.0
220
1.0
230
-0.0000000000000002
  0
LINE
  5
7D70
  8
0
  6
VERDECKT2
 62
     1
 10
136.500000000000199
 20
139.9999999999998863
 30
-0.0000000000000311
 11
136.500000000000199
 21
312.0
 31
-0.0000000000000693
210
0.0
220
1.0
230
-0.0000000000000002
  0
LINE
  5
7D71
  8
0
  6
VERDECKT2
 62
     1
 10
-132.500000000000199
 20
0.0
 30
0.0
 11
-132.500000000000199
 21
1060.0
 31
-0.0000000000002354
210
0.0
220
1.0
230
-0.0000000000000002
  0
LINE
  5
7D72
  8
0
  6
VERDECKT2
 62
     1
 10
132.500000000000199
 20
0.0
 30
0.0
 11
132.500000000000199
 21
1060.0
 31
-0.0000000000002354
210
0.0
220
1.0
230
-0.0000000000000002
  0
LINE
  5
7D73
  8
0
  6
VERDECKT2
 62
     1
 10
138.0
 20
312.0
 30
-0.0000000000000693
 11
138.0
 21
308.0
 31
-0.0000000000000684
210
0.0
220
1.0
230
-0.0000000000000002
  0
LINE
  5
7D74
  8
0
  6
VERDECKT2
 62
     1
 10
-138.0
 20
312.0000000000001137
 30
-0.0000000000000693
 11
-138.0
 21
308.0
 31
-0.0000000000000684
210
0.0
220
1.0
230
-0.0000000000000002
  0
LINE
  5
7D75
  8
0
  6
VERDECKT2
 62
     1
 10
162.5000000000003979
 20
233.9999999999990052
 30
-0.000000000000052
 11
162.5000000000003979
 21
229.9999999999992042
 31
-0.0000000000000511
210
0.0
220
1.0
230
-0.0000000000000002
  0
LINE
  5
7D76
  8
0
  6
VERDECKT2
 62
     1
 10
-162.4999999999994884
 20
234.0000000000001137
 30
-0.000000000000052
 11
-162.4999999999994884
 21
230.0000000000003126
 31
-0.0000000000000511
210
0.0
220
1.0
230
-0.0000000000000002
  0
ENDBLK
  5
7D78
  8
0
  0
ENDSEC
  0
SECTION
  2
ENTITIES
  0
INSERT
  5
573
  8
ADSK_ASSOC_ENTITY_BACKUPS
  2
*S0
 10
0.0
 20
0.0
 30
0.0
  0
INSERT
  5
7D2E
  8
INDEX2
  2
A$C72073F10
 10
748.7002572309744437
 20
-16.0807380454970215
 30
0.0
  0
INSERT
  5
7D79
  8
INDEX2
  2
A$C4FD0325F
 10
748.70025723097433
 20
596.7293949041378482
 30
0.0
  0
VIEWPORT
  5
BCC
 67
     1
  8
0
 10
489.3641903038716805
 20
211.537140899360395
 30
0.0
 40
3544.1883405558110098
 41
1870.4168145642920535
 68
     1
 69
     1
1001
ACAD
1000
MVIEW
1002
{
1070
    16
1010
0.0
1020
0.0
1030
0.0
1010
0.0
1020
0.0
1030
1.0
1040
0.0
1040
1870.4168145642920535
1040
489.3641903038716805
1040
211.537140899360395
1040
50.0
1040
0.0
1040
0.0
1070
     0
1070
  1500
1070
     1
1070
     1
1070
     0
1070
     0
1070
     0
1070
     0
1040
0.0
1040
0.0
1040
0.0
1040
10.0
1040
10.0
1040
10.0
1040
10.0
1070
     0
1002
{
1002
}
1002
}
  0
ENDSEC
  0
EOF
