  0
SECTION
  2
HEADER
  9
$ACADVER
  1
AC1009
  9
$INSBASE
 10
0.0
 20
0.0
 30
0.0
  9
$EXTMIN
 10
-146.0172716314181969
 20
-330.6386703670016232
 30
-0.0051875924752949
  9
$EXTMAX
 10
146.0251169656689001
 20
174.7125866840503932
 30
0.0077821803368465
  9
$LIMMIN
 10
0.0
 20
0.0
  9
$LIMMAX
 10
419.9999999999998863
 20
594.0
  9
$ORTHOMODE
 70
     1
  9
$REGENMODE
 70
     1
  9
$FILLMODE
 70
     1
  9
$QTEXTMODE
 70
     0
  9
$MIRRTEXT
 70
     1
  9
$DRAGMODE
 70
     2
  9
$LTSCALE
 40
20.0
  9
$OSMODE
 70
  1327
  9
$ATTMODE
 70
     1
  9
$TEXTSIZE
 40
3.5
  9
$TRACEWID
 40
0.5
  9
$TEXTSTYLE
  7
STANDARD
  9
$CLAYER
  8
0
  9
$CELTYPE
  6
BYLAYER
  9
$CECOLOR
 62
   256
  9
$DIMSCALE
 40
2.0
  9
$DIMASZ
 40
3.5
  9
$DIMEXO
 40
1.0
  9
$DIMDLI
 40
7.0
  9
$DIMRND
 40
0.0
  9
$DIMDLE
 40
0.0
  9
$DIMEXE
 40
1.0
  9
$DIMTP
 40
0.0
  9
$DIMTM
 40
0.0
  9
$DIMTXT
 40
3.5
  9
$DIMCEN
 40
1.5
  9
$DIMTSZ
 40
0.0
  9
$DIMTOL
 70
     0
  9
$DIMLIM
 70
     0
  9
$DIMTIH
 70
     0
  9
$DIMTOH
 70
     0
  9
$DIMSE1
 70
     0
  9
$DIMSE2
 70
     0
  9
$DIMTAD
 70
     1
  9
$DIMZIN
 70
     8
  9
$DIMBLK
  1

  9
$DIMASO
 70
     1
  9
$DIMSHO
 70
     0
  9
$DIMPOST
  1

  9
$DIMAPOST
  1

  9
$DIMALT
 70
     0
  9
$DIMALTD
 70
     2
  9
$DIMALTF
 40
25.3999999999999986
  9
$DIMLFAC
 40
1.0
  9
$DIMTOFL
 70
     1
  9
$DIMTVP
 40
0.0
  9
$DIMTIX
 70
     0
  9
$DIMSOXD
 70
     0
  9
$DIMSAH
 70
     0
  9
$DIMBLK1
  1

  9
$DIMBLK2
  1

  9
$DIMSTYLE
  2
STANDARD
  9
$DIMCLRD
 70
     0
  9
$DIMCLRE
 70
     0
  9
$DIMCLRT
 70
     1
  9
$DIMTFAC
 40
0.5142857142857143
  9
$DIMGAP
 40
1.5
  9
$LUNITS
 70
     2
  9
$LUPREC
 70
     2
  9
$SKETCHINC
 40
1.0
  9
$FILLETRAD
 40
24.6000000000000014
  9
$AUNITS
 70
     0
  9
$AUPREC
 70
     0
  9
$MENU
  1
ACAD
  9
$ELEVATION
 40
0.0
  9
$PELEVATION
 40
0.0
  9
$THICKNESS
 40
0.0
  9
$LIMCHECK
 70
     0
  9
$BLIPMODE
 70
     0
  9
$CHAMFERA
 40
0.0
  9
$CHAMFERB
 40
0.0
  9
$SKPOLY
 70
     0
  9
$TDCREATE
 40
2455397.8646990740671754
  9
$TDUPDATE
 40
2458402.5367824072018266
  9
$TDINDWG
 40
0.1118045023
  9
$TDUSRTIMER
 40
0.1118045023
  9
$USRTIMER
 70
     1
  9
$ANGBASE
 50
0.0
  9
$ANGDIR
 70
     0
  9
$PDMODE
 70
     0
  9
$PDSIZE
 40
0.0
  9
$PLINEWID
 40
0.0
  9
$COORDS
 70
     1
  9
$SPLFRAME
 70
     0
  9
$SPLINETYPE
 70
     6
  9
$SPLINESEGS
 70
     8
  9
$ATTDIA
 70
     0
  9
$ATTREQ
 70
     0
  9
$HANDLING
 70
     1
  9
$HANDSEED
  5
189A
  9
$SURFTAB1
 70
     6
  9
$SURFTAB2
 70
     6
  9
$SURFTYPE
 70
     6
  9
$SURFU
 70
     6
  9
$SURFV
 70
     6
  9
$UCSNAME
  2

  9
$UCSORG
 10
0.0
 20
0.0
 30
0.0
  9
$UCSXDIR
 10
1.0
 20
0.0
 30
0.0
  9
$UCSYDIR
 10
0.0
 20
1.0
 30
0.0
  9
$PUCSNAME
  2

  9
$PUCSORG
 10
0.0
 20
0.0
 30
0.0
  9
$PUCSXDIR
 10
1.0
 20
0.0
 30
0.0
  9
$PUCSYDIR
 10
0.0
 20
1.0
 30
0.0
  9
$USERI1
 70
     0
  9
$USERI2
 70
     0
  9
$USERI3
 70
     0
  9
$USERI4
 70
     0
  9
$USERI5
 70
     0
  9
$USERR1
 40
0.0
  9
$USERR2
 40
0.0
  9
$USERR3
 40
0.0
  9
$USERR4
 40
0.0
  9
$USERR5
 40
0.0
  9
$WORLDVIEW
 70
     1
  9
$SHADEDGE
 70
     3
  9
$SHADEDIF
 70
    70
  9
$TILEMODE
 70
     1
  9
$MAXACTVP
 70
    16
  9
$PLIMCHECK
 70
     0
  9
$PEXTMIN
 10
-0.0766145981531103
 20
-0.0740473505898649
 30
-0.0000000000112498
  9
$PEXTMAX
 10
10.2895961121583408
 20
13.7616432192925604
 30
0.0000000000002956
  9
$PLIMMIN
 10
-0.2500002402958907
 20
-0.2499999962453767
  9
$PLIMMAX
 10
10.7499995194082203
 20
8.2499997634587334
  9
$UNITMODE
 70
     0
  9
$VISRETAIN
 70
     0
  9
$PLINEGEN
 70
     0
  9
$PSLTSCALE
 70
     0
  0
ENDSEC
  0
SECTION
  2
TABLES
  0
TABLE
  2
VPORT
 70
     1
  0
VPORT
  2
*ACTIVE
 70
     0
 10
0.0
 20
0.0
 11
1.0
 21
1.0
 12
0.0039226671254937
 22
-89.963041841475615
 13
0.0
 23
0.0
 14
1.0
 24
1.0
 15
10.0
 25
10.0
 16
-0.0000000000002662
 26
0.0
 36
1198.9970626524000181
 17
-0.0000000000001137
 27
12.0
 37
85.0
 40
509.1319397721322275
 41
1.887640449438202
 42
50.0
 43
0.0
 44
0.0
 50
0.0
 51
0.0
 71
     0
 72
  1500
 73
     1
 74
     0
 75
     0
 76
     0
 77
     0
 78
     0
  0
ENDTAB
  0
TABLE
  2
LTYPE
 70
     3
  0
LTYPE
  2
CONTINUOUS
 70
     0
  3
Solid line
 72
    65
 73
     0
 40
0.0
  0
LTYPE
  2
VERDECKT
 70
     0
  3
Verdeckt __ __ __ __ __ __ __ __ __ __ __ __ __
 72
    65
 73
     2
 40
0.375
 49
0.25
 49
-0.125
  0
ENDTAB
  0
TABLE
  2
LAYER
 70
    11
  0
LAYER
  2
0
 70
     0
 62
     7
  6
CONTINUOUS
  0
LAYER
  2
VOLL
 70
     0
 62
     1
  6
CONTINUOUS
  0
LAYER
  2
TEXT
 70
     0
 62
     7
  6
CONTINUOUS
  0
LAYER
  2
DEFPOINTS
 70
     0
 62
     7
  6
CONTINUOUS
  0
ENDTAB
  0
TABLE
  2
STYLE
 70
     4
  0
STYLE
  2
STANDARD
 70
     0
 40
0.0
 41
0.8
 50
0.0
 71
     0
 42
3.5
  3
simplex.shx
  4

  0
STYLE
  2
GREEKS
 70
     0
 40
0.0
 41
0.8
 50
0.0
 71
     0
 42
2.5
  3
SIMPLEX.shx
  4

  0
ENDTAB
  0
TABLE
  2
VIEW
 70
     2
  0
ENDTAB
  0
TABLE
  2
UCS
 70
     0
  0
ENDTAB
  0
TABLE
  2
APPID
 70
     8
  0
APPID
  2
ACAD
 70
     0
  0
APPID
  2
ACAD_NAV_VCDISPLAY
 70
     0
  0
APPID
  2
ACAD_PSEXT
 70
     0
  0
APPID
  2
ACAECLAYERSTANDARD
 70
     0
  0
APPID
  2
ACCMTRANSPARENCY
 70
     0
  0
APPID
  2
ACAD_EXEMPT_FROM_CAD_STANDARDS
 70
     0
  0
APPID
  2
ACAD_MLEADERVER
 70
     0
  0
APPID
  2
ACAD_OBJECT_CHANGE_GUID
 70
     0
  0
ENDTAB
  0
TABLE
  2
DIMSTYLE
 70
     2
  0
DIMSTYLE
  2
STANDARD
 70
     0
  3

  4

  5

  6

  7

 40
1.0
 41
0.18
 42
0.0625
 43
0.38
 44
0.18
 45
0.0
 46
0.0
 47
0.0
 48
0.0
140
0.18
141
0.09
142
0.0
143
25.3999999999999986
144
1.0
145
0.0
146
1.0
147
0.09
 71
     0
 72
     0
 73
     1
 74
     1
 75
     0
 76
     0
 77
     0
 78
     0
170
     0
171
     2
172
     0
173
     0
174
     0
175
     0
176
     0
177
     0
178
     0
  0
ENDTAB
  0
ENDSEC
  0
SECTION
  2
BLOCKS
  0
BLOCK
  8
0
  2
$MODEL_SPACE
 70
     0
 10
0.0
 20
0.0
 30
0.0
  3
$MODEL_SPACE
  1

  0
ENDBLK
  5
36
  8
0
  0
BLOCK
 67
     1
  8
0
  2
$PAPER_SPACE
 70
     0
 10
0.0
 20
0.0
 30
0.0
  3
$PAPER_SPACE
  1

  0
ENDBLK
  5
34
 67
     1
  8
0
  0
BLOCK
  8
0
  2
A$C026101EE
 70
     0
 10
0.0
 20
0.0
 30
0.0
  3
A$C026101EE
  1

  0
LINE
  5
1751
  8
0
  6
CONTINUOUS
 62
     3
 10
35.6251133647407414
 20
0.0000000000000489
 30
0.0
 11
-35.6251133647407414
 21
-0.0000000000000489
 31
0.0
210
0.0000000000000002
220
1.0
230
-0.0000000000000002
  0
LINE
  5
1752
  8
0
  6
CONTINUOUS
 62
     3
 10
-35.6251133647407983
 20
-0.0000000000000436
 30
0.0
 11
-36.5000000000000568
 21
9.9999999999999574
 31
-0.0000000000000022
210
0.0000000000000002
220
1.0
230
-0.0000000000000002
  0
LINE
  5
1753
  8
0
  6
CONTINUOUS
 62
     3
 10
35.6251133647405922
 20
0.0000000000000569
 30
0.0
 11
36.4999999999998224
 21
10.0000000000000409
 31
-0.0000000000000022
210
0.0000000000000002
220
1.0
230
-0.0000000000000002
  0
LINE
  5
1754
  8
0
  6
CONTINUOUS
 62
     3
 10
-36.5000000000000497
 20
9.9999999999999538
 30
-0.0000000000000022
 11
-36.5000000000001634
 21
108.0522732492587039
 31
-0.000000000000024
210
0.0000000000000002
220
1.0
230
-0.0000000000000002
  0
LINE
  5
1755
  8
0
  6
CONTINUOUS
 62
     3
 10
36.4999999999999503
 20
10.0000000000000302
 30
-0.0000000000000022
 11
36.4999999999998366
 21
108.0522732492587039
 31
-0.000000000000024
210
0.0000000000000002
220
1.0
230
-0.0000000000000002
  0
ARC
  5
1756
  8
0
  6
CONTINUOUS
 62
     3
 10
-46.0999999999977703
 20
108.0522732492591018
 30
0.0
 40
9.5999999999980545
210
0.0
220
-0.0000000000000002
230
-1.0
 50
359.9999999999976126
 51
31.6927937224373899
  0
ARC
  5
1757
  8
0
  6
CONTINUOUS
 62
     3
 10
46.0999999999983032
 20
108.0522732492590023
 30
0.0
 40
9.5999999999981753
210
0.0
220
-0.0000000000000002
230
-1.0
 50
148.3072062775628126
 51
180.0000000000021885
  0
ARC
  5
1758
  8
0
  6
CONTINUOUS
 62
     3
 10
-17.0000000000017799
 20
126.0197438558850962
 30
0.0
 40
24.599999999998051
210
0.0
220
-0.0000000000000002
230
-1.0
 50
179.9999999999976126
 51
211.6927937224344873
  0
ARC
  5
1759
  8
0
  6
CONTINUOUS
 62
     3
 10
17.0000000000022418
 20
126.0197438558849967
 30
0.0
 40
24.5999999999980012
210
0.0
220
-0.0000000000000002
230
-1.0
 50
328.3072062775652853
 51
0.00000000000229
  0
LINE
  5
175A
  8
0
  6
CONTINUOUS
 62
     3
 10
-41.6000000000002217
 20
126.0197438558860057
 30
-0.000000000000028
 11
-41.6000000000002217
 21
129.4762174100764014
 31
-0.0000000000000287
210
0.0000000000000002
220
1.0
230
-0.0000000000000002
  0
LINE
  5
175B
  8
0
  6
CONTINUOUS
 62
     3
 10
41.5999999999998167
 20
126.0197438558861052
 30
-0.000000000000028
 11
41.5999999999998167
 21
129.4762174100764867
 31
-0.0000000000000287
210
0.0000000000000002
220
1.0
230
-0.0000000000000002
  0
ARC
  5
175C
  8
0
  6
CONTINUOUS
 62
     3
 10
-17.0000000000013003
 20
129.4762174100758045
 30
0.0
 40
24.5999999999984098
210
0.0
220
-0.0000000000000002
230
-1.0
 50
154.6722275782219924
 51
179.9999999999982094
  0
ARC
  5
175D
  8
0
  6
CONTINUOUS
 62
     3
 10
17.0000000000020108
 20
129.4762174100758045
 30
0.0
 40
24.5999999999981114
210
0.0
220
-0.0000000000000002
230
-1.0
 50
0.0000000000014122
 51
25.3277724217779792
  0
LINE
  5
175E
  8
0
  6
CONTINUOUS
 62
     3
 10
-146.000000000000199
 20
170.0000000000001137
 30
-0.0000000000000377
 11
145.999999999999801
 21
170.0000000000001137
 31
-0.0000000000000377
210
0.0000000000000002
220
1.0
230
-0.0000000000000002
  0
LINE
  5
175F
  8
0
  6
CONTINUOUS
 62
     3
 10
-146.000000000000199
 20
168.0000000000001137
 30
-0.0000000000000373
 11
145.999999999999801
 21
168.0000000000001137
 31
-0.0000000000000373
210
0.0000000000000002
220
1.0
230
-0.0000000000000002
  0
LINE
  5
1760
  8
0
  6
CONTINUOUS
 62
     3
 10
-58.500000000000199
 20
140.0000000000001137
 30
-0.0000000000000311
 11
58.499999999999801
 21
140.0000000000001137
 31
-0.0000000000000311
210
0.0000000000000002
220
1.0
230
-0.0000000000000002
  0
LINE
  5
1761
  8
0
  6
CONTINUOUS
 62
     3
 10
145.999999999999801
 20
170.0000000000001137
 30
-0.0000000000000377
 11
145.999999999999801
 21
168.0000000000001137
 31
-0.0000000000000373
210
0.0000000000000002
220
1.0
230
-0.0000000000000002
  0
LINE
  5
1762
  8
0
  6
CONTINUOUS
 62
     3
 10
-146.000000000000199
 20
170.0000000000001137
 30
-0.0000000000000377
 11
-146.000000000000199
 21
168.0000000000001137
 31
-0.0000000000000373
210
0.0000000000000002
220
1.0
230
-0.0000000000000002
  0
ARC
  5
1763
  8
0
  6
CONTINUOUS
 62
     3
 10
118.4999999999979963
 20
130.0000000000084128
 30
0.0
 40
37.9999999999914806
210
0.0
220
-0.0000000000000002
230
-1.0
 50
89.9999999999967031
 51
120.187454074824899
  0
ARC
  5
1764
  8
0
  6
CONTINUOUS
 62
     3
 10
-118.4999999999975984
 20
130.0000000000084981
 30
0.0
 40
37.9999999999913882
210
0.0
220
-0.0000000000000002
230
-1.0
 50
59.8125459251750797
 51
90.0000000000033253
  0
LINE
  5
1765
  8
0
  6
CONTINUOUS
 62
     3
 10
-61.5169841178317895
 20
140.8136904418699942
 30
-0.0000000000000313
 11
-99.3924339203992702
 21
162.8466272014902074
 31
-0.0000000000000362
210
0.0000000000000002
220
1.0
230
-0.0000000000000002
  0
LINE
  5
1766
  8
0
  6
CONTINUOUS
 62
     3
 10
61.5169841178313987
 20
140.8136904418699942
 30
-0.0000000000000313
 11
99.3924339203988865
 21
162.8466272014902074
 31
-0.0000000000000362
210
0.0000000000000002
220
1.0
230
-0.0000000000000002
  0
ARC
  5
1767
  8
0
  6
CONTINUOUS
 62
     3
 10
58.5000000000000995
 20
146.0000000000005116
 30
0.0
 40
6.0000000000003411
210
0.0
220
-0.0000000000000002
230
-1.0
 50
270.0
 51
300.1874540748194136
  0
ARC
  5
1768
  8
0
  6
CONTINUOUS
 62
     3
 10
-58.4999999999997229
 20
146.0000000000005116
 30
0.0
 40
6.0000000000003419
210
0.0
220
-0.0000000000000002
230
-1.0
 50
239.8125459251808991
 51
270.0000000000002274
  0
LINE
  5
1769
  8
0
  6
VERDECKT
 62
     1
 10
-55.0000000000001918
 20
161.0
 30
-0.0000000000000357
 11
-47.0000000000001918
 21
161.0
 31
-0.0000000000000357
210
0.0000000000000002
220
1.0
230
-0.0000000000000002
  0
LINE
  5
176A
  8
0
  6
VERDECKT
 62
     1
 10
-54.0000000000001918
 20
162.0
 30
-0.000000000000036
 11
-48.0000000000001918
 21
162.0
 31
-0.000000000000036
210
0.0000000000000002
220
1.0
230
-0.0000000000000002
  0
LINE
  5
176B
  8
0
  6
VERDECKT
 62
     1
 10
-54.0000000000001918
 20
160.0
 30
-0.0000000000000355
 11
-48.0000000000001918
 21
160.0
 31
-0.0000000000000355
210
0.0000000000000002
220
1.0
230
-0.0000000000000002
  0
LINE
  5
176C
  8
0
  6
VERDECKT
 62
     1
 10
-54.9999999999999574
 20
159.0000000000001137
 30
-0.0000000000000353
 11
-47.0000000000004121
 21
159.0000000000001137
 31
-0.0000000000000353
210
0.0000000000000002
220
1.0
230
-0.0000000000000002
  0
LINE
  5
176D
  8
0
  6
VERDECKT
 62
     1
 10
-54.0000000000001918
 20
158.0000000000001137
 30
-0.0000000000000351
 11
-48.0000000000001918
 21
158.0000000000001137
 31
-0.0000000000000351
210
0.0000000000000002
220
1.0
230
-0.0000000000000002
  0
LINE
  5
176E
  8
0
  6
VERDECKT
 62
     1
 10
-54.9999999999997371
 20
156.999999999999801
 30
-0.0000000000000349
 11
-47.0000000000006466
 21
156.999999999999801
 31
-0.0000000000000349
210
0.0000000000000002
220
1.0
230
-0.0000000000000002
  0
LINE
  5
176F
  8
0
  6
VERDECKT
 62
     1
 10
-54.0000000000001918
 20
156.0000000000001137
 30
-0.0000000000000346
 11
-48.0000000000001918
 21
156.0000000000001137
 31
-0.0000000000000346
210
0.0000000000000002
220
1.0
230
-0.0000000000000002
  0
LINE
  5
1770
  8
0
  6
VERDECKT
 62
     1
 10
-54.9999999999997371
 20
154.9999999999998863
 30
-0.0000000000000344
 11
-47.0000000000006466
 21
154.9999999999998863
 31
-0.0000000000000344
210
0.0000000000000002
220
1.0
230
-0.0000000000000002
  0
LINE
  5
1771
  8
0
  6
VERDECKT
 62
     1
 10
-53.9999999999995097
 20
154.0000000000001137
 30
-0.0000000000000342
 11
-48.0000000000008669
 21
154.0000000000001137
 31
-0.0000000000000342
210
0.0000000000000002
220
1.0
230
-0.0000000000000002
  0
LINE
  5
1772
  8
0
  6
VERDECKT
 62
     1
 10
-54.9999999999999574
 20
153.000000000000199
 30
-0.000000000000034
 11
-47.0000000000004121
 21
153.000000000000199
 31
-0.000000000000034
210
0.0000000000000002
220
1.0
230
-0.0000000000000002
  0
LINE
  5
1773
  8
0
  6
VERDECKT
 62
     1
 10
-54.0000000000001918
 20
152.0000000000001137
 30
-0.0000000000000338
 11
-48.0000000000001918
 21
152.0000000000001137
 31
-0.0000000000000338
210
0.0000000000000002
220
1.0
230
-0.0000000000000002
  0
LINE
  5
1774
  8
0
  6
VERDECKT
 62
     1
 10
-54.9999999999997371
 20
150.9999999999998863
 30
-0.0000000000000335
 11
-47.0000000000006466
 21
150.9999999999998863
 31
-0.0000000000000335
210
0.0000000000000002
220
1.0
230
-0.0000000000000002
  0
LINE
  5
1775
  8
0
  6
VERDECKT
 62
     1
 10
-54.0000000000001918
 20
150.000000000000199
 30
-0.0000000000000333
 11
-48.0000000000001918
 21
150.000000000000199
 31
-0.0000000000000333
210
0.0000000000000002
220
1.0
230
-0.0000000000000002
  0
LINE
  5
1776
  8
0
  6
VERDECKT
 62
     1
 10
-54.9999999999997371
 20
149.0
 30
-0.0000000000000331
 11
-47.0000000000006466
 21
149.0
 31
-0.0000000000000331
210
0.0000000000000002
220
1.0
230
-0.0000000000000002
  0
LINE
  5
1777
  8
0
  6
VERDECKT
 62
     1
 10
-54.0000000000001918
 20
148.000000000000199
 30
-0.0000000000000329
 11
-48.0000000000001918
 21
148.000000000000199
 31
-0.0000000000000329
210
0.0000000000000002
220
1.0
230
-0.0000000000000002
  0
LINE
  5
1778
  8
0
  6
VERDECKT
 62
     1
 10
-54.9999999999992824
 20
147.0000000000003979
 30
-0.0000000000000326
 11
-47.0000000000011013
 21
147.0000000000003979
 31
-0.0000000000000326
210
0.0000000000000002
220
1.0
230
-0.0000000000000002
  0
LINE
  5
1779
  8
0
  6
VERDECKT
 62
     1
 10
-54.0000000000001918
 20
146.0000000000003126
 30
-0.0000000000000324
 11
-48.0000000000001918
 21
146.0000000000003126
 31
-0.0000000000000324
210
0.0000000000000002
220
1.0
230
-0.0000000000000002
  0
LINE
  5
177A
  8
0
  6
VERDECKT
 62
     1
 10
-54.9999999999990479
 20
145.0
 30
-0.0000000000000322
 11
-47.0000000000013287
 21
145.0
 31
-0.0000000000000322
210
0.0000000000000002
220
1.0
230
-0.0000000000000002
  0
LINE
  5
177B
  8
0
  6
VERDECKT
 62
     1
 10
-54.0000000000001918
 20
144.0000000000003126
 30
-0.000000000000032
 11
-48.0000000000001918
 21
144.0000000000003126
 31
-0.000000000000032
210
0.0000000000000002
220
1.0
230
-0.0000000000000002
  0
LINE
  5
177C
  8
0
  6
VERDECKT
 62
     1
 10
-55.000000000000199
 20
143.0000000000001137
 30
-0.0000000000000318
 11
-47.0000000000001918
 21
143.0000000000001137
 31
-0.0000000000000318
210
0.0000000000000002
220
1.0
230
-0.0000000000000002
  0
LINE
  5
177D
  8
0
  6
VERDECKT
 62
     1
 10
-48.0000000000001918
 20
162.0
 30
-0.000000000000036
 11
-47.0000000000001918
 21
161.0
 31
-0.0000000000000357
210
0.0000000000000002
220
1.0
230
-0.0000000000000002
  0
LINE
  5
177E
  8
0
  6
VERDECKT
 62
     1
 10
-54.0000000000001918
 20
162.0
 30
-0.000000000000036
 11
-55.0000000000001918
 21
161.0
 31
-0.0000000000000357
210
0.0000000000000002
220
1.0
230
-0.0000000000000002
  0
LINE
  5
177F
  8
0
  6
VERDECKT
 62
     1
 10
-54.0000000000001918
 20
160.0
 30
-0.0000000000000355
 11
-55.0000000000001918
 21
161.0
 31
-0.0000000000000357
210
0.0000000000000002
220
1.0
230
-0.0000000000000002
  0
LINE
  5
1780
  8
0
  6
VERDECKT
 62
     1
 10
-48.0000000000001918
 20
160.0
 30
-0.0000000000000355
 11
-47.0000000000001918
 21
161.0
 31
-0.0000000000000357
210
0.0000000000000002
220
1.0
230
-0.0000000000000002
  0
LINE
  5
1781
  8
0
  6
VERDECKT
 62
     1
 10
-48.0000000000001066
 20
160.0000000000001137
 30
-0.0000000000000355
 11
-47.0000000000003268
 21
159.000000000000199
 31
-0.0000000000000353
210
0.0000000000000002
220
1.0
230
-0.0000000000000002
  0
LINE
  5
1782
  8
0
  6
VERDECKT
 62
     1
 10
-54.00000000000027
 20
160.0000000000001137
 30
-0.0000000000000355
 11
-55.0000000000000497
 21
159.000000000000199
 31
-0.0000000000000353
210
0.0000000000000002
220
1.0
230
-0.0000000000000002
  0
LINE
  5
1783
  8
0
  6
VERDECKT
 62
     1
 10
-54.0000000000002487
 20
158.0000000000001137
 30
-0.0000000000000351
 11
-55.0000000000000213
 21
159.0000000000001137
 31
-0.0000000000000353
210
0.0000000000000002
220
1.0
230
-0.0000000000000002
  0
LINE
  5
1784
  8
0
  6
VERDECKT
 62
     1
 10
-48.0000000000001421
 20
158.0000000000001137
 30
-0.0000000000000351
 11
-47.0000000000003624
 21
159.0000000000001137
 31
-0.0000000000000353
210
0.0000000000000002
220
1.0
230
-0.0000000000000002
  0
LINE
  5
1785
  8
0
  6
VERDECKT
 62
     1
 10
-48.0000000000002203
 20
158.0000000000001137
 30
-0.0000000000000351
 11
-47.0000000000006679
 21
156.999999999999801
 31
-0.0000000000000349
210
0.0000000000000002
220
1.0
230
-0.0000000000000002
  0
LINE
  5
1786
  8
0
  6
VERDECKT
 62
     1
 10
-54.0000000000001634
 20
158.0000000000001137
 30
-0.0000000000000351
 11
-54.9999999999997087
 21
156.999999999999801
 31
-0.0000000000000349
210
0.0000000000000002
220
1.0
230
-0.0000000000000002
  0
LINE
  5
1787
  8
0
  6
VERDECKT
 62
     1
 10
-54.0000000000002203
 20
156.0000000000001137
 30
-0.0000000000000346
 11
-54.9999999999997584
 21
156.999999999999801
 31
-0.0000000000000349
210
0.0000000000000002
220
1.0
230
-0.0000000000000002
  0
LINE
  5
1788
  8
0
  6
VERDECKT
 62
     1
 10
-48.0000000000001634
 20
156.0000000000001137
 30
-0.0000000000000346
 11
-47.0000000000006182
 21
156.999999999999801
 31
-0.0000000000000349
210
0.0000000000000002
220
1.0
230
-0.0000000000000002
  0
LINE
  5
1789
  8
0
  6
VERDECKT
 62
     1
 10
-48.0000000000001918
 20
156.0000000000001137
 30
-0.0000000000000346
 11
-47.0000000000006466
 21
154.9999999999998863
 31
-0.0000000000000344
210
0.0000000000000002
220
1.0
230
-0.0000000000000002
  0
LINE
  5
178A
  8
0
  6
VERDECKT
 62
     1
 10
-54.0000000000001918
 20
156.0000000000001137
 30
-0.0000000000000346
 11
-54.9999999999997371
 21
154.9999999999998863
 31
-0.0000000000000344
210
0.0000000000000002
220
1.0
230
-0.0000000000000002
  0
LINE
  5
178B
  8
0
  6
VERDECKT
 62
     1
 10
-53.9999999999995595
 20
154.0000000000001137
 30
-0.0000000000000342
 11
-54.9999999999997868
 21
154.999999999999801
 31
-0.0000000000000344
210
0.0000000000000002
220
1.0
230
-0.0000000000000002
  0
LINE
  5
178C
  8
0
  6
VERDECKT
 62
     1
 10
-48.0000000000008171
 20
154.0000000000001137
 30
-0.0000000000000342
 11
-47.0000000000005826
 21
154.999999999999801
 31
-0.0000000000000344
210
0.0000000000000002
220
1.0
230
-0.0000000000000002
  0
LINE
  5
178D
  8
0
  6
VERDECKT
 62
     1
 10
-48.0000000000009024
 20
154.0000000000001137
 30
-0.0000000000000342
 11
-47.0000000000004405
 21
153.000000000000199
 31
-0.000000000000034
210
0.0000000000000002
220
1.0
230
-0.0000000000000002
  0
LINE
  5
178E
  8
0
  6
VERDECKT
 62
     1
 10
-53.9999999999994813
 20
154.0000000000001137
 30
-0.0000000000000342
 11
-54.9999999999999289
 21
153.000000000000199
 31
-0.000000000000034
210
0.0000000000000002
220
1.0
230
-0.0000000000000002
  0
LINE
  5
178F
  8
0
  6
VERDECKT
 62
     1
 10
-54.00000000000027
 20
152.0
 30
-0.0000000000000338
 11
-55.0000000000000497
 21
153.000000000000199
 31
-0.000000000000034
210
0.0000000000000002
220
1.0
230
-0.0000000000000002
  0
LINE
  5
1790
  8
0
  6
VERDECKT
 62
     1
 10
-48.0000000000001066
 20
152.0
 30
-0.0000000000000338
 11
-47.0000000000003268
 21
153.000000000000199
 31
-0.000000000000034
210
0.0000000000000002
220
1.0
230
-0.0000000000000002
  0
LINE
  5
1791
  8
0
  6
VERDECKT
 62
     1
 10
-48.0000000000001918
 20
152.0000000000001137
 30
-0.0000000000000338
 11
-47.0000000000006466
 21
150.9999999999998863
 31
-0.0000000000000335
210
0.0000000000000002
220
1.0
230
-0.0000000000000002
  0
LINE
  5
1792
  8
0
  6
VERDECKT
 62
     1
 10
-54.0000000000001918
 20
152.0000000000001137
 30
-0.0000000000000338
 11
-54.9999999999997371
 21
150.9999999999998863
 31
-0.0000000000000335
210
0.0000000000000002
220
1.0
230
-0.0000000000000002
  0
LINE
  5
1793
  8
0
  6
VERDECKT
 62
     1
 10
-54.0000000000001634
 20
150.0000000000003126
 30
-0.0000000000000333
 11
-54.9999999999997087
 21
150.9999999999998863
 31
-0.0000000000000335
210
0.0000000000000002
220
1.0
230
-0.0000000000000002
  0
LINE
  5
1794
  8
0
  6
VERDECKT
 62
     1
 10
-48.0000000000002203
 20
150.0000000000003126
 30
-0.0000000000000333
 11
-47.0000000000006679
 21
150.9999999999998863
 31
-0.0000000000000335
210
0.0000000000000002
220
1.0
230
-0.0000000000000002
  0
LINE
  5
1795
  8
0
  6
VERDECKT
 62
     1
 10
-48.0000000000001918
 20
150.000000000000199
 30
-0.0000000000000333
 11
-47.0000000000006466
 21
149.0
 31
-0.0000000000000331
210
0.0000000000000002
220
1.0
230
-0.0000000000000002
  0
LINE
  5
1796
  8
0
  6
VERDECKT
 62
     1
 10
-54.0000000000001918
 20
150.000000000000199
 30
-0.0000000000000333
 11
-54.9999999999997371
 21
149.0
 31
-0.0000000000000331
210
0.0000000000000002
220
1.0
230
-0.0000000000000002
  0
LINE
  5
1797
  8
0
  6
VERDECKT
 62
     1
 10
-54.0000000000001918
 20
148.000000000000199
 30
-0.0000000000000329
 11
-54.9999999999997371
 21
149.0
 31
-0.0000000000000331
210
0.0000000000000002
220
1.0
230
-0.0000000000000002
  0
LINE
  5
1798
  8
0
  6
VERDECKT
 62
     1
 10
-48.0000000000001918
 20
148.000000000000199
 30
-0.0000000000000329
 11
-47.0000000000006466
 21
149.0
 31
-0.0000000000000331
210
0.0000000000000002
220
1.0
230
-0.0000000000000002
  0
LINE
  5
1799
  8
0
  6
VERDECKT
 62
     1
 10
-48.0000000000001634
 20
148.0000000000003126
 30
-0.0000000000000329
 11
-47.0000000000010729
 21
147.0000000000003979
 31
-0.0000000000000326
210
0.0000000000000002
220
1.0
230
-0.0000000000000002
  0
LINE
  5
179A
  8
0
  6
VERDECKT
 62
     1
 10
-54.0000000000002203
 20
148.0000000000003126
 30
-0.0000000000000329
 11
-54.9999999999993108
 21
147.0000000000003979
 31
-0.0000000000000326
210
0.0000000000000002
220
1.0
230
-0.0000000000000002
  0
LINE
  5
179B
  8
0
  6
VERDECKT
 62
     1
 10
-54.0000000000001918
 20
146.0000000000003126
 30
-0.0000000000000324
 11
-54.9999999999992824
 21
147.0000000000003979
 31
-0.0000000000000326
210
0.0000000000000002
220
1.0
230
-0.0000000000000002
  0
LINE
  5
179C
  8
0
  6
VERDECKT
 62
     1
 10
-48.0000000000001918
 20
146.0000000000003126
 30
-0.0000000000000324
 11
-47.0000000000011013
 21
147.0000000000003979
 31
-0.0000000000000326
210
0.0000000000000002
220
1.0
230
-0.0000000000000002
  0
LINE
  5
179D
  8
0
  6
VERDECKT
 62
     1
 10
-48.0000000000001634
 20
146.0000000000003979
 30
-0.0000000000000324
 11
-47.0000000000012932
 21
145.0
 31
-0.0000000000000322
210
0.0000000000000002
220
1.0
230
-0.0000000000000002
  0
LINE
  5
179E
  8
0
  6
VERDECKT
 62
     1
 10
-54.0000000000002203
 20
146.0000000000003979
 30
-0.0000000000000324
 11
-54.9999999999990834
 21
145.0
 31
-0.0000000000000322
210
0.0000000000000002
220
1.0
230
-0.0000000000000002
  0
LINE
  5
179F
  8
0
  6
VERDECKT
 62
     1
 10
-54.00000000000027
 20
144.0000000000003126
 30
-0.000000000000032
 11
-54.9999999999991402
 21
144.9999999999998863
 31
-0.0000000000000322
210
0.0000000000000002
220
1.0
230
-0.0000000000000002
  0
LINE
  5
17A0
  8
0
  6
VERDECKT
 62
     1
 10
-48.0000000000001066
 20
144.0000000000003126
 30
-0.000000000000032
 11
-47.0000000000012434
 21
144.9999999999998863
 31
-0.0000000000000322
210
0.0000000000000002
220
1.0
230
-0.0000000000000002
  0
LINE
  5
17A1
  8
0
  6
VERDECKT
 62
     1
 10
-48.0000000000001918
 20
144.0000000000003126
 30
-0.000000000000032
 11
-47.0000000000001918
 21
143.0000000000001137
 31
-0.0000000000000318
210
0.0000000000000002
220
1.0
230
-0.0000000000000002
  0
LINE
  5
17A2
  8
0
  6
VERDECKT
 62
     1
 10
-54.0000000000001918
 20
144.0000000000003126
 30
-0.000000000000032
 11
-55.000000000000199
 21
143.0000000000001137
 31
-0.0000000000000318
210
0.0000000000000002
220
1.0
230
-0.0000000000000002
  0
LINE
  5
17A3
  8
0
  6
VERDECKT
 62
     1
 10
-47.0000000000001918
 20
143.0000000000001137
 30
-0.0000000000000318
 11
-47.0000000000001918
 21
142.000000000000199
 31
-0.0000000000000315
210
0.0000000000000002
220
1.0
230
-0.0000000000000002
  0
LINE
  5
17A4
  8
0
  6
VERDECKT
 62
     1
 10
-55.000000000000199
 20
143.0000000000001137
 30
-0.0000000000000318
 11
-55.000000000000199
 21
142.000000000000199
 31
-0.0000000000000315
210
0.0000000000000002
220
1.0
230
-0.0000000000000002
  0
LINE
  5
17A5
  8
0
  6
VERDECKT
 62
     1
 10
-40.4000000000000625
 20
126.0197438558851957
 30
-0.000000000000028
 11
-40.4000000000000625
 21
129.4762174100762024
 31
-0.0000000000000287
210
0.0000000000000002
220
1.0
230
-0.0000000000000002
  0
LINE
  5
17A6
  8
0
  6
VERDECKT
 62
     1
 10
40.3999999999996575
 20
126.0197438558852951
 30
-0.000000000000028
 11
40.3999999999996575
 21
129.4762174100762877
 31
-0.0000000000000287
210
0.0000000000000002
220
1.0
230
-0.0000000000000002
  0
ARC
  5
17A7
  8
0
  6
VERDECKT
 62
     1
 10
-17.0000000000006111
 20
126.0197438558850962
 30
0.0
 40
23.3999999999990713
210
0.0
220
-0.0000000000000002
230
-1.0
 50
179.9999999999994884
 51
211.6927937224332084
  0
ARC
  5
17A8
  8
0
  6
VERDECKT
 62
     1
 10
17.00000000000108
 20
126.0197438558849967
 30
0.0
 40
23.3999999999989896
210
0.0
220
-0.0000000000000002
230
-1.0
 50
328.3072062775667064
 51
0.0000000000005089
  0
ARC
  5
17A9
  8
0
  6
VERDECKT
 62
     1
 10
-46.1000000000002785
 20
108.0522732492586044
 30
0.0
 40
10.8000000000004999
210
0.0
220
-0.0000000000000002
230
-1.0
 50
0.0000000000008397
 51
31.6927937224321887
  0
ARC
  5
17AA
  8
0
  6
VERDECKT
 62
     1
 10
46.1000000000006693
 20
108.052273249258505
 30
0.0
 40
10.8000000000004803
210
0.0
220
-0.0000000000000002
230
-1.0
 50
148.3072062775677011
 51
179.9999999999990905
  0
LINE
  5
17AB
  8
0
  6
VERDECKT
 62
     1
 10
-35.300000000000118
 20
10.0523931314900299
 30
-0.0000000000000022
 11
-35.3000000000002174
 21
108.0522732492587039
 31
-0.000000000000024
210
0.0000000000000002
220
1.0
230
-0.0000000000000002
  0
LINE
  5
17AC
  8
0
  6
VERDECKT
 62
     1
 10
35.3000000000000185
 20
10.0523931314901098
 30
-0.0000000000000022
 11
35.2999999999999119
 21
108.0522732492587039
 31
-0.000000000000024
210
0.0000000000000002
220
1.0
230
-0.0000000000000002
  0
LINE
  5
17AD
  8
0
  6
VERDECKT
 62
     1
 10
-34.4205295596887595
 20
-0.0000000000000998
 30
0.0
 11
-35.3000000000001322
 21
10.0523931314900299
 31
-0.0000000000000022
210
0.0000000000000002
220
1.0
230
-0.0000000000000002
  0
LINE
  5
17AE
  8
0
  6
VERDECKT
 62
     1
 10
34.4205295596885534
 20
-0.0000000000000005
 30
0.0
 11
35.2999999999998906
 21
10.0523931314901205
 31
-0.0000000000000022
210
0.0000000000000002
220
1.0
230
-0.0000000000000002
  0
ARC
  5
17AF
  8
0
  6
VERDECKT
 62
     1
 10
-17.0000000000015916
 20
129.4762174100760888
 30
0.0
 40
23.3999999999980801
210
0.0
220
-0.0000000000000002
230
-1.0
 50
153.2733618891365097
 51
179.9999999999994884
  0
ARC
  5
17B0
  8
0
  6
VERDECKT
 62
     1
 10
17.0000000000020286
 20
129.4762174100760035
 30
0.0
 40
23.399999999998041
210
0.0
220
-0.0000000000000002
230
-1.0
 50
0.0000000000004326
 51
26.7266381108633908
  0
LINE
  5
17B1
  8
0
  6
VERDECKT
 62
     1
 10
46.999999999999801
 20
161.0
 30
-0.0000000000000357
 11
54.9999999999998082
 21
161.0
 31
-0.0000000000000357
210
0.0000000000000002
220
1.0
230
-0.0000000000000002
  0
LINE
  5
17B2
  8
0
  6
VERDECKT
 62
     1
 10
47.9999999999998082
 20
162.0
 30
-0.000000000000036
 11
53.999999999999801
 21
162.0
 31
-0.000000000000036
210
0.0000000000000002
220
1.0
230
-0.0000000000000002
  0
LINE
  5
17B3
  8
0
  6
VERDECKT
 62
     1
 10
47.9999999999998082
 20
160.0
 30
-0.0000000000000355
 11
53.999999999999801
 21
160.0
 31
-0.0000000000000355
210
0.0000000000000002
220
1.0
230
-0.0000000000000002
  0
LINE
  5
17B4
  8
0
  6
VERDECKT
 62
     1
 10
47.0000000000000284
 20
159.0000000000001137
 30
-0.0000000000000353
 11
54.9999999999995808
 21
159.0000000000001137
 31
-0.0000000000000353
210
0.0000000000000002
220
1.0
230
-0.0000000000000002
  0
LINE
  5
17B5
  8
0
  6
VERDECKT
 62
     1
 10
47.9999999999998082
 20
158.0000000000001137
 30
-0.0000000000000351
 11
53.999999999999801
 21
158.0000000000001137
 31
-0.0000000000000351
210
0.0000000000000002
220
1.0
230
-0.0000000000000002
  0
LINE
  5
17B6
  8
0
  6
VERDECKT
 62
     1
 10
47.0000000000002629
 20
156.999999999999801
 30
-0.0000000000000349
 11
54.9999999999993605
 21
156.999999999999801
 31
-0.0000000000000349
210
0.0000000000000002
220
1.0
230
-0.0000000000000002
  0
LINE
  5
17B7
  8
0
  6
VERDECKT
 62
     1
 10
47.9999999999998082
 20
156.0000000000001137
 30
-0.0000000000000346
 11
53.999999999999801
 21
156.0000000000001137
 31
-0.0000000000000346
210
0.0000000000000002
220
1.0
230
-0.0000000000000002
  0
LINE
  5
17B8
  8
0
  6
VERDECKT
 62
     1
 10
47.0000000000002629
 20
154.9999999999998863
 30
-0.0000000000000344
 11
54.9999999999993605
 21
154.9999999999998863
 31
-0.0000000000000344
210
0.0000000000000002
220
1.0
230
-0.0000000000000002
  0
LINE
  5
17B9
  8
0
  6
VERDECKT
 62
     1
 10
48.0000000000004903
 20
154.0000000000001137
 30
-0.0000000000000342
 11
53.9999999999991331
 21
154.0000000000001137
 31
-0.0000000000000342
210
0.0000000000000002
220
1.0
230
-0.0000000000000002
  0
LINE
  5
17BA
  8
0
  6
VERDECKT
 62
     1
 10
47.0000000000000284
 20
153.000000000000199
 30
-0.000000000000034
 11
54.9999999999995808
 21
153.000000000000199
 31
-0.000000000000034
210
0.0000000000000002
220
1.0
230
-0.0000000000000002
  0
LINE
  5
17BB
  8
0
  6
VERDECKT
 62
     1
 10
47.9999999999998082
 20
152.0000000000001137
 30
-0.0000000000000338
 11
53.999999999999801
 21
152.0000000000001137
 31
-0.0000000000000338
210
0.0000000000000002
220
1.0
230
-0.0000000000000002
  0
LINE
  5
17BC
  8
0
  6
VERDECKT
 62
     1
 10
47.0000000000002629
 20
150.9999999999998863
 30
-0.0000000000000335
 11
54.9999999999993605
 21
150.9999999999998863
 31
-0.0000000000000335
210
0.0000000000000002
220
1.0
230
-0.0000000000000002
  0
LINE
  5
17BD
  8
0
  6
VERDECKT
 62
     1
 10
47.9999999999998082
 20
150.000000000000199
 30
-0.0000000000000333
 11
53.999999999999801
 21
150.000000000000199
 31
-0.0000000000000333
210
0.0000000000000002
220
1.0
230
-0.0000000000000002
  0
LINE
  5
17BE
  8
0
  6
VERDECKT
 62
     1
 10
47.0000000000002629
 20
149.0
 30
-0.0000000000000331
 11
54.9999999999993605
 21
149.0
 31
-0.0000000000000331
210
0.0000000000000002
220
1.0
230
-0.0000000000000002
  0
LINE
  5
17BF
  8
0
  6
VERDECKT
 62
     1
 10
47.9999999999998082
 20
148.000000000000199
 30
-0.0000000000000329
 11
53.999999999999801
 21
148.000000000000199
 31
-0.0000000000000329
210
0.0000000000000002
220
1.0
230
-0.0000000000000002
  0
LINE
  5
17C0
  8
0
  6
VERDECKT
 62
     1
 10
47.0000000000007176
 20
147.0000000000003979
 30
-0.0000000000000326
 11
54.9999999999988916
 21
147.0000000000003979
 31
-0.0000000000000326
210
0.0000000000000002
220
1.0
230
-0.0000000000000002
  0
LINE
  5
17C1
  8
0
  6
VERDECKT
 62
     1
 10
47.9999999999998082
 20
146.0000000000003126
 30
-0.0000000000000324
 11
53.999999999999801
 21
146.0000000000003126
 31
-0.0000000000000324
210
0.0000000000000002
220
1.0
230
-0.0000000000000002
  0
LINE
  5
17C2
  8
0
  6
VERDECKT
 62
     1
 10
47.0000000000009379
 20
145.0
 30
-0.0000000000000322
 11
54.9999999999986713
 21
145.0
 31
-0.0000000000000322
210
0.0000000000000002
220
1.0
230
-0.0000000000000002
  0
LINE
  5
17C3
  8
0
  6
VERDECKT
 62
     1
 10
47.9999999999998082
 20
144.0000000000003126
 30
-0.000000000000032
 11
53.999999999999801
 21
144.0000000000003126
 31
-0.000000000000032
210
0.0000000000000002
220
1.0
230
-0.0000000000000002
  0
LINE
  5
17C4
  8
0
  6
VERDECKT
 62
     1
 10
46.999999999999801
 20
143.0000000000001137
 30
-0.0000000000000318
 11
54.999999999999801
 21
143.0000000000001137
 31
-0.0000000000000318
210
0.0000000000000002
220
1.0
230
-0.0000000000000002
  0
LINE
  5
17C5
  8
0
  6
VERDECKT
 62
     1
 10
53.999999999999801
 20
162.0
 30
-0.000000000000036
 11
54.9999999999998082
 21
161.0
 31
-0.0000000000000357
210
0.0000000000000002
220
1.0
230
-0.0000000000000002
  0
LINE
  5
17C6
  8
0
  6
VERDECKT
 62
     1
 10
47.9999999999998082
 20
162.0
 30
-0.000000000000036
 11
46.999999999999801
 21
161.0
 31
-0.0000000000000357
210
0.0000000000000002
220
1.0
230
-0.0000000000000002
  0
LINE
  5
17C7
  8
0
  6
VERDECKT
 62
     1
 10
47.9999999999998082
 20
160.0
 30
-0.0000000000000355
 11
46.999999999999801
 21
161.0
 31
-0.0000000000000357
210
0.0000000000000002
220
1.0
230
-0.0000000000000002
  0
LINE
  5
17C8
  8
0
  6
VERDECKT
 62
     1
 10
53.999999999999801
 20
160.0
 30
-0.0000000000000355
 11
54.9999999999998082
 21
161.0
 31
-0.0000000000000357
210
0.0000000000000002
220
1.0
230
-0.0000000000000002
  0
LINE
  5
17C9
  8
0
  6
VERDECKT
 62
     1
 10
53.9999999999998934
 20
160.0000000000001137
 30
-0.0000000000000355
 11
54.9999999999996732
 21
159.000000000000199
 31
-0.0000000000000353
210
0.0000000000000002
220
1.0
230
-0.0000000000000002
  0
LINE
  5
17CA
  8
0
  6
VERDECKT
 62
     1
 10
47.9999999999997229
 20
160.0000000000001137
 30
-0.0000000000000355
 11
46.9999999999999432
 21
159.000000000000199
 31
-0.0000000000000353
210
0.0000000000000002
220
1.0
230
-0.0000000000000002
  0
LINE
  5
17CB
  8
0
  6
VERDECKT
 62
     1
 10
47.9999999999997371
 20
158.0000000000001137
 30
-0.0000000000000351
 11
46.9999999999999787
 21
159.0000000000001137
 31
-0.0000000000000353
210
0.0000000000000002
220
1.0
230
-0.0000000000000002
  0
LINE
  5
17CC
  8
0
  6
VERDECKT
 62
     1
 10
53.9999999999998721
 20
158.0000000000001137
 30
-0.0000000000000351
 11
54.9999999999996376
 21
159.0000000000001137
 31
-0.0000000000000353
210
0.0000000000000002
220
1.0
230
-0.0000000000000002
  0
LINE
  5
17CD
  8
0
  6
VERDECKT
 62
     1
 10
53.9999999999997797
 20
158.0000000000001137
 30
-0.0000000000000351
 11
54.9999999999993179
 21
156.999999999999801
 31
-0.0000000000000349
210
0.0000000000000002
220
1.0
230
-0.0000000000000002
  0
LINE
  5
17CE
  8
0
  6
VERDECKT
 62
     1
 10
47.9999999999998295
 20
158.0000000000001137
 30
-0.0000000000000351
 11
47.0000000000002913
 21
156.999999999999801
 31
-0.0000000000000349
210
0.0000000000000002
220
1.0
230
-0.0000000000000002
  0
LINE
  5
17CF
  8
0
  6
VERDECKT
 62
     1
 10
47.9999999999997797
 20
156.0000000000001137
 30
-0.0000000000000346
 11
47.0000000000002274
 21
156.999999999999801
 31
-0.0000000000000349
210
0.0000000000000002
220
1.0
230
-0.0000000000000002
  0
LINE
  5
17D0
  8
0
  6
VERDECKT
 62
     1
 10
53.9999999999998366
 20
156.0000000000001137
 30
-0.0000000000000346
 11
54.9999999999993818
 21
156.999999999999801
 31
-0.0000000000000349
210
0.0000000000000002
220
1.0
230
-0.0000000000000002
  0
LINE
  5
17D1
  8
0
  6
VERDECKT
 62
     1
 10
53.999999999999801
 20
156.0000000000001137
 30
-0.0000000000000346
 11
54.9999999999993605
 21
154.9999999999998863
 31
-0.0000000000000344
210
0.0000000000000002
220
1.0
230
-0.0000000000000002
  0
LINE
  5
17D2
  8
0
  6
VERDECKT
 62
     1
 10
47.9999999999998082
 20
156.0000000000001137
 30
-0.0000000000000346
 11
47.0000000000002629
 21
154.9999999999998863
 31
-0.0000000000000344
210
0.0000000000000002
220
1.0
230
-0.0000000000000002
  0
LINE
  5
17D3
  8
0
  6
VERDECKT
 62
     1
 10
48.0000000000004334
 20
154.0000000000001137
 30
-0.0000000000000342
 11
47.000000000000199
 21
154.999999999999801
 31
-0.0000000000000344
210
0.0000000000000002
220
1.0
230
-0.0000000000000002
  0
LINE
  5
17D4
  8
0
  6
VERDECKT
 62
     1
 10
53.9999999999991829
 20
154.0000000000001137
 30
-0.0000000000000342
 11
54.9999999999994102
 21
154.999999999999801
 31
-0.0000000000000344
210
0.0000000000000002
220
1.0
230
-0.0000000000000002
  0
LINE
  5
17D5
  8
0
  6
VERDECKT
 62
     1
 10
53.9999999999990905
 20
154.0000000000001137
 30
-0.0000000000000342
 11
54.9999999999995524
 21
153.000000000000199
 31
-0.000000000000034
210
0.0000000000000002
220
1.0
230
-0.0000000000000002
  0
LINE
  5
17D6
  8
0
  6
VERDECKT
 62
     1
 10
48.0000000000005187
 20
154.0000000000001137
 30
-0.0000000000000342
 11
47.0000000000000568
 21
153.000000000000199
 31
-0.000000000000034
210
0.0000000000000002
220
1.0
230
-0.0000000000000002
  0
LINE
  5
17D7
  8
0
  6
VERDECKT
 62
     1
 10
47.9999999999997229
 20
152.0
 30
-0.0000000000000338
 11
46.9999999999999432
 21
153.000000000000199
 31
-0.000000000000034
210
0.0000000000000002
220
1.0
230
-0.0000000000000002
  0
LINE
  5
17D8
  8
0
  6
VERDECKT
 62
     1
 10
53.9999999999998934
 20
152.0
 30
-0.0000000000000338
 11
54.9999999999996732
 21
153.000000000000199
 31
-0.000000000000034
210
0.0000000000000002
220
1.0
230
-0.0000000000000002
  0
LINE
  5
17D9
  8
0
  6
VERDECKT
 62
     1
 10
53.999999999999801
 20
152.0000000000001137
 30
-0.0000000000000338
 11
54.9999999999993605
 21
150.9999999999998863
 31
-0.0000000000000335
210
0.0000000000000002
220
1.0
230
-0.0000000000000002
  0
LINE
  5
17DA
  8
0
  6
VERDECKT
 62
     1
 10
47.9999999999998082
 20
152.0000000000001137
 30
-0.0000000000000338
 11
47.0000000000002629
 21
150.9999999999998863
 31
-0.0000000000000335
210
0.0000000000000002
220
1.0
230
-0.0000000000000002
  0
LINE
  5
17DB
  8
0
  6
VERDECKT
 62
     1
 10
47.9999999999998295
 20
150.0000000000003126
 30
-0.0000000000000333
 11
47.0000000000002913
 21
150.9999999999998863
 31
-0.0000000000000335
210
0.0000000000000002
220
1.0
230
-0.0000000000000002
  0
LINE
  5
17DC
  8
0
  6
VERDECKT
 62
     1
 10
53.9999999999997797
 20
150.0000000000003126
 30
-0.0000000000000333
 11
54.9999999999993179
 21
150.9999999999998863
 31
-0.0000000000000335
210
0.0000000000000002
220
1.0
230
-0.0000000000000002
  0
LINE
  5
17DD
  8
0
  6
VERDECKT
 62
     1
 10
53.999999999999801
 20
150.000000000000199
 30
-0.0000000000000333
 11
54.9999999999993605
 21
149.0
 31
-0.0000000000000331
210
0.0000000000000002
220
1.0
230
-0.0000000000000002
  0
LINE
  5
17DE
  8
0
  6
VERDECKT
 62
     1
 10
47.9999999999998082
 20
150.000000000000199
 30
-0.0000000000000333
 11
47.0000000000002629
 21
149.0
 31
-0.0000000000000331
210
0.0000000000000002
220
1.0
230
-0.0000000000000002
  0
LINE
  5
17DF
  8
0
  6
VERDECKT
 62
     1
 10
47.9999999999998082
 20
148.000000000000199
 30
-0.0000000000000329
 11
47.0000000000002629
 21
149.0
 31
-0.0000000000000331
210
0.0000000000000002
220
1.0
230
-0.0000000000000002
  0
LINE
  5
17E0
  8
0
  6
VERDECKT
 62
     1
 10
53.999999999999801
 20
148.000000000000199
 30
-0.0000000000000329
 11
54.9999999999993605
 21
149.0
 31
-0.0000000000000331
210
0.0000000000000002
220
1.0
230
-0.0000000000000002
  0
LINE
  5
17E1
  8
0
  6
VERDECKT
 62
     1
 10
53.9999999999998366
 20
148.0000000000003126
 30
-0.0000000000000329
 11
54.9999999999989271
 21
147.0000000000003979
 31
-0.0000000000000326
210
0.0000000000000002
220
1.0
230
-0.0000000000000002
  0
LINE
  5
17E2
  8
0
  6
VERDECKT
 62
     1
 10
47.9999999999997797
 20
148.0000000000003126
 30
-0.0000000000000329
 11
47.0000000000006892
 21
147.0000000000003979
 31
-0.0000000000000326
210
0.0000000000000002
220
1.0
230
-0.0000000000000002
  0
LINE
  5
17E3
  8
0
  6
VERDECKT
 62
     1
 10
47.9999999999998082
 20
146.0000000000003126
 30
-0.0000000000000324
 11
47.0000000000007176
 21
147.0000000000003979
 31
-0.0000000000000326
210
0.0000000000000002
220
1.0
230
-0.0000000000000002
  0
LINE
  5
17E4
  8
0
  6
VERDECKT
 62
     1
 10
53.999999999999801
 20
146.0000000000003126
 30
-0.0000000000000324
 11
54.9999999999988916
 21
147.0000000000003979
 31
-0.0000000000000326
210
0.0000000000000002
220
1.0
230
-0.0000000000000002
  0
LINE
  5
17E5
  8
0
  6
VERDECKT
 62
     1
 10
53.9999999999998366
 20
146.0000000000003979
 30
-0.0000000000000324
 11
54.9999999999986997
 21
145.0
 31
-0.0000000000000322
210
0.0000000000000002
220
1.0
230
-0.0000000000000002
  0
LINE
  5
17E6
  8
0
  6
VERDECKT
 62
     1
 10
47.9999999999997797
 20
146.0000000000003979
 30
-0.0000000000000324
 11
47.0000000000009095
 21
145.0
 31
-0.0000000000000322
210
0.0000000000000002
220
1.0
230
-0.0000000000000002
  0
LINE
  5
17E7
  8
0
  6
VERDECKT
 62
     1
 10
47.9999999999997229
 20
144.0000000000003126
 30
-0.000000000000032
 11
47.0000000000008598
 21
144.9999999999998863
 31
-0.0000000000000322
210
0.0000000000000002
220
1.0
230
-0.0000000000000002
  0
LINE
  5
17E8
  8
0
  6
VERDECKT
 62
     1
 10
53.9999999999998934
 20
144.0000000000003126
 30
-0.000000000000032
 11
54.9999999999987494
 21
144.9999999999998863
 31
-0.0000000000000322
210
0.0000000000000002
220
1.0
230
-0.0000000000000002
  0
LINE
  5
17E9
  8
0
  6
VERDECKT
 62
     1
 10
53.999999999999801
 20
144.0000000000003126
 30
-0.000000000000032
 11
54.999999999999801
 21
143.0000000000001137
 31
-0.0000000000000318
210
0.0000000000000002
220
1.0
230
-0.0000000000000002
  0
LINE
  5
17EA
  8
0
  6
VERDECKT
 62
     1
 10
47.9999999999998082
 20
144.0000000000003126
 30
-0.000000000000032
 11
46.999999999999801
 21
143.0000000000001137
 31
-0.0000000000000318
210
0.0000000000000002
220
1.0
230
-0.0000000000000002
  0
LINE
  5
17EB
  8
0
  6
VERDECKT
 62
     1
 10
54.999999999999801
 20
143.0000000000001137
 30
-0.0000000000000318
 11
54.999999999999801
 21
142.000000000000199
 31
-0.0000000000000315
210
0.0000000000000002
220
1.0
230
-0.0000000000000002
  0
LINE
  5
17EC
  8
0
  6
VERDECKT
 62
     1
 10
46.999999999999801
 20
143.0000000000001137
 30
-0.0000000000000318
 11
46.999999999999801
 21
142.000000000000199
 31
-0.0000000000000315
210
0.0000000000000002
220
1.0
230
-0.0000000000000002
  0
LINE
  5
17ED
  8
0
  6
VERDECKT
 62
     1
 10
-58.500000000000199
 20
141.9999999999998863
 30
-0.0000000000000315
 11
58.499999999999801
 21
141.9999999999998863
 31
-0.0000000000000315
210
0.0000000000000002
220
1.0
230
-0.0000000000000002
  0
LINE
  5
17EE
  8
0
  6
VERDECKT
 62
     1
 10
37.7999999999997627
 20
142.0
 30
-0.0000000000000315
 11
37.7999999999997627
 21
140.0
 31
-0.0000000000000311
210
0.0000000000000002
220
1.0
230
-0.0000000000000002
  0
LINE
  5
17EF
  8
0
  6
VERDECKT
 62
     1
 10
-37.8000000000001535
 20
142.0
 30
-0.0000000000000315
 11
-37.8000000000001535
 21
140.0
 31
-0.0000000000000311
210
0.0000000000000002
220
1.0
230
-0.0000000000000002
  0
ARC
  5
17F0
  8
0
  6
VERDECKT
 62
     1
 10
58.4999999999998721
 20
146.0000000000005116
 30
0.0
 40
4.00000000000054
210
0.0
220
-0.0000000000000002
230
-1.0
 50
270.0
 51
300.1874540748210052
  0
ARC
  5
17F1
  8
0
  6
VERDECKT
 62
     1
 10
-58.4999999999994813
 20
146.0000000000005116
 30
0.0
 40
4.0000000000005391
210
0.0
220
-0.0000000000000002
230
-1.0
 50
239.8125459251758969
 51
269.9999999999968736
  0
LINE
  5
17F2
  8
0
  6
VERDECKT
 62
     1
 10
-60.5113227452214488
 20
142.5424602945801951
 30
-0.0000000000000317
 11
-98.3867725477866202
 21
164.5753970541991862
 31
-0.0000000000000365
210
0.0000000000000002
220
1.0
230
-0.0000000000000002
  0
LINE
  5
17F3
  8
0
  6
VERDECKT
 62
     1
 10
60.5113227452210509
 20
142.5424602945801951
 30
-0.0000000000000317
 11
98.3867725477862507
 21
164.5753970541991009
 31
-0.0000000000000365
210
0.0000000000000002
220
1.0
230
-0.0000000000000002
  0
ARC
  5
17F4
  8
0
  6
VERDECKT
 62
     1
 10
118.5000000000000995
 20
129.9999999999994884
 30
0.0
 40
40.0000000000004192
210
0.0
220
-0.0000000000000002
230
-1.0
 50
90.0000000000004405
 51
120.1874540748242026
  0
ARC
  5
17F5
  8
0
  6
VERDECKT
 62
     1
 10
-118.4999999999997016
 20
129.9999999999994031
 30
0.0
 40
40.0000000000004192
210
0.0
220
-0.0000000000000002
230
-1.0
 50
59.8125459251757903
 51
89.9999999999995737
  0
LINE
  5
17F6
  8
0
  6
VERDECKT
 62
     1
 10
-4.0000000000001803
 20
161.0
 30
-0.0000000000000349
 11
3.9999999999998201
 21
161.0
 31
-0.0000000000000366
210
0.0000000000000002
220
1.0
230
-0.0000000000000002
  0
LINE
  5
17F7
  8
0
  6
VERDECKT
 62
     1
 10
-3.0000000000001799
 20
162.0
 30
-0.0000000000000353
 11
2.9999999999998188
 21
162.0
 31
-0.0000000000000366
210
0.0000000000000002
220
1.0
230
-0.0000000000000002
  0
LINE
  5
17F8
  8
0
  6
VERDECKT
 62
     1
 10
-3.0000000000001799
 20
160.0
 30
-0.0000000000000349
 11
2.9999999999998188
 21
160.0
 31
-0.0000000000000362
210
0.0000000000000002
220
1.0
230
-0.0000000000000002
  0
LINE
  5
17F9
  8
0
  6
VERDECKT
 62
     1
 10
-3.9999999999999529
 20
159.0000000000001137
 30
-0.0000000000000344
 11
3.999999999999591
 21
159.0000000000001137
 31
-0.0000000000000362
210
0.0000000000000002
220
1.0
230
-0.0000000000000002
  0
LINE
  5
17FA
  8
0
  6
VERDECKT
 62
     1
 10
-3.0000000000001812
 20
158.0000000000001137
 30
-0.0000000000000344
 11
2.9999999999998179
 21
158.0000000000001137
 31
-0.0000000000000357
210
0.0000000000000002
220
1.0
230
-0.0000000000000002
  0
LINE
  5
17FB
  8
0
  6
VERDECKT
 62
     1
 10
-3.999999999999726
 20
156.999999999999801
 30
-0.000000000000034
 11
3.9999999999993632
 21
156.999999999999801
 31
-0.0000000000000357
210
0.0000000000000002
220
1.0
230
-0.0000000000000002
  0
LINE
  5
17FC
  8
0
  6
VERDECKT
 62
     1
 10
-3.0000000000001812
 20
156.0000000000001137
 30
-0.000000000000034
 11
2.9999999999998179
 21
156.0000000000001137
 31
-0.0000000000000353
210
0.0000000000000002
220
1.0
230
-0.0000000000000002
  0
LINE
  5
17FD
  8
0
  6
VERDECKT
 62
     1
 10
-3.9999999999997269
 20
154.9999999999998863
 30
-0.0000000000000335
 11
3.9999999999993632
 21
154.9999999999998863
 31
-0.0000000000000353
210
0.0000000000000002
220
1.0
230
-0.0000000000000002
  0
LINE
  5
17FE
  8
0
  6
VERDECKT
 62
     1
 10
-2.9999999999994991
 20
154.0000000000001137
 30
-0.0000000000000335
 11
2.9999999999991358
 21
154.0000000000001137
 31
-0.0000000000000349
210
0.0000000000000002
220
1.0
230
-0.0000000000000002
  0
LINE
  5
17FF
  8
0
  6
VERDECKT
 62
     1
 10
-3.9999999999999538
 20
153.000000000000199
 30
-0.0000000000000331
 11
3.9999999999995901
 21
153.000000000000199
 31
-0.0000000000000349
210
0.0000000000000002
220
1.0
230
-0.0000000000000002
  0
LINE
  5
1800
  8
0
  6
VERDECKT
 62
     1
 10
-3.0000000000001821
 20
152.0000000000001137
 30
-0.0000000000000331
 11
2.999999999999817
 21
152.0000000000001137
 31
-0.0000000000000344
210
0.0000000000000002
220
1.0
230
-0.0000000000000002
  0
LINE
  5
1801
  8
0
  6
VERDECKT
 62
     1
 10
-3.9999999999997282
 20
150.9999999999998863
 30
-0.0000000000000326
 11
3.9999999999993618
 21
150.9999999999998863
 31
-0.0000000000000344
210
0.0000000000000002
220
1.0
230
-0.0000000000000002
  0
LINE
  5
1802
  8
0
  6
VERDECKT
 62
     1
 10
-3.0000000000001821
 20
150.000000000000199
 30
-0.0000000000000326
 11
2.999999999999817
 21
150.000000000000199
 31
-0.000000000000034
210
0.0000000000000002
220
1.0
230
-0.0000000000000002
  0
LINE
  5
1803
  8
0
  6
VERDECKT
 62
     1
 10
-3.9999999999997282
 20
149.0
 30
-0.0000000000000322
 11
3.9999999999993618
 21
149.0
 31
-0.000000000000034
210
0.0000000000000002
220
1.0
230
-0.0000000000000002
  0
LINE
  5
1804
  8
0
  6
VERDECKT
 62
     1
 10
-3.000000000000183
 20
148.000000000000199
 30
-0.0000000000000322
 11
2.9999999999998161
 21
148.000000000000199
 31
-0.0000000000000335
210
0.0000000000000002
220
1.0
230
-0.0000000000000002
  0
LINE
  5
1805
  8
0
  6
VERDECKT
 62
     1
 10
-3.999999999999273
 20
147.0000000000003979
 30
-0.0000000000000318
 11
3.9999999999989071
 21
147.0000000000003979
 31
-0.0000000000000335
210
0.0000000000000002
220
1.0
230
-0.0000000000000002
  0
LINE
  5
1806
  8
0
  6
VERDECKT
 62
     1
 10
-3.000000000000183
 20
146.0000000000003126
 30
-0.0000000000000318
 11
2.9999999999998161
 21
146.0000000000003126
 31
-0.0000000000000331
210
0.0000000000000002
220
1.0
230
-0.0000000000000002
  0
LINE
  5
1807
  8
0
  6
VERDECKT
 62
     1
 10
-3.9999999999990461
 20
145.0
 30
-0.0000000000000313
 11
3.9999999999986788
 21
145.0
 31
-0.0000000000000331
210
0.0000000000000002
220
1.0
230
-0.0000000000000002
  0
LINE
  5
1808
  8
0
  6
VERDECKT
 62
     1
 10
-3.0000000000001839
 20
144.0000000000003126
 30
-0.0000000000000313
 11
2.9999999999998148
 21
144.0000000000003126
 31
-0.0000000000000326
210
0.0000000000000002
220
1.0
230
-0.0000000000000002
  0
LINE
  5
1809
  8
0
  6
VERDECKT
 62
     1
 10
-4.000000000000183
 20
143.0000000000001137
 30
-0.0000000000000309
 11
3.9999999999998161
 21
143.0000000000001137
 31
-0.0000000000000326
210
0.0000000000000002
220
1.0
230
-0.0000000000000002
  0
LINE
  5
180A
  8
0
  6
VERDECKT
 62
     1
 10
2.9999999999998188
 20
162.0
 30
-0.0000000000000366
 11
3.9999999999998188
 21
161.0
 31
-0.0000000000000364
210
0.0000000000000002
220
1.0
230
-0.0000000000000002
  0
LINE
  5
180B
  8
0
  6
VERDECKT
 62
     1
 10
-3.0000000000001799
 20
162.0
 30
-0.0000000000000353
 11
-4.0000000000001812
 21
161.0
 31
-0.0000000000000351
210
0.0000000000000002
220
1.0
230
-0.0000000000000002
  0
LINE
  5
180C
  8
0
  6
VERDECKT
 62
     1
 10
-3.0000000000001799
 20
160.0
 30
-0.0000000000000349
 11
-4.0000000000001812
 21
161.0
 31
-0.0000000000000351
210
0.0000000000000002
220
1.0
230
-0.0000000000000002
  0
LINE
  5
180D
  8
0
  6
VERDECKT
 62
     1
 10
2.9999999999998188
 20
160.0
 30
-0.0000000000000362
 11
3.9999999999998188
 21
161.0
 31
-0.0000000000000364
210
0.0000000000000002
220
1.0
230
-0.0000000000000002
  0
LINE
  5
180E
  8
0
  6
VERDECKT
 62
     1
 10
2.9999999999999041
 20
160.0000000000001137
 30
-0.0000000000000362
 11
3.9999999999996771
 21
159.000000000000199
 31
-0.000000000000036
210
0.0000000000000002
220
1.0
230
-0.0000000000000002
  0
LINE
  5
180F
  8
0
  6
VERDECKT
 62
     1
 10
-3.000000000000266
 20
160.0000000000001137
 30
-0.0000000000000349
 11
-4.0000000000000391
 21
159.000000000000199
 31
-0.0000000000000346
210
0.0000000000000002
220
1.0
230
-0.0000000000000002
  0
LINE
  5
1810
  8
0
  6
VERDECKT
 62
     1
 10
-3.000000000000238
 20
158.0000000000001137
 30
-0.0000000000000344
 11
-4.0000000000000098
 21
159.0000000000001137
 31
-0.0000000000000346
210
0.0000000000000002
220
1.0
230
-0.0000000000000002
  0
LINE
  5
1811
  8
0
  6
VERDECKT
 62
     1
 10
2.9999999999998752
 20
158.0000000000001137
 30
-0.0000000000000357
 11
3.9999999999996478
 21
159.0000000000001137
 31
-0.000000000000036
210
0.0000000000000002
220
1.0
230
-0.0000000000000002
  0
LINE
  5
1812
  8
0
  6
VERDECKT
 62
     1
 10
2.9999999999997899
 20
158.0000000000001137
 30
-0.0000000000000357
 11
3.9999999999993352
 21
156.999999999999801
 31
-0.0000000000000355
210
0.0000000000000002
220
1.0
230
-0.0000000000000002
  0
LINE
  5
1813
  8
0
  6
VERDECKT
 62
     1
 10
-3.0000000000001519
 20
158.0000000000001137
 30
-0.0000000000000344
 11
-3.999999999999698
 21
156.999999999999801
 31
-0.0000000000000342
210
0.0000000000000002
220
1.0
230
-0.0000000000000002
  0
LINE
  5
1814
  8
0
  6
VERDECKT
 62
     1
 10
-3.0000000000002101
 20
156.0000000000001137
 30
-0.000000000000034
 11
-3.9999999999997549
 21
156.999999999999801
 31
-0.0000000000000342
210
0.0000000000000002
220
1.0
230
-0.0000000000000002
  0
LINE
  5
1815
  8
0
  6
VERDECKT
 62
     1
 10
2.9999999999998459
 20
156.0000000000001137
 30
-0.0000000000000353
 11
3.999999999999392
 21
156.999999999999801
 31
-0.0000000000000355
210
0.0000000000000002
220
1.0
230
-0.0000000000000002
  0
LINE
  5
1816
  8
0
  6
VERDECKT
 62
     1
 10
2.9999999999998179
 20
156.0000000000001137
 30
-0.0000000000000353
 11
3.9999999999993632
 21
154.9999999999998863
 31
-0.0000000000000351
210
0.0000000000000002
220
1.0
230
-0.0000000000000002
  0
LINE
  5
1817
  8
0
  6
VERDECKT
 62
     1
 10
-3.0000000000001812
 20
156.0000000000001137
 30
-0.000000000000034
 11
-3.9999999999997269
 21
154.9999999999998863
 31
-0.0000000000000338
210
0.0000000000000002
220
1.0
230
-0.0000000000000002
  0
LINE
  5
1818
  8
0
  6
VERDECKT
 62
     1
 10
-2.9999999999995559
 20
154.0000000000001137
 30
-0.0000000000000335
 11
-3.9999999999997842
 21
154.999999999999801
 31
-0.0000000000000338
210
0.0000000000000002
220
1.0
230
-0.0000000000000002
  0
LINE
  5
1819
  8
0
  6
VERDECKT
 62
     1
 10
2.9999999999991922
 20
154.0000000000001137
 30
-0.0000000000000349
 11
3.99999999999942
 21
154.999999999999801
 31
-0.0000000000000351
210
0.0000000000000002
220
1.0
230
-0.0000000000000002
  0
LINE
  5
181A
  8
0
  6
VERDECKT
 62
     1
 10
2.9999999999991069
 20
154.0000000000001137
 30
-0.0000000000000349
 11
3.9999999999995621
 21
153.000000000000199
 31
-0.0000000000000346
210
0.0000000000000002
220
1.0
230
-0.0000000000000002
  0
LINE
  5
181B
  8
0
  6
VERDECKT
 62
     1
 10
-2.9999999999994711
 20
154.0000000000001137
 30
-0.0000000000000335
 11
-3.9999999999999258
 21
153.000000000000199
 31
-0.0000000000000333
210
0.0000000000000002
220
1.0
230
-0.0000000000000002
  0
LINE
  5
181C
  8
0
  6
VERDECKT
 62
     1
 10
-3.0000000000002669
 20
152.0
 30
-0.0000000000000331
 11
-4.00000000000004
 21
153.000000000000199
 31
-0.0000000000000333
210
0.0000000000000002
220
1.0
230
-0.0000000000000002
  0
LINE
  5
181D
  8
0
  6
VERDECKT
 62
     1
 10
2.9999999999999019
 20
152.0
 30
-0.0000000000000344
 11
3.9999999999996749
 21
153.000000000000199
 31
-0.0000000000000346
210
0.0000000000000002
220
1.0
230
-0.0000000000000002
  0
LINE
  5
181E
  8
0
  6
VERDECKT
 62
     1
 10
2.999999999999817
 20
152.0000000000001137
 30
-0.0000000000000344
 11
3.9999999999993618
 21
150.9999999999998863
 31
-0.0000000000000342
210
0.0000000000000002
220
1.0
230
-0.0000000000000002
  0
LINE
  5
181F
  8
0
  6
VERDECKT
 62
     1
 10
-3.0000000000001821
 20
152.0000000000001137
 30
-0.0000000000000331
 11
-3.9999999999997282
 21
150.9999999999998863
 31
-0.0000000000000329
210
0.0000000000000002
220
1.0
230
-0.0000000000000002
  0
LINE
  5
1820
  8
0
  6
VERDECKT
 62
     1
 10
-3.0000000000001541
 20
150.0000000000003126
 30
-0.0000000000000326
 11
-3.9999999999996989
 21
150.9999999999998863
 31
-0.0000000000000329
210
0.0000000000000002
220
1.0
230
-0.0000000000000002
  0
LINE
  5
1821
  8
0
  6
VERDECKT
 62
     1
 10
2.9999999999997882
 20
150.0000000000003126
 30
-0.000000000000034
 11
3.9999999999993339
 21
150.9999999999998863
 31
-0.0000000000000342
210
0.0000000000000002
220
1.0
230
-0.0000000000000002
  0
LINE
  5
1822
  8
0
  6
VERDECKT
 62
     1
 10
2.999999999999817
 20
150.000000000000199
 30
-0.000000000000034
 11
3.9999999999993618
 21
149.0
 31
-0.0000000000000338
210
0.0000000000000002
220
1.0
230
-0.0000000000000002
  0
LINE
  5
1823
  8
0
  6
VERDECKT
 62
     1
 10
-3.0000000000001821
 20
150.000000000000199
 30
-0.0000000000000326
 11
-3.9999999999997282
 21
149.0
 31
-0.0000000000000324
210
0.0000000000000002
220
1.0
230
-0.0000000000000002
  0
LINE
  5
1824
  8
0
  6
VERDECKT
 62
     1
 10
-3.000000000000183
 20
148.000000000000199
 30
-0.0000000000000322
 11
-3.9999999999997282
 21
149.0
 31
-0.0000000000000324
210
0.0000000000000002
220
1.0
230
-0.0000000000000002
  0
LINE
  5
1825
  8
0
  6
VERDECKT
 62
     1
 10
2.9999999999998161
 20
148.000000000000199
 30
-0.0000000000000335
 11
3.9999999999993618
 21
149.0
 31
-0.0000000000000338
210
0.0000000000000002
220
1.0
230
-0.0000000000000002
  0
LINE
  5
1826
  8
0
  6
VERDECKT
 62
     1
 10
2.999999999999845
 20
148.0000000000003126
 30
-0.0000000000000335
 11
3.9999999999989351
 21
147.0000000000003979
 31
-0.0000000000000333
210
0.0000000000000002
220
1.0
230
-0.0000000000000002
  0
LINE
  5
1827
  8
0
  6
VERDECKT
 62
     1
 10
-3.0000000000002109
 20
148.0000000000003126
 30
-0.0000000000000322
 11
-3.9999999999993019
 21
147.0000000000003979
 31
-0.000000000000032
210
0.0000000000000002
220
1.0
230
-0.0000000000000002
  0
LINE
  5
1828
  8
0
  6
VERDECKT
 62
     1
 10
-3.000000000000183
 20
146.0000000000003126
 30
-0.0000000000000318
 11
-3.999999999999273
 21
147.0000000000003979
 31
-0.000000000000032
210
0.0000000000000002
220
1.0
230
-0.0000000000000002
  0
LINE
  5
1829
  8
0
  6
VERDECKT
 62
     1
 10
2.9999999999998161
 20
146.0000000000003126
 30
-0.0000000000000331
 11
3.9999999999989071
 21
147.0000000000003979
 31
-0.0000000000000333
210
0.0000000000000002
220
1.0
230
-0.0000000000000002
  0
LINE
  5
182A
  8
0
  6
VERDECKT
 62
     1
 10
2.9999999999998441
 20
146.0000000000003979
 30
-0.0000000000000331
 11
3.9999999999987068
 21
145.0
 31
-0.0000000000000329
210
0.0000000000000002
220
1.0
230
-0.0000000000000002
  0
LINE
  5
182B
  8
0
  6
VERDECKT
 62
     1
 10
-3.0000000000002118
 20
146.0000000000003979
 30
-0.0000000000000318
 11
-3.999999999999075
 21
145.0
 31
-0.0000000000000315
210
0.0000000000000002
220
1.0
230
-0.0000000000000002
  0
LINE
  5
182C
  8
0
  6
VERDECKT
 62
     1
 10
-3.0000000000002691
 20
144.0000000000003126
 30
-0.0000000000000313
 11
-3.9999999999991318
 21
144.9999999999998863
 31
-0.0000000000000315
210
0.0000000000000002
220
1.0
230
-0.0000000000000002
  0
LINE
  5
182D
  8
0
  6
VERDECKT
 62
     1
 10
2.9999999999999001
 20
144.0000000000003126
 30
-0.0000000000000326
 11
3.9999999999987641
 21
144.9999999999998863
 31
-0.0000000000000329
210
0.0000000000000002
220
1.0
230
-0.0000000000000002
  0
LINE
  5
182E
  8
0
  6
VERDECKT
 62
     1
 10
2.9999999999998148
 20
144.0000000000003126
 30
-0.0000000000000326
 11
3.9999999999998148
 21
143.0000000000001137
 31
-0.0000000000000324
210
0.0000000000000002
220
1.0
230
-0.0000000000000002
  0
LINE
  5
182F
  8
0
  6
VERDECKT
 62
     1
 10
-3.0000000000001839
 20
144.0000000000003126
 30
-0.0000000000000313
 11
-4.0000000000001839
 21
143.0000000000001137
 31
-0.0000000000000311
210
0.0000000000000002
220
1.0
230
-0.0000000000000002
  0
LINE
  5
1830
  8
0
  6
VERDECKT
 62
     1
 10
3.9999999999998148
 20
143.0000000000001137
 30
-0.0000000000000326
 11
3.9999999999998148
 21
142.000000000000199
 31
-0.0000000000000324
210
0.0000000000000002
220
1.0
230
-0.0000000000000002
  0
LINE
  5
1831
  8
0
  6
VERDECKT
 62
     1
 10
-4.000000000000183
 20
143.0000000000001137
 30
-0.0000000000000309
 11
-4.000000000000183
 21
142.000000000000199
 31
-0.0000000000000306
210
0.0000000000000002
220
1.0
230
-0.0000000000000002
  0
ENDBLK
  5
1833
  8
0
  0
BLOCK
  8
0
  2
A$C082E318F
 70
     0
 10
0.0
 20
0.0
 30
0.0
  3
A$C082E318F
  1

  0
CIRCLE
  5
1837
  8
0
  6
CONTINUOUS
 62
     3
 10
-51.0000000000001918
 20
0.0000000000000374
 30
0.0
 40
4.0
  0
CIRCLE
  5
1838
  8
0
  6
CONTINUOUS
 62
     3
 10
-51.0000000000001918
 20
0.0000000000000375
 30
0.0
 40
3.0
  0
CIRCLE
  5
1839
  8
0
  6
CONTINUOUS
 62
     3
 10
-0.0000000000002034
 20
0.0000000000000207
 30
0.0
 40
35.2999999999999901
  0
CIRCLE
  5
183A
  8
0
  6
CONTINUOUS
 62
     3
 10
0.0
 20
0.0000000000000141
 30
0.0
 40
34.4205295596887595
  0
CIRCLE
  5
183B
  8
0
  6
CONTINUOUS
 62
     3
 10
50.999999999999801
 20
0.0000000000000374
 30
0.0
 40
4.0
  0
CIRCLE
  5
183C
  8
0
  6
CONTINUOUS
 62
     3
 10
50.999999999999801
 20
0.0000000000000375
 30
0.0
 40
3.0
  0
CIRCLE
  5
183D
  8
0
  6
CONTINUOUS
 62
     3
 10
-0.0000000000001896
 20
0.000000000000038
 30
0.0
 40
146.0
  0
CIRCLE
  5
183E
  8
0
  6
CONTINUOUS
 62
     3
 10
-0.0000000000001958
 20
0.0000000000000363
 30
0.0
 40
37.7999999999999616
  0
CIRCLE
  5
183F
  8
0
  6
CONTINUOUS
 62
     3
 10
-0.0000000000001916
 20
-50.9999999999999574
 30
0.0
 40
4.0
  0
CIRCLE
  5
1840
  8
0
  6
CONTINUOUS
 62
     3
 10
-0.0000000000001914
 20
-50.9999999999999574
 30
0.0
 40
3.0
  0
CIRCLE
  5
1841
  8
0
  6
CONTINUOUS
 62
     3
 10
-0.0000000000001916
 20
51.0000000000000426
 30
0.0
 40
4.0
  0
CIRCLE
  5
1842
  8
0
  6
CONTINUOUS
 62
     3
 10
-0.0000000000001914
 20
51.0000000000000426
 30
0.0
 40
3.0
  0
CIRCLE
  5
1843
  8
0
  6
VERDECKT
 62
     1
 10
-0.0000000000001986
 20
0.000000000000022
 30
0.0
 40
40.3999999999998707
  0
CIRCLE
  5
1844
  8
0
  6
VERDECKT
 62
     1
 10
0.0
 20
0.0000000000000141
 30
0.0
 40
35.6251133647407983
  0
CIRCLE
  5
1845
  8
0
  6
VERDECKT
 62
     1
 10
-0.0000000000002034
 20
0.0000000000000207
 30
0.0
 40
36.4999999999999218
  0
CIRCLE
  5
1846
  8
0
  6
VERDECKT
 62
     1
 10
-0.0000000000001986
 20
0.000000000000022
 30
0.0
 40
41.5999999999999233
  0
CIRCLE
  5
1847
  8
0
  6
VERDECKT
 62
     1
 10
-0.0000000000001963
 20
0.0000000000000227
 30
0.0
 40
39.235332243976238
  0
CIRCLE
  5
1848
  8
0
  6
VERDECKT
 62
     1
 10
-0.0000000000001963
 20
0.0000000000000227
 30
0.0
 40
37.8999999999999702
  0
ENDBLK
  5
184A
  8
0
  0
ENDSEC
  0
SECTION
  2
ENTITIES
  0
TEXT
  5
8F
  8
VOLL
 10
78.076754716981128
 20
31.025947764705851
 30
0.0
 40
1.8
  1

  7
GREEKS
  0
TEXT
  5
96
  8
TEXT
 10
225.1296391125314926
 20
71.5033441758528738
 30
0.0
 40
5.0
  1

 41
0.8
  7
GREEKS
  0
TEXT
  5
948
  8
TEXT
 62
     1
 10
234.6057658946467939
 20
129.0783465745483056
 30
0.0
 40
7.0
  1

 41
0.8
  7
GREEKS
  0
TEXT
  5
13C7
  8
VOLL
 10
1902.5026447436810031
 20
348.2155653021698072
 30
0.0
 40
3.6000000000000001
  1

  7
GREEKS
  0
TEXT
  5
13C8
  8
VOLL
 10
2145.3081820820430039
 20
762.8563813926947432
 30
0.0
 40
3.6000000000000001
  1

  7
GREEKS
  0
TEXT
  5
13C9
  8
VOLL
 10
2804.974604010883013
 20
395.6775333245083743
 30
0.0
 40
3.6000000000000001
  1

  7
GREEKS
  0
TEXT
  5
13CA
  8
VOLL
 10
2797.3100509822079403
 20
373.2698858675867086
 30
0.0
 40
3.6000000000000001
  1

  7
GREEKS
  0
INSERT
  5
1834
  8
0
  2
A$C026101EE
 10
0.0
 20
0.0000000000000141
 30
0.0
  0
INSERT
  5
184B
  8
0
  2
A$C082E318F
 10
0.0000000000001892
 20
-184.5877133519956885
 30
0.0
  0
VIEWPORT
  5
152A
 67
     1
  8
0
 10
8.3694172767161348
 20
5.9216302261623079
 30
0.0
 40
42.06027184937615
 41
22.2819297297290291
 68
     1
 69
     1
1001
ACAD
1000
MVIEW
1002
{
1070
    16
1010
0.0
1020
0.0
1030
0.0
1010
0.0
1020
0.0
1030
1.0
1040
0.0
1040
22.2819297297290291
1040
8.3694172767161348
1040
5.9216302261623079
1040
50.0
1040
0.0
1040
0.0
1070
     0
1070
  1500
1070
     1
1070
     1
1070
     0
1070
     0
1070
     0
1070
     0
1040
0.0
1040
0.0
1040
0.0
1040
10.0
1040
10.0
1040
10.0
1040
10.0
1070
     0
1002
{
1002
}
1002
}
  0
ENDSEC
  0
EOF
