  0
SECTION
  2
HEADER
  9
$ACADVER
  1
AC1009
  9
$INSBASE
 10
0.0
 20
0.0
 30
0.0
  9
$EXTMIN
 10
-1100.0
 20
-950.0000000000004547
 30
-0.0000000000000853
  9
$EXTMAX
 10
369.9999999999998863
 20
170.0
 30
0.0000000000000853
  9
$LIMMIN
 10
0.0
 20
0.0
  9
$LIMMAX
 10
420.0
 20
297.0
  9
$ORTHOMODE
 70
     1
  9
$REGENMODE
 70
     1
  9
$FILLMODE
 70
     1
  9
$QTEXTMODE
 70
     0
  9
$MIRRTEXT
 70
     1
  9
$DRAGMODE
 70
     2
  9
$LTSCALE
 40
10.0
  9
$OSMODE
 70
   511
  9
$ATTMODE
 70
     1
  9
$TEXTSIZE
 40
3.5
  9
$TRACEWID
 40
1.0
  9
$TEXTSTYLE
  7
STANDARD
  9
$CLAYER
  8
STEMPEL
  9
$CELTYPE
  6
BYLAYER
  9
$CECOLOR
 62
   256
  9
$DIMSCALE
 40
1.0
  9
$DIMASZ
 40
3.5
  9
$DIMEXO
 40
1.0
  9
$DIMDLI
 40
0.38
  9
$DIMRND
 40
0.0
  9
$DIMDLE
 40
0.0
  9
$DIMEXE
 40
1.0
  9
$DIMTP
 40
0.0
  9
$DIMTM
 40
0.000000001
  9
$DIMTXT
 40
3.5
  9
$DIMCEN
 40
0.09
  9
$DIMTSZ
 40
0.0
  9
$DIMTOL
 70
     0
  9
$DIMLIM
 70
     0
  9
$DIMTIH
 70
     0
  9
$DIMTOH
 70
     0
  9
$DIMSE1
 70
     0
  9
$DIMSE2
 70
     0
  9
$DIMTAD
 70
     1
  9
$DIMZIN
 70
     8
  9
$DIMBLK
  1

  9
$DIMASO
 70
     1
  9
$DIMSHO
 70
     0
  9
$DIMPOST
  1

  9
$DIMAPOST
  1

  9
$DIMALT
 70
     0
  9
$DIMALTD
 70
     2
  9
$DIMALTF
 40
25.3999999999999986
  9
$DIMLFAC
 40
5.0
  9
$DIMTOFL
 70
     1
  9
$DIMTVP
 40
0.0
  9
$DIMTIX
 70
     0
  9
$DIMSOXD
 70
     0
  9
$DIMSAH
 70
     0
  9
$DIMBLK1
  1

  9
$DIMBLK2
  1

  9
$DIMSTYLE
  2
LORO
  9
$DIMCLRD
 70
     0
  9
$DIMCLRE
 70
     0
  9
$DIMCLRT
 70
     1
  9
$DIMTFAC
 40
0.5
  9
$DIMGAP
 40
1.5
  9
$LUNITS
 70
     2
  9
$LUPREC
 70
     2
  9
$SKETCHINC
 40
1.0
  9
$FILLETRAD
 40
0.0
  9
$AUNITS
 70
     0
  9
$AUPREC
 70
     0
  9
$MENU
  1
ACAD
  9
$ELEVATION
 40
0.0
  9
$PELEVATION
 40
0.0
  9
$THICKNESS
 40
0.0
  9
$LIMCHECK
 70
     0
  9
$BLIPMODE
 70
     0
  9
$CHAMFERA
 40
0.0
  9
$CHAMFERB
 40
0.0
  9
$SKPOLY
 70
     0
  9
$TDCREATE
 40
2455397.867048610933125
  9
$TDUPDATE
 40
2460278.5454513891600072
  9
$TDINDWG
 40
0.618755706
  9
$TDUSRTIMER
 40
0.618755706
  9
$USRTIMER
 70
     1
  9
$ANGBASE
 50
0.0
  9
$ANGDIR
 70
     0
  9
$PDMODE
 70
     0
  9
$PDSIZE
 40
0.0
  9
$PLINEWID
 40
0.0
  9
$COORDS
 70
     1
  9
$SPLFRAME
 70
     0
  9
$SPLINETYPE
 70
     6
  9
$SPLINESEGS
 70
     8
  9
$ATTDIA
 70
     1
  9
$ATTREQ
 70
     1
  9
$HANDLING
 70
     1
  9
$HANDSEED
  5
49FE
  9
$SURFTAB1
 70
     6
  9
$SURFTAB2
 70
     6
  9
$SURFTYPE
 70
     6
  9
$SURFU
 70
     6
  9
$SURFV
 70
     6
  9
$UCSNAME
  2

  9
$UCSORG
 10
0.0
 20
0.0
 30
0.0
  9
$UCSXDIR
 10
1.0
 20
0.0
 30
0.0
  9
$UCSYDIR
 10
0.0
 20
1.0
 30
0.0
  9
$PUCSNAME
  2

  9
$PUCSORG
 10
0.0
 20
0.0
 30
0.0
  9
$PUCSXDIR
 10
1.0
 20
0.0
 30
0.0
  9
$PUCSYDIR
 10
0.0
 20
1.0
 30
0.0
  9
$USERI1
 70
     0
  9
$USERI2
 70
     0
  9
$USERI3
 70
     0
  9
$USERI4
 70
     0
  9
$USERI5
 70
     0
  9
$USERR1
 40
0.0
  9
$USERR2
 40
0.0
  9
$USERR3
 40
0.0
  9
$USERR4
 40
0.0
  9
$USERR5
 40
0.0
  9
$WORLDVIEW
 70
     1
  9
$SHADEDGE
 70
     3
  9
$SHADEDIF
 70
    70
  9
$TILEMODE
 70
     1
  9
$MAXACTVP
 70
    16
  9
$PLIMCHECK
 70
     0
  9
$PEXTMIN
 10
1.0000000000000000E+20
 20
1.0000000000000000E+20
 30
1.0000000000000000E+20
  9
$PEXTMAX
 10
-1.0000000000000000E+20
 20
-1.0000000000000000E+20
 30
-1.0000000000000000E+20
  9
$PLIMMIN
 10
-0.2797506448162039
 20
-0.2402878522961487
  9
$PLIMMAX
 10
419.7202493551837961
 20
296.7597121477039082
  9
$UNITMODE
 70
     0
  9
$VISRETAIN
 70
     0
  9
$PLINEGEN
 70
     0
  9
$PSLTSCALE
 70
     0
  0
ENDSEC
  0
SECTION
  2
TABLES
  0
TABLE
  2
VPORT
 70
     1
  0
VPORT
  2
*ACTIVE
 70
     0
 10
0.0
 20
0.0
 11
1.0
 21
1.0
 12
-386.797094438590193
 22
-341.7710267928766825
 13
0.0
 23
0.0
 14
1.0
 24
1.0
 15
10.0
 25
10.0
 16
0.000000000001112
 26
0.0
 36
5015.1465809318506217
 17
21.7970944385899088
 27
-48.2289732071235377
 37
0.0000000000000208
 40
1125.7289002557549793
 41
1.8720136518771331
 42
50.0
 43
0.0
 44
0.0
 50
0.0
 51
0.0
 71
     0
 72
  1500
 73
     1
 74
     0
 75
     0
 76
     0
 77
     0
 78
     0
  0
ENDTAB
  0
TABLE
  2
LTYPE
 70
     4
  0
LTYPE
  2
CONTINUOUS
 70
     0
  3
Solid line
 72
    65
 73
     0
 40
0.0
  0
LTYPE
  2
STRICHPUNKT
 70
     0
  3
__ . __ . __ . __ . __ . __ . __ . __ . __ . __
 72
    65
 73
     4
 40
1.0
 49
0.5
 49
-0.25
 49
0.0
 49
-0.25
  0
LTYPE
  2
VERDECKT
 70
     0
  3
Verdeckt __ __ __ __ __ __ __ __ __ __ __ __ __
 72
    65
 73
     2
 40
0.375
 49
0.25
 49
-0.125
  0
ENDTAB
  0
TABLE
  2
LAYER
 70
     5
  0
LAYER
  2
0
 70
     0
 62
     7
  6
CONTINUOUS
  0
LAYER
  2
STEMPEL
 70
     0
 62
     3
  6
CONTINUOUS
  0
LAYER
  2
ADSK_ASSOC_ENTITY_BACKUPS
 70
     1
 62
    -7
  6
CONTINUOUS
  0
ENDTAB
  0
TABLE
  2
STYLE
 70
     3
  0
STYLE
  2
STANDARD
 70
     0
 40
0.0
 41
0.8
 50
0.0
 71
     0
 42
3.5
  3
simplex.shx
  4

  0
ENDTAB
  0
TABLE
  2
VIEW
 70
     0
  0
ENDTAB
  0
TABLE
  2
UCS
 70
     0
  0
ENDTAB
  0
TABLE
  2
APPID
 70
    27
  0
APPID
  2
ACAD
 70
     0
  0
APPID
  2
ACAD_NAV_VCDISPLAY
 70
     0
  0
APPID
  2
GRADIENTCOLOR1ACI
 70
     0
  0
APPID
  2
GRADIENTCOLOR2ACI
 70
     0
  0
APPID
  2
ACAD_DSTYLE_DIMRADIAL_EXTENSION
 70
     0
  0
APPID
  2
ACADANNOMONITORALERTICONDI
 70
     0
  0
APPID
  2
ACAD_EXEMPT_FROM_CAD_STANDARDS
 70
     0
  0
APPID
  2
ACAD_MLEADERVER
 70
     0
  0
APPID
  2
ACAD_PSEXT
 70
     0
  0
APPID
  2
ACAECLAYERSTANDARD
 70
     0
  0
APPID
  2
ACAUTHENVIRON
 70
     0
  0
APPID
  2
ACCMTRANSPARENCY
 70
     0
  0
APPID
  2
ACAD_STEPID
 70
     0
  0
APPID
  2
ACSYNERGY
 70
     0
  0
APPID
  2
SYNERGY_BODY_TBR_ID
 70
     0
  0
APPID
  2
ACAD_VIEW_EDGE_ID
 70
     0
  0
APPID
  2
ACAD_MODELDOC_XFORM
 70
     0
  0
APPID
  2
ACAD_DIMASSOC_CALC_DIMLFAC
 70
     0
  0
APPID
  2
ACAD_DIMASSOC_DIMLFAC
 70
     0
  0
APPID
  2
ACAD_DIMASSOC_OVERRIDDEN_D
 70
     0
  0
APPID
  2
ACSYNERGYSKETCH
 70
     0
  0
APPID
  2
ACAD_DSTYLE_DIMJAG
 70
     0
  0
APPID
  2
ACAD_DSTYLE_DIMTALN
 70
     0
  0
APPID
  2
ACDBDYNAMICBLOCKGUID
 70
     0
  0
APPID
  2
ACAD_DSTYLE_DIMBREAK
 70
     0
  0
APPID
  2
PLOTTRANSPARENCY
 70
     0
  0
APPID
  2
ACADANNOPO
 70
     0
  0
ENDTAB
  0
TABLE
  2
DIMSTYLE
 70
     2
  0
DIMSTYLE
  2
LORO
 70
     0
  3

  4

  5

  6

  7

 40
1.0
 41
3.5
 42
1.0
 43
0.38
 44
1.0
 45
0.0
 46
0.0
 47
0.0
 48
0.000000001
140
3.5
141
0.09
142
0.0
143
25.3999999999999986
144
5.0
145
0.0
146
0.5
147
1.5
 71
     0
 72
     0
 73
     0
 74
     0
 75
     0
 76
     0
 77
     1
 78
     8
170
     0
171
     2
172
     1
173
     0
174
     0
175
     0
176
     0
177
     0
178
     1
  0
ENDTAB
  0
ENDSEC
  0
SECTION
  2
BLOCKS
  0
BLOCK
  8
0
  2
$MODEL_SPACE
 70
     0
 10
0.0
 20
0.0
 30
0.0
  3
$MODEL_SPACE
  1

  0
ENDBLK
  5
38
  8
0
  0
BLOCK
 67
     1
  8
0
  2
$PAPER_SPACE
 70
     0
 10
0.0
 20
0.0
 30
0.0
  3
$PAPER_SPACE
  1

  0
ENDBLK
  5
36
 67
     1
  8
0
  0
BLOCK
  8
0
  2
*S0
 70
     1
 10
0.0
 20
0.0
 30
0.0
  3
*S0
  1

  0
ENDBLK
  5
D6E
  8
0
  0
BLOCK
  8
0
  2
A$C23C8D515
 70
     0
 10
0.0
 20
0.0
 30
0.0
  3
A$C23C8D515
  1

  0
LINE
  5
4119
  8
0
  6
CONTINUOUS
 62
     3
 10
-370.0000000000001137
 20
1.499999999999895
 30
0.0000000000000853
 11
-370.0000000000001137
 21
-0.0000000000001048
 31
0.0000000000000853
  0
LINE
  5
411A
  8
0
  6
CONTINUOUS
 62
     3
 10
-350.0000000000001137
 20
-0.0000000000001036
 30
0.0000000000000853
 11
-370.0000000000001137
 21
-0.0000000000001048
 31
0.0000000000000853
  0
LINE
  5
411B
  8
0
  6
CONTINUOUS
 62
     3
 10
-350.0000000000001137
 20
1.4999999999998961
 30
0.0000000000000853
 11
-370.0000000000001137
 21
1.499999999999895
 31
0.0000000000000853
  0
LINE
  5
411C
  8
0
  6
CONTINUOUS
 62
     3
 10
-350.0000000000001137
 20
-0.0000000000001035
 30
0.0000000000000853
 11
349.9999999999998863
 21
-0.0000000000001035
 31
-0.0000000000000702
  0
LINE
  5
411D
  8
0
  6
CONTINUOUS
 62
     3
 10
-350.0000000000001137
 20
1.4999999999998961
 30
0.0000000000000853
 11
349.9999999999998863
 21
1.4999999999998961
 31
-0.0000000000000702
  0
LINE
  5
411E
  8
0
  6
CONTINUOUS
 62
     3
 10
369.9999999999998863
 20
-0.0000000000001048
 30
-0.0000000000000853
 11
349.9999999999998863
 21
-0.0000000000001036
 31
-0.0000000000000853
  0
LINE
  5
411F
  8
0
  6
CONTINUOUS
 62
     3
 10
369.9999999999998863
 20
1.499999999999895
 30
-0.0000000000000853
 11
369.9999999999998863
 21
-0.0000000000001048
 31
-0.0000000000000853
  0
LINE
  5
4120
  8
0
  6
CONTINUOUS
 62
     3
 10
369.9999999999998863
 20
1.499999999999895
 30
-0.0000000000000853
 11
349.9999999999998863
 21
1.4999999999998961
 31
-0.0000000000000853
  0
LINE
  5
4121
  8
0
  6
CONTINUOUS
 62
     3
 10
249.25
 20
508.369012008824825
 30
-0.0000000000000568
 11
249.25
 21
484.6655413718900718
 31
-0.0000000000000568
  0
LINE
  5
4122
  8
0
  6
CONTINUOUS
 62
     3
 10
249.25
 20
484.6655413718900718
 30
-0.0000000000000568
 11
249.25
 21
484.5870374375257938
 31
-0.0000000000000568
  0
LINE
  5
4123
  8
0
  6
CONTINUOUS
 62
     3
 10
249.25
 20
1.5785039343649381
 30
-0.0000000000000568
 11
249.25
 21
1.5000000000005229
 31
-0.0000000000000568
  0
LINE
  5
4124
  8
0
  6
CONTINUOUS
 62
     3
 10
249.25
 20
19.8034929436359484
 30
-0.0000000000000568
 11
249.25
 21
1.578503934364992
 31
-0.0000000000000568
  0
LINE
  5
4125
  8
0
  6
CONTINUOUS
 62
     3
 10
249.25
 20
25.2959553847861116
 30
-0.0000000000000568
 11
249.25
 21
25.2174514504216916
 31
-0.0000000000000568
  0
LINE
  5
4126
  8
0
  6
CONTINUOUS
 62
     3
 10
249.25
 20
134.6458894404119917
 30
-0.0000000000000568
 11
249.25
 21
25.2959553847860796
 31
-0.0000000000000568
  0
LINE
  5
4127
  8
0
  6
CONTINUOUS
 62
     3
 10
249.25
 20
140.1383518815621869
 30
-0.0000000000000568
 11
249.25
 21
140.05984794719771
 31
-0.0000000000000568
  0
LINE
  5
4128
  8
0
  6
CONTINUOUS
 62
     3
 10
249.25
 20
249.4882859371880102
 30
-0.0000000000000568
 11
249.25
 21
140.1383518815621869
 31
-0.0000000000000568
  0
LINE
  5
4129
  8
0
  6
CONTINUOUS
 62
     3
 10
249.25
 20
254.9807483783382054
 30
-0.0000000000000568
 11
249.25
 21
254.9022444439738138
 31
-0.0000000000000568
  0
LINE
  5
412A
  8
0
  6
CONTINUOUS
 62
     3
 10
249.25
 20
364.3306824339640002
 30
-0.0000000000000568
 11
249.25
 21
254.9807483783382054
 31
-0.0000000000000568
  0
LINE
  5
412B
  8
0
  6
CONTINUOUS
 62
     3
 10
249.25
 20
369.8231448751142807
 30
-0.0000000000000568
 11
249.25
 21
369.7446409407498891
 31
-0.0000000000000568
  0
LINE
  5
412C
  8
0
  6
CONTINUOUS
 62
     3
 10
249.25
 20
479.1730789307400187
 30
-0.0000000000000568
 11
249.25
 21
369.8231448751142239
 31
-0.0000000000000568
  0
LINE
  5
412D
  8
0
  6
CONTINUOUS
 62
     3
 10
249.25
 20
369.8231448751142239
 30
-0.0000000000000568
 11
248.5
 21
369.8231448751142239
 31
-0.0000000000000567
  0
LINE
  5
412E
  8
0
  6
CONTINUOUS
 62
     3
 10
249.25
 20
369.7446409407497754
 30
-0.0000000000000568
 11
248.5
 21
369.7446409407497754
 31
-0.0000000000000567
  0
LINE
  5
412F
  8
0
  6
CONTINUOUS
 62
     3
 10
249.25
 20
254.9807483783382054
 30
-0.0000000000000568
 11
248.4999999999998863
 21
254.9807483783382054
 31
-0.0000000000000567
  0
LINE
  5
4130
  8
0
  6
CONTINUOUS
 62
     3
 10
249.25
 20
254.9022444439738138
 30
-0.0000000000000568
 11
248.4999999999998863
 21
254.9022444439738138
 31
-0.0000000000000567
  0
LINE
  5
4131
  8
0
  6
CONTINUOUS
 62
     3
 10
249.25
 20
140.1383518815621869
 30
-0.0000000000000568
 11
248.5
 21
140.1383518815621869
 31
-0.0000000000000567
  0
LINE
  5
4132
  8
0
  6
CONTINUOUS
 62
     3
 10
249.25
 20
140.05984794719771
 30
-0.0000000000000568
 11
248.5
 21
140.05984794719771
 31
-0.0000000000000567
  0
LINE
  5
4133
  8
0
  6
CONTINUOUS
 62
     3
 10
249.25
 20
25.2959553847860903
 30
-0.0000000000000568
 11
248.5
 21
25.2959553847860903
 31
-0.0000000000000567
  0
LINE
  5
4134
  8
0
  6
CONTINUOUS
 62
     3
 10
249.25
 20
25.2174514504216916
 30
-0.0000000000000568
 11
248.5
 21
25.2174514504216916
 31
-0.0000000000000567
  0
LINE
  5
4135
  8
0
  6
CONTINUOUS
 62
     3
 10
249.25
 20
1.5785039343649909
 30
-0.0000000000000568
 11
152.5
 21
1.5785039343649909
 31
-0.0000000000000354
  0
LINE
  5
4136
  8
0
  6
CONTINUOUS
 62
     3
 10
-248.5
 20
25.2174514504216916
 30
0.0000000000000568
 11
-249.2499999999998863
 21
25.2174514504216916
 31
0.000000000000057
  0
LINE
  5
4137
  8
0
  6
CONTINUOUS
 62
     3
 10
-248.5
 20
140.05984794719771
 30
0.0000000000000568
 11
-249.2499999999998863
 21
140.05984794719771
 31
0.000000000000057
  0
LINE
  5
4138
  8
0
  6
CONTINUOUS
 62
     3
 10
-248.4999999999998863
 20
254.9022444439738138
 30
0.0000000000000568
 11
-249.2499999999998863
 21
254.9022444439738138
 31
0.000000000000057
  0
LINE
  5
4139
  8
0
  6
CONTINUOUS
 62
     3
 10
-248.5
 20
369.7446409407497754
 30
0.0000000000000568
 11
-249.2499999999998863
 21
369.7446409407497754
 31
0.000000000000057
  0
LINE
  5
413A
  8
0
  6
CONTINUOUS
 62
     3
 10
-248.4999999999998863
 20
484.5870374375256802
 30
0.0000000000000568
 11
-249.2499999999998863
 21
484.5870374375256802
 31
0.000000000000057
  0
LINE
  5
413B
  8
0
  6
CONTINUOUS
 62
     3
 10
249.25
 20
484.5870374375256802
 30
-0.0000000000000568
 11
248.4999999999998863
 21
484.5870374375256802
 31
-0.0000000000000567
  0
LINE
  5
413C
  8
0
  6
CONTINUOUS
 62
     3
 10
249.25
 20
484.6655413718900718
 30
-0.0000000000000568
 11
248.4999999999998863
 21
484.6655413718900718
 31
-0.0000000000000567
  0
LINE
  5
413D
  8
0
  6
CONTINUOUS
 62
     3
 10
248.4999999999998863
 20
484.6655413718900718
 30
-0.0000000000000568
 11
248.4999999999998863
 21
479.1730789307400187
 31
-0.0000000000000568
  0
LINE
  5
413E
  8
0
  6
CONTINUOUS
 62
     3
 10
248.4999999999998863
 20
479.1730789307400187
 30
-0.0000000000000568
 11
249.25
 21
479.1730789307400187
 31
-0.000000000000057
  0
LINE
  5
413F
  8
0
  6
CONTINUOUS
 62
     3
 10
248.5
 20
369.8231448751142239
 30
-0.0000000000000568
 11
248.5
 21
364.3306824339640002
 31
-0.0000000000000568
  0
LINE
  5
4140
  8
0
  6
CONTINUOUS
 62
     3
 10
248.5
 20
364.3306824339640002
 30
-0.0000000000000568
 11
249.25
 21
364.3306824339640002
 31
-0.000000000000057
  0
LINE
  5
4141
  8
0
  6
CONTINUOUS
 62
     3
 10
248.4999999999998863
 20
254.9807483783382054
 30
-0.0000000000000568
 11
248.4999999999998863
 21
249.4882859371880102
 31
-0.0000000000000568
  0
LINE
  5
4142
  8
0
  6
CONTINUOUS
 62
     3
 10
248.4999999999998863
 20
249.4882859371880102
 30
-0.0000000000000568
 11
249.25
 21
249.4882859371880102
 31
-0.000000000000057
  0
LINE
  5
4143
  8
0
  6
CONTINUOUS
 62
     3
 10
248.5
 20
140.1383518815621869
 30
-0.0000000000000568
 11
248.5
 21
134.6458894404119917
 31
-0.0000000000000568
  0
LINE
  5
4144
  8
0
  6
CONTINUOUS
 62
     3
 10
248.5
 20
134.6458894404119917
 30
-0.0000000000000568
 11
249.25
 21
134.6458894404119917
 31
-0.000000000000057
  0
LINE
  5
4145
  8
0
  6
CONTINUOUS
 62
     3
 10
248.5
 20
25.2959553847860903
 30
-0.0000000000000568
 11
248.5
 21
19.8034929436359199
 31
-0.0000000000000568
  0
LINE
  5
4146
  8
0
  6
CONTINUOUS
 62
     3
 10
248.5
 20
19.8034929436359484
 30
-0.0000000000000568
 11
249.25
 21
19.803492943635959
 31
-0.000000000000057
  0
LINE
  5
4147
  8
0
  6
CONTINUOUS
 62
     3
 10
152.5
 20
1.5785039343649909
 30
-0.0000000000000355
 11
152.5
 21
1.4999999999998961
 31
-0.0000000000000355
  0
LINE
  5
4148
  8
0
  6
CONTINUOUS
 62
     3
 10
147.5
 20
1.4999999999998961
 30
-0.0000000000000355
 11
147.5
 21
1.578503934364982
 31
-0.0000000000000355
  0
LINE
  5
4149
  8
0
  6
CONTINUOUS
 62
     3
 10
147.5
 20
1.5785039343649909
 30
-0.0000000000000355
 11
2.5
 21
1.5785039343649909
 31
-0.0000000000000033
  0
LINE
  5
414A
  8
0
  6
CONTINUOUS
 62
     3
 10
2.499999999999988
 20
1.5785039343649909
 30
0.0
 11
2.499999999999988
 21
1.4999999999998961
 31
0.0
  0
LINE
  5
414B
  8
0
  6
CONTINUOUS
 62
     3
 10
-2.5000000000000102
 20
1.4999999999998961
 30
0.0
 11
-2.5000000000000102
 21
1.5785039343650169
 31
0.0
  0
LINE
  5
414C
  8
0
  6
CONTINUOUS
 62
     3
 10
-2.5000000000000111
 20
1.57850393436502
 30
0.0
 11
-147.5
 21
1.578503934364984
 31
0.0000000000000322
  0
LINE
  5
414D
  8
0
  6
CONTINUOUS
 62
     3
 10
-147.5
 20
1.5785039343649909
 30
0.0000000000000355
 11
-147.5
 21
1.4999999999998961
 31
0.0000000000000355
  0
LINE
  5
414E
  8
0
  6
CONTINUOUS
 62
     3
 10
-152.5
 20
1.4999999999998961
 30
0.0000000000000355
 11
-152.5
 21
1.578503934364982
 31
0.0000000000000355
  0
LINE
  5
414F
  8
0
  6
CONTINUOUS
 62
     3
 10
-249.2499999999998863
 20
1.5000000000005509
 30
0.0000000000000568
 11
-249.2499999999998863
 21
1.5785039343649661
 31
0.0000000000000568
  0
LINE
  5
4150
  8
0
  6
CONTINUOUS
 62
     3
 10
-152.5
 20
1.5785039343649909
 30
0.0000000000000355
 11
-249.2499999999998863
 21
1.578503934365026
 31
0.000000000000057
  0
LINE
  5
4151
  8
0
  6
CONTINUOUS
 62
     3
 10
-248.5
 20
19.8034929436359484
 30
0.0000000000000568
 11
-248.5
 21
25.2959553847861116
 31
0.0000000000000568
  0
LINE
  5
4152
  8
0
  6
CONTINUOUS
 62
     3
 10
-249.2499999999998863
 20
25.2174514504216916
 30
0.0000000000000568
 11
-249.2499999999998863
 21
25.2959553847861116
 31
0.0000000000000568
  0
LINE
  5
4153
  8
0
  6
CONTINUOUS
 62
     3
 10
-248.5
 20
25.2959553847860903
 30
0.0000000000000568
 11
-249.2499999999998863
 21
25.2959553847860903
 31
0.000000000000057
  0
LINE
  5
4154
  8
0
  6
CONTINUOUS
 62
     3
 10
-248.5
 20
134.6458894404119917
 30
0.0000000000000568
 11
-248.5
 21
140.1383518815621869
 31
0.0000000000000568
  0
LINE
  5
4155
  8
0
  6
CONTINUOUS
 62
     3
 10
-249.2499999999998863
 20
140.05984794719771
 30
0.0000000000000568
 11
-249.2499999999998863
 21
140.1383518815621869
 31
0.0000000000000568
  0
LINE
  5
4156
  8
0
  6
CONTINUOUS
 62
     3
 10
-248.5
 20
140.1383518815621869
 30
0.0000000000000568
 11
-249.2499999999998863
 21
140.1383518815621869
 31
0.000000000000057
  0
LINE
  5
4157
  8
0
  6
CONTINUOUS
 62
     3
 10
-248.4999999999998863
 20
249.4882859371880102
 30
0.0000000000000568
 11
-248.4999999999998863
 21
254.9807483783382054
 31
0.0000000000000568
  0
LINE
  5
4158
  8
0
  6
CONTINUOUS
 62
     3
 10
-249.2499999999998863
 20
254.9022444439738138
 30
0.0000000000000568
 11
-249.2499999999998863
 21
254.9807483783382054
 31
0.0000000000000568
  0
LINE
  5
4159
  8
0
  6
CONTINUOUS
 62
     3
 10
-248.4999999999998863
 20
254.9807483783382054
 30
0.0000000000000568
 11
-249.2499999999998863
 21
254.9807483783382054
 31
0.000000000000057
  0
LINE
  5
415A
  8
0
  6
CONTINUOUS
 62
     3
 10
-248.5
 20
364.3306824339640002
 30
0.0000000000000568
 11
-248.5
 21
369.8231448751142239
 31
0.0000000000000568
  0
LINE
  5
415B
  8
0
  6
CONTINUOUS
 62
     3
 10
-249.2499999999998863
 20
369.7446409407498891
 30
0.0000000000000568
 11
-249.2499999999998863
 21
369.8231448751142807
 31
0.0000000000000568
  0
LINE
  5
415C
  8
0
  6
CONTINUOUS
 62
     3
 10
-248.5
 20
369.8231448751142239
 30
0.0000000000000568
 11
-249.2499999999998863
 21
369.8231448751142239
 31
0.000000000000057
  0
LINE
  5
415D
  8
0
  6
CONTINUOUS
 62
     3
 10
-248.4999999999998863
 20
479.1730789307400187
 30
0.0000000000000568
 11
-248.4999999999998863
 21
484.6655413718900718
 31
0.0000000000000568
  0
LINE
  5
415E
  8
0
  6
CONTINUOUS
 62
     3
 10
-249.2499999999998863
 20
484.5870374375257938
 30
0.0000000000000568
 11
-249.2499999999998863
 21
484.6655413718900718
 31
0.0000000000000568
  0
LINE
  5
415F
  8
0
  6
CONTINUOUS
 62
     3
 10
-248.4999999999998863
 20
484.6655413718900718
 30
0.0000000000000568
 11
-249.2499999999998863
 21
484.6655413718900718
 31
0.000000000000057
  0
LINE
  5
4160
  8
0
  6
CONTINUOUS
 62
     3
 10
-249.2499999999998863
 20
1.57850393436502
 30
0.0000000000000568
 11
-249.2499999999998863
 21
19.8034929436359199
 31
0.0000000000000568
  0
LINE
  5
4161
  8
0
  6
CONTINUOUS
 62
     3
 10
-249.2499999999998863
 20
508.3690120088247113
 30
0.0000000000000568
 11
249.2500000000001137
 21
508.3690120088247113
 31
-0.0000000000000538
  0
LINE
  5
4162
  8
0
  6
CONTINUOUS
 62
     3
 10
-249.2499999999998863
 20
484.6655413718900718
 30
0.0000000000000568
 11
-249.2499999999998863
 21
508.369012008824825
 31
0.0000000000000568
  0
LINE
  5
4163
  8
0
  6
CONTINUOUS
 62
     3
 10
-249.2499999999998863
 20
479.1730789307400187
 30
0.0000000000000568
 11
-248.4999999999998863
 21
479.1730789307400187
 31
0.0000000000000567
  0
LINE
  5
4164
  8
0
  6
CONTINUOUS
 62
     3
 10
-249.2499999999998863
 20
369.8231448751142239
 30
0.0000000000000568
 11
-249.2499999999998863
 21
479.1730789307400187
 31
0.0000000000000568
  0
LINE
  5
4165
  8
0
  6
CONTINUOUS
 62
     3
 10
-249.2499999999998863
 20
364.3306824339640002
 30
0.0000000000000568
 11
-248.5
 21
364.3306824339640002
 31
0.0000000000000567
  0
LINE
  5
4166
  8
0
  6
CONTINUOUS
 62
     3
 10
-249.2499999999998863
 20
254.9807483783382054
 30
0.0000000000000568
 11
-249.2499999999998863
 21
364.3306824339640002
 31
0.0000000000000568
  0
LINE
  5
4167
  8
0
  6
CONTINUOUS
 62
     3
 10
-249.2499999999998863
 20
249.4882859371880102
 30
0.0000000000000568
 11
-248.4999999999998863
 21
249.4882859371880102
 31
0.0000000000000567
  0
LINE
  5
4168
  8
0
  6
CONTINUOUS
 62
     3
 10
-249.2499999999998863
 20
140.1383518815621869
 30
0.0000000000000568
 11
-249.2499999999998863
 21
249.4882859371880102
 31
0.0000000000000568
  0
LINE
  5
4169
  8
0
  6
CONTINUOUS
 62
     3
 10
-249.2499999999998863
 20
134.6458894404119917
 30
0.0000000000000568
 11
-248.5
 21
134.6458894404119917
 31
0.0000000000000567
  0
LINE
  5
416A
  8
0
  6
CONTINUOUS
 62
     3
 10
-249.2499999999998863
 20
25.2959553847860903
 30
0.0000000000000568
 11
-249.2499999999998863
 21
134.6458894404119917
 31
0.0000000000000568
  0
LINE
  5
416B
  8
0
  6
CONTINUOUS
 62
     3
 10
-249.2499999999998863
 20
19.803492943635959
 30
0.0000000000000568
 11
-248.5
 21
19.8034929436359413
 31
0.0000000000000567
  0
LINE
  5
416C
  8
0
  6
CONTINUOUS
 62
     3
 10
250.0000000000007105
 20
254.7310909946484969
 30
-0.0000000000000568
 11
248.5000000000005969
 21
254.7310909946484969
 31
-0.0000000000000565
  0
LINE
  5
416D
  8
0
  6
CONTINUOUS
 62
     3
 10
-248.5000000000005969
 20
254.7310909946486106
 30
0.0000000000000568
 11
-250.0000000000005969
 21
254.7310909946486106
 31
0.0000000000000572
  0
LINE
  5
416E
  8
0
  6
CONTINUOUS
 62
     3
 10
250.0000000000005969
 20
364.5018358832872991
 30
-0.0000000000000568
 11
248.5000000000005969
 21
364.5018358832872991
 31
-0.0000000000000565
  0
LINE
  5
416F
  8
0
  6
CONTINUOUS
 62
     3
 10
250.0000000000007105
 20
364.5803398176516907
 30
-0.0000000000000568
 11
250.0000000000007105
 21
364.5018358832872991
 31
-0.0000000000000568
  0
LINE
  5
4170
  8
0
  6
CONTINUOUS
 62
     3
 10
248.5000000000005969
 20
364.5803398176515771
 30
-0.0000000000000568
 11
250.0000000000007105
 21
364.5803398176515771
 31
-0.0000000000000572
  0
LINE
  5
4171
  8
0
  6
CONTINUOUS
 62
     3
 10
250.0000000000007105
 20
364.5018358832872991
 30
-0.0000000000000568
 11
250.0000000000007105
 21
254.7310909946484969
 31
-0.0000000000000568
  0
LINE
  5
4172
  8
0
  6
CONTINUOUS
 62
     3
 10
-248.5000000000005969
 20
364.5018358832872991
 30
0.0000000000000568
 11
-250.0000000000005116
 21
364.5018358832872991
 31
0.0000000000000572
  0
LINE
  5
4173
  8
0
  6
CONTINUOUS
 62
     3
 10
-250.0000000000005116
 20
254.7310909946484969
 30
0.0000000000000568
 11
-250.0000000000005116
 21
364.5018358832872991
 31
0.0000000000000568
  0
LINE
  5
4174
  8
0
  6
CONTINUOUS
 62
     3
 10
-250.0000000000005969
 20
364.5803398176515771
 30
0.0000000000000568
 11
-248.5000000000005969
 21
364.5803398176515771
 31
0.0000000000000565
  0
LINE
  5
4175
  8
0
  6
CONTINUOUS
 62
     3
 10
-250.0000000000005969
 20
364.5018358832872991
 30
0.0000000000000568
 11
-250.0000000000005969
 21
364.5803398176516907
 31
0.0000000000000568
  0
LINE
  5
4176
  8
0
  6
CONTINUOUS
 62
     3
 10
250.0000000000005969
 20
19.9746463929592508
 30
-0.0000000000000568
 11
250.0000000000005969
 21
1.499999999999605
 31
-0.0000000000000568
  0
LINE
  5
4177
  8
0
  6
CONTINUOUS
 62
     3
 10
248.5000000000005969
 20
19.9746463929592508
 30
-0.0000000000000568
 11
250.0000000000005969
 21
19.9746463929592508
 31
-0.0000000000000572
  0
LINE
  5
4178
  8
0
  6
CONTINUOUS
 62
     3
 10
250.0000000000005969
 20
20.0531503273236709
 30
-0.0000000000000568
 11
250.0000000000005969
 21
19.9746463929592508
 31
-0.0000000000000568
  0
LINE
  5
4179
  8
0
  6
CONTINUOUS
 62
     3
 10
248.5000000000005969
 20
20.0531503273236602
 30
-0.0000000000000568
 11
250.0000000000005969
 21
20.0531503273236602
 31
-0.0000000000000572
  0
LINE
  5
417A
  8
0
  6
CONTINUOUS
 62
     3
 10
-250.0000000000005116
 20
20.0531503273236602
 30
0.0000000000000568
 11
-248.5000000000005116
 21
20.0531503273236602
 31
0.0000000000000565
  0
LINE
  5
417B
  8
0
  6
CONTINUOUS
 62
     3
 10
-250.0000000000005116
 20
19.9746463929592508
 30
0.0000000000000568
 11
-250.0000000000005116
 21
20.0531503273236709
 31
0.0000000000000568
  0
LINE
  5
417C
  8
0
  6
CONTINUOUS
 62
     3
 10
-250.0000000000005116
 20
19.9746463929592508
 30
0.0000000000000568
 11
-248.5000000000005969
 21
19.9746463929592508
 31
0.0000000000000565
  0
LINE
  5
417D
  8
0
  6
CONTINUOUS
 62
     3
 10
-250.0000000000005116
 20
1.4999999999995759
 30
0.0000000000000568
 11
-250.0000000000005116
 21
19.9746463929592508
 31
0.0000000000000568
  0
LINE
  5
417E
  8
0
  6
CONTINUOUS
 62
     3
 10
250.0000000000007105
 20
369.573487491424487
 30
-0.0000000000000568
 11
248.5000000000005969
 21
369.573487491424487
 31
-0.0000000000000565
  0
LINE
  5
417F
  8
0
  6
CONTINUOUS
 62
     3
 10
-248.5000000000005969
 20
369.573487491424487
 30
0.0000000000000568
 11
-250.0000000000005969
 21
369.573487491424487
 31
0.0000000000000572
  0
LINE
  5
4180
  8
0
  6
CONTINUOUS
 62
     3
 10
250.0000000000005969
 20
479.3442323800632039
 30
-0.0000000000000568
 11
248.5000000000005969
 21
479.3442323800632039
 31
-0.0000000000000565
  0
LINE
  5
4181
  8
0
  6
CONTINUOUS
 62
     3
 10
250.0000000000007105
 20
479.4227363144275955
 30
-0.0000000000000568
 11
250.0000000000007105
 21
479.3442323800632039
 31
-0.0000000000000568
  0
LINE
  5
4182
  8
0
  6
CONTINUOUS
 62
     3
 10
248.5000000000005969
 20
479.4227363144274818
 30
-0.0000000000000568
 11
250.0000000000007105
 21
479.4227363144274818
 31
-0.0000000000000572
  0
LINE
  5
4183
  8
0
  6
CONTINUOUS
 62
     3
 10
250.0000000000007105
 20
479.3442323800632039
 30
-0.0000000000000568
 11
250.0000000000007105
 21
369.573487491424487
 31
-0.0000000000000568
  0
LINE
  5
4184
  8
0
  6
CONTINUOUS
 62
     3
 10
-248.5000000000005969
 20
479.3442323800632039
 30
0.0000000000000568
 11
-250.0000000000005969
 21
479.3442323800632039
 31
0.0000000000000572
  0
LINE
  5
4185
  8
0
  6
CONTINUOUS
 62
     3
 10
-250.0000000000005116
 20
369.573487491424487
 30
0.0000000000000568
 11
-250.0000000000005969
 21
479.3442323800630902
 31
0.0000000000000568
  0
LINE
  5
4186
  8
0
  6
CONTINUOUS
 62
     3
 10
-250.0000000000005969
 20
479.4227363144274818
 30
0.0000000000000568
 11
-248.5000000000005969
 21
479.4227363144274818
 31
0.0000000000000565
  0
LINE
  5
4187
  8
0
  6
CONTINUOUS
 62
     3
 10
-250.0000000000005969
 20
479.3442323800632039
 30
0.0000000000000568
 11
-250.0000000000005969
 21
479.4227363144275955
 31
0.0000000000000568
  0
LINE
  5
4188
  8
0
  6
CONTINUOUS
 62
     3
 10
250.0000000000005969
 20
139.8886944978725069
 30
-0.0000000000000568
 11
248.5000000000005969
 21
139.8886944978725069
 31
-0.0000000000000565
  0
LINE
  5
4189
  8
0
  6
CONTINUOUS
 62
     3
 10
-248.5000000000005116
 20
139.8886944978725069
 30
0.0000000000000568
 11
-250.0000000000005969
 21
139.8886944978725069
 31
0.0000000000000572
  0
LINE
  5
418A
  8
0
  6
CONTINUOUS
 62
     3
 10
250.0000000000005969
 20
249.6594393865111954
 30
-0.0000000000000568
 11
248.5000000000005969
 21
249.6594393865111954
 31
-0.0000000000000565
  0
LINE
  5
418B
  8
0
  6
CONTINUOUS
 62
     3
 10
250.0000000000007105
 20
249.7379433208757007
 30
-0.0000000000000568
 11
250.0000000000007105
 21
249.6594393865111954
 31
-0.0000000000000568
  0
LINE
  5
418C
  8
0
  6
CONTINUOUS
 62
     3
 10
248.5000000000005969
 20
249.737943320875587
 30
-0.0000000000000568
 11
250.0000000000007105
 21
249.737943320875587
 31
-0.0000000000000572
  0
LINE
  5
418D
  8
0
  6
CONTINUOUS
 62
     3
 10
250.0000000000005969
 20
249.6594393865113091
 30
-0.0000000000000568
 11
250.0000000000005969
 21
139.8886944978725069
 31
-0.0000000000000568
  0
LINE
  5
418E
  8
0
  6
CONTINUOUS
 62
     3
 10
-248.5000000000005969
 20
249.6594393865111954
 30
0.0000000000000568
 11
-250.0000000000005116
 21
249.6594393865111954
 31
0.0000000000000572
  0
LINE
  5
418F
  8
0
  6
CONTINUOUS
 62
     3
 10
-250.0000000000005116
 20
139.8886944978725069
 30
0.0000000000000568
 11
-250.0000000000005116
 21
249.6594393865111954
 31
0.0000000000000568
  0
LINE
  5
4190
  8
0
  6
CONTINUOUS
 62
     3
 10
-250.0000000000005969
 20
249.737943320875587
 30
0.0000000000000568
 11
-248.5000000000005969
 21
249.737943320875587
 31
0.0000000000000565
  0
LINE
  5
4191
  8
0
  6
CONTINUOUS
 62
     3
 10
-250.0000000000005969
 20
249.6594393865111954
 30
0.0000000000000568
 11
-250.0000000000005969
 21
249.7379433208757007
 31
0.0000000000000568
  0
LINE
  5
4192
  8
0
  6
CONTINUOUS
 62
     3
 10
250.0000000000005969
 20
25.0462980010965097
 30
-0.0000000000000568
 11
248.5000000000005969
 21
25.0462980010965097
 31
-0.0000000000000565
  0
LINE
  5
4193
  8
0
  6
CONTINUOUS
 62
     3
 10
-248.5000000000005116
 20
25.0462980010965097
 30
0.0000000000000568
 11
-250.0000000000005116
 21
25.0462980010965097
 31
0.0000000000000572
  0
LINE
  5
4194
  8
0
  6
CONTINUOUS
 62
     3
 10
250.0000000000005969
 20
134.8170428897350916
 30
-0.0000000000000568
 11
248.5000000000005969
 21
134.8170428897350916
 31
-0.0000000000000565
  0
LINE
  5
4195
  8
0
  6
CONTINUOUS
 62
     3
 10
250.0000000000005969
 20
134.895546824099597
 30
-0.0000000000000568
 11
250.0000000000005969
 21
134.8170428897350916
 31
-0.0000000000000568
  0
LINE
  5
4196
  8
0
  6
CONTINUOUS
 62
     3
 10
248.5000000000005969
 20
134.895546824099597
 30
-0.0000000000000568
 11
250.0000000000005969
 21
134.895546824099597
 31
-0.0000000000000572
  0
LINE
  5
4197
  8
0
  6
CONTINUOUS
 62
     3
 10
250.0000000000005969
 20
134.8170428897350916
 30
-0.0000000000000568
 11
250.0000000000005969
 21
25.0462980010965417
 31
-0.0000000000000568
  0
LINE
  5
4198
  8
0
  6
CONTINUOUS
 62
     3
 10
-248.5000000000005969
 20
134.8170428897350916
 30
0.0000000000000568
 11
-250.0000000000005116
 21
134.8170428897350916
 31
0.0000000000000572
  0
LINE
  5
4199
  8
0
  6
CONTINUOUS
 62
     3
 10
-250.0000000000005116
 20
25.0462980010965488
 30
0.0000000000000568
 11
-250.0000000000005116
 21
134.8170428897350916
 31
0.0000000000000568
  0
LINE
  5
419A
  8
0
  6
CONTINUOUS
 62
     3
 10
-250.0000000000005116
 20
134.895546824099597
 30
0.0000000000000568
 11
-248.5000000000005116
 21
134.895546824099597
 31
0.0000000000000565
  0
LINE
  5
419B
  8
0
  6
CONTINUOUS
 62
     3
 10
-250.0000000000005969
 20
134.8170428897350916
 30
0.0000000000000568
 11
-250.0000000000005969
 21
134.895546824099597
 31
0.0000000000000568
  0
LINE
  5
419C
  8
0
  6
CONTINUOUS
 62
     3
 10
250.0000000000007105
 20
508.2900825166038885
 30
-0.0000000000000568
 11
250.0000000000007105
 21
484.4158839882005054
 31
-0.0000000000000568
  0
LINE
  5
419D
  8
0
  6
CONTINUOUS
 62
     3
 10
250.0000000000007105
 20
508.2900825166038885
 30
-0.0000000000000568
 11
249.25
 21
508.2900825166038885
 31
-0.0000000000000567
  0
LINE
  5
419E
  8
0
  6
CONTINUOUS
 62
     3
 10
-249.2499999999998863
 20
508.2900825166038885
 30
0.0000000000000568
 11
-250.0000000000005969
 21
508.2900825166038885
 31
0.000000000000057
  0
LINE
  5
419F
  8
0
  6
CONTINUOUS
 62
     3
 10
-250.0000000000005116
 20
484.4158839882005054
 30
0.0000000000000568
 11
-250.0000000000005116
 21
508.2900825166038885
 31
0.0000000000000568
  0
LINE
  5
41A0
  8
0
  6
CONTINUOUS
 62
     3
 10
250.0000000000007105
 20
484.4158839882005054
 30
-0.0000000000000568
 11
248.5000000000005969
 21
484.4158839882005054
 31
-0.0000000000000565
  0
LINE
  5
41A1
  8
0
  6
CONTINUOUS
 62
     3
 10
-248.5000000000005969
 20
484.4158839882005054
 30
0.0000000000000568
 11
-250.0000000000005969
 21
484.4158839882005054
 31
0.0000000000000572
  0
LINE
  5
41A2
  8
0
  6
CONTINUOUS
 62
     3
 10
-248.5
 20
598.6611192644649009
 30
0.0000000000000568
 11
-248.5000000000005969
 21
508.3690120088247113
 31
0.0000000000000568
  0
POLYLINE
  5
41A3
  8
0
  6
CONTINUOUS
 62
     3
 10
-247.0
 20
600.0805596322321662
 30
0.0000000000000568
 66
     1
 70
     8
  0
VERTEX
  8
0
  5
43E6
 10
-247.000
 20
600.081
 30
5.68000e-14
  70
    32
  0
VERTEX
  8
0
  5
43E7
 10
-247.018
 20
600.080
 30
5.68037e-14
  70
    32
  0
VERTEX
  8
0
  5
43E8
 10
-247.037
 20
600.080
 30
5.68074e-14
  70
    32
  0
VERTEX
  8
0
  5
43E9
 10
-247.055
 20
600.080
 30
5.68110e-14
  70
    32
  0
VERTEX
  8
0
  5
43EA
 10
-247.074
 20
600.079
 30
5.68147e-14
  70
    32
  0
VERTEX
  8
0
  5
43EB
 10
-247.092
 20
600.078
 30
5.68184e-14
  70
    32
  0
VERTEX
  8
0
  5
43EC
 10
-247.110
 20
600.077
 30
5.68221e-14
  70
    32
  0
VERTEX
  8
0
  5
43ED
 10
-247.129
 20
600.075
 30
5.68257e-14
  70
    32
  0
VERTEX
  8
0
  5
43EE
 10
-247.147
 20
600.074
 30
5.68294e-14
  70
    32
  0
VERTEX
  8
0
  5
43EF
 10
-247.165
 20
600.072
 30
5.68331e-14
  70
    32
  0
VERTEX
  8
0
  5
43F0
 10
-247.184
 20
600.070
 30
5.68367e-14
  70
    32
  0
VERTEX
  8
0
  5
43F1
 10
-247.202
 20
600.068
 30
5.68404e-14
  70
    32
  0
VERTEX
  8
0
  5
43F2
 10
-247.220
 20
600.065
 30
5.68440e-14
  70
    32
  0
VERTEX
  8
0
  5
43F3
 10
-247.238
 20
600.063
 30
5.68477e-14
  70
    32
  0
VERTEX
  8
0
  5
43F4
 10
-247.256
 20
600.060
 30
5.68513e-14
  70
    32
  0
VERTEX
  8
0
  5
43F5
 10
-247.275
 20
600.057
 30
5.68549e-14
  70
    32
  0
VERTEX
  8
0
  5
43F6
 10
-247.293
 20
600.053
 30
5.68585e-14
  70
    32
  0
VERTEX
  8
0
  5
43F7
 10
-247.311
 20
600.050
 30
5.68621e-14
  70
    32
  0
VERTEX
  8
0
  5
43F8
 10
-247.329
 20
600.046
 30
5.68657e-14
  70
    32
  0
VERTEX
  8
0
  5
43F9
 10
-247.347
 20
600.042
 30
5.68693e-14
  70
    32
  0
VERTEX
  8
0
  5
43FA
 10
-247.364
 20
600.038
 30
5.68729e-14
  70
    32
  0
VERTEX
  8
0
  5
43FB
 10
-247.382
 20
600.034
 30
5.68765e-14
  70
    32
  0
VERTEX
  8
0
  5
43FC
 10
-247.400
 20
600.029
 30
5.68800e-14
  70
    32
  0
VERTEX
  8
0
  5
43FD
 10
-247.418
 20
600.024
 30
5.68836e-14
  70
    32
  0
VERTEX
  8
0
  5
43FE
 10
-247.435
 20
600.019
 30
5.68871e-14
  70
    32
  0
VERTEX
  8
0
  5
43FF
 10
-247.453
 20
600.014
 30
5.68906e-14
  70
    32
  0
VERTEX
  8
0
  5
4400
 10
-247.471
 20
600.009
 30
5.68941e-14
  70
    32
  0
VERTEX
  8
0
  5
4401
 10
-247.488
 20
600.003
 30
5.68976e-14
  70
    32
  0
VERTEX
  8
0
  5
4402
 10
-247.505
 20
599.998
 30
5.69011e-14
  70
    32
  0
VERTEX
  8
0
  5
4403
 10
-247.523
 20
599.992
 30
5.69045e-14
  70
    32
  0
VERTEX
  8
0
  5
4404
 10
-247.540
 20
599.985
 30
5.69080e-14
  70
    32
  0
VERTEX
  8
0
  5
4405
 10
-247.557
 20
599.979
 30
5.69114e-14
  70
    32
  0
VERTEX
  8
0
  5
4406
 10
-247.574
 20
599.973
 30
5.69148e-14
  70
    32
  0
VERTEX
  8
0
  5
4407
 10
-247.591
 20
599.966
 30
5.69182e-14
  70
    32
  0
VERTEX
  8
0
  5
4408
 10
-247.608
 20
599.959
 30
5.69216e-14
  70
    32
  0
VERTEX
  8
0
  5
4409
 10
-247.625
 20
599.952
 30
5.69249e-14
  70
    32
  0
VERTEX
  8
0
  5
440A
 10
-247.641
 20
599.944
 30
5.69283e-14
  70
    32
  0
VERTEX
  8
0
  5
440B
 10
-247.658
 20
599.937
 30
5.69316e-14
  70
    32
  0
VERTEX
  8
0
  5
440C
 10
-247.674
 20
599.929
 30
5.69349e-14
  70
    32
  0
VERTEX
  8
0
  5
440D
 10
-247.691
 20
599.921
 30
5.69382e-14
  70
    32
  0
VERTEX
  8
0
  5
440E
 10
-247.707
 20
599.913
 30
5.69414e-14
  70
    32
  0
VERTEX
  8
0
  5
440F
 10
-247.723
 20
599.905
 30
5.69447e-14
  70
    32
  0
VERTEX
  8
0
  5
4410
 10
-247.739
 20
599.896
 30
5.69479e-14
  70
    32
  0
VERTEX
  8
0
  5
4411
 10
-247.755
 20
599.887
 30
5.69511e-14
  70
    32
  0
VERTEX
  8
0
  5
4412
 10
-247.771
 20
599.879
 30
5.69542e-14
  70
    32
  0
VERTEX
  8
0
  5
4413
 10
-247.787
 20
599.870
 30
5.69574e-14
  70
    32
  0
VERTEX
  8
0
  5
4414
 10
-247.802
 20
599.860
 30
5.69605e-14
  70
    32
  0
VERTEX
  8
0
  5
4415
 10
-247.818
 20
599.851
 30
5.69636e-14
  70
    32
  0
VERTEX
  8
0
  5
4416
 10
-247.833
 20
599.841
 30
5.69667e-14
  70
    32
  0
VERTEX
  8
0
  5
4417
 10
-247.849
 20
599.832
 30
5.69697e-14
  70
    32
  0
VERTEX
  8
0
  5
4418
 10
-247.864
 20
599.822
 30
5.69727e-14
  70
    32
  0
VERTEX
  8
0
  5
4419
 10
-247.879
 20
599.812
 30
5.69757e-14
  70
    32
  0
VERTEX
  8
0
  5
441A
 10
-247.894
 20
599.801
 30
5.69787e-14
  70
    32
  0
VERTEX
  8
0
  5
441B
 10
-247.908
 20
599.791
 30
5.69817e-14
  70
    32
  0
VERTEX
  8
0
  5
441C
 10
-247.923
 20
599.780
 30
5.69846e-14
  70
    32
  0
VERTEX
  8
0
  5
441D
 10
-247.937
 20
599.769
 30
5.69875e-14
  70
    32
  0
VERTEX
  8
0
  5
441E
 10
-247.952
 20
599.758
 30
5.69903e-14
  70
    32
  0
VERTEX
  8
0
  5
441F
 10
-247.966
 20
599.747
 30
5.69931e-14
  70
    32
  0
VERTEX
  8
0
  5
4420
 10
-247.980
 20
599.736
 30
5.69960e-14
  70
    32
  0
VERTEX
  8
0
  5
4421
 10
-247.994
 20
599.724
 30
5.69987e-14
  70
    32
  0
VERTEX
  8
0
  5
4422
 10
-248.007
 20
599.713
 30
5.70015e-14
  70
    32
  0
VERTEX
  8
0
  5
4423
 10
-248.021
 20
599.701
 30
5.70042e-14
  70
    32
  0
VERTEX
  8
0
  5
4424
 10
-248.034
 20
599.689
 30
5.70069e-14
  70
    32
  0
VERTEX
  8
0
  5
4425
 10
-248.048
 20
599.677
 30
5.70095e-14
  70
    32
  0
VERTEX
  8
0
  5
4426
 10
-248.061
 20
599.665
 30
5.70121e-14
  70
    32
  0
VERTEX
  8
0
  5
4427
 10
-248.074
 20
599.652
 30
5.70147e-14
  70
    32
  0
VERTEX
  8
0
  5
4428
 10
-248.086
 20
599.640
 30
5.70173e-14
  70
    32
  0
VERTEX
  8
0
  5
4429
 10
-248.099
 20
599.627
 30
5.70198e-14
  70
    32
  0
VERTEX
  8
0
  5
442A
 10
-248.111
 20
599.614
 30
5.70223e-14
  70
    32
  0
VERTEX
  8
0
  5
442B
 10
-248.124
 20
599.601
 30
5.70247e-14
  70
    32
  0
VERTEX
  8
0
  5
442C
 10
-248.136
 20
599.588
 30
5.70272e-14
  70
    32
  0
VERTEX
  8
0
  5
442D
 10
-248.148
 20
599.575
 30
5.70296e-14
  70
    32
  0
VERTEX
  8
0
  5
442E
 10
-248.160
 20
599.562
 30
5.70319e-14
  70
    32
  0
VERTEX
  8
0
  5
442F
 10
-248.171
 20
599.548
 30
5.70342e-14
  70
    32
  0
VERTEX
  8
0
  5
4430
 10
-248.183
 20
599.534
 30
5.70365e-14
  70
    32
  0
VERTEX
  8
0
  5
4431
 10
-248.194
 20
599.521
 30
5.70388e-14
  70
    32
  0
VERTEX
  8
0
  5
4432
 10
-248.205
 20
599.507
 30
5.70410e-14
  70
    32
  0
VERTEX
  8
0
  5
4433
 10
-248.216
 20
599.493
 30
5.70431e-14
  70
    32
  0
VERTEX
  8
0
  5
4434
 10
-248.226
 20
599.478
 30
5.70453e-14
  70
    32
  0
VERTEX
  8
0
  5
4435
 10
-248.237
 20
599.464
 30
5.70474e-14
  70
    32
  0
VERTEX
  8
0
  5
4436
 10
-248.247
 20
599.450
 30
5.70494e-14
  70
    32
  0
VERTEX
  8
0
  5
4437
 10
-248.257
 20
599.435
 30
5.70515e-14
  70
    32
  0
VERTEX
  8
0
  5
4438
 10
-248.267
 20
599.421
 30
5.70535e-14
  70
    32
  0
VERTEX
  8
0
  5
4439
 10
-248.277
 20
599.406
 30
5.70554e-14
  70
    32
  0
VERTEX
  8
0
  5
443A
 10
-248.287
 20
599.391
 30
5.70573e-14
  70
    32
  0
VERTEX
  8
0
  5
443B
 10
-248.296
 20
599.376
 30
5.70592e-14
  70
    32
  0
VERTEX
  8
0
  5
443C
 10
-248.305
 20
599.361
 30
5.70610e-14
  70
    32
  0
VERTEX
  8
0
  5
443D
 10
-248.314
 20
599.346
 30
5.70628e-14
  70
    32
  0
VERTEX
  8
0
  5
443E
 10
-248.323
 20
599.330
 30
5.70646e-14
  70
    32
  0
VERTEX
  8
0
  5
443F
 10
-248.331
 20
599.315
 30
5.70663e-14
  70
    32
  0
VERTEX
  8
0
  5
4440
 10
-248.340
 20
599.299
 30
5.70680e-14
  70
    32
  0
VERTEX
  8
0
  5
4441
 10
-248.348
 20
599.284
 30
5.70696e-14
  70
    32
  0
VERTEX
  8
0
  5
4442
 10
-248.356
 20
599.268
 30
5.70712e-14
  70
    32
  0
VERTEX
  8
0
  5
4443
 10
-248.364
 20
599.252
 30
5.70728e-14
  70
    32
  0
VERTEX
  8
0
  5
4444
 10
-248.371
 20
599.236
 30
5.70743e-14
  70
    32
  0
VERTEX
  8
0
  5
4445
 10
-248.379
 20
599.220
 30
5.70757e-14
  70
    32
  0
VERTEX
  8
0
  5
4446
 10
-248.386
 20
599.204
 30
5.70772e-14
  70
    32
  0
VERTEX
  8
0
  5
4447
 10
-248.393
 20
599.188
 30
5.70786e-14
  70
    32
  0
VERTEX
  8
0
  5
4448
 10
-248.399
 20
599.172
 30
5.70799e-14
  70
    32
  0
VERTEX
  8
0
  5
4449
 10
-248.406
 20
599.156
 30
5.70812e-14
  70
    32
  0
VERTEX
  8
0
  5
444A
 10
-248.412
 20
599.139
 30
5.70825e-14
  70
    32
  0
VERTEX
  8
0
  5
444B
 10
-248.418
 20
599.123
 30
5.70837e-14
  70
    32
  0
VERTEX
  8
0
  5
444C
 10
-248.424
 20
599.106
 30
5.70849e-14
  70
    32
  0
VERTEX
  8
0
  5
444D
 10
-248.430
 20
599.090
 30
5.70860e-14
  70
    32
  0
VERTEX
  8
0
  5
444E
 10
-248.435
 20
599.073
 30
5.70871e-14
  70
    32
  0
VERTEX
  8
0
  5
444F
 10
-248.441
 20
599.056
 30
5.70881e-14
  70
    32
  0
VERTEX
  8
0
  5
4450
 10
-248.446
 20
599.040
 30
5.70891e-14
  70
    32
  0
VERTEX
  8
0
  5
4451
 10
-248.450
 20
599.023
 30
5.70901e-14
  70
    32
  0
VERTEX
  8
0
  5
4452
 10
-248.455
 20
599.006
 30
5.70910e-14
  70
    32
  0
VERTEX
  8
0
  5
4453
 10
-248.459
 20
598.989
 30
5.70919e-14
  70
    32
  0
VERTEX
  8
0
  5
4454
 10
-248.464
 20
598.972
 30
5.70927e-14
  70
    32
  0
VERTEX
  8
0
  5
4455
 10
-248.467
 20
598.955
 30
5.70935e-14
  70
    32
  0
VERTEX
  8
0
  5
4456
 10
-248.471
 20
598.938
 30
5.70942e-14
  70
    32
  0
VERTEX
  8
0
  5
4457
 10
-248.475
 20
598.921
 30
5.70949e-14
  70
    32
  0
VERTEX
  8
0
  5
4458
 10
-248.478
 20
598.904
 30
5.70956e-14
  70
    32
  0
VERTEX
  8
0
  5
4459
 10
-248.481
 20
598.887
 30
5.70962e-14
  70
    32
  0
VERTEX
  8
0
  5
445A
 10
-248.484
 20
598.869
 30
5.70968e-14
  70
    32
  0
VERTEX
  8
0
  5
445B
 10
-248.486
 20
598.852
 30
5.70973e-14
  70
    32
  0
VERTEX
  8
0
  5
445C
 10
-248.489
 20
598.835
 30
5.70977e-14
  70
    32
  0
VERTEX
  8
0
  5
445D
 10
-248.491
 20
598.818
 30
5.70982e-14
  70
    32
  0
VERTEX
  8
0
  5
445E
 10
-248.493
 20
598.800
 30
5.70986e-14
  70
    32
  0
VERTEX
  8
0
  5
445F
 10
-248.494
 20
598.783
 30
5.70989e-14
  70
    32
  0
VERTEX
  8
0
  5
4460
 10
-248.496
 20
598.766
 30
5.70992e-14
  70
    32
  0
VERTEX
  8
0
  5
4461
 10
-248.497
 20
598.748
 30
5.70994e-14
  70
    32
  0
VERTEX
  8
0
  5
4462
 10
-248.498
 20
598.731
 30
5.70996e-14
  70
    32
  0
VERTEX
  8
0
  5
4463
 10
-248.499
 20
598.713
 30
5.70998e-14
  70
    32
  0
VERTEX
  8
0
  5
4464
 10
-248.500
 20
598.696
 30
5.70999e-14
  70
    32
  0
VERTEX
  8
0
  5
4465
 10
-248.500
 20
598.679
 30
5.71000e-14
  70
    32
  0
VERTEX
  8
0
  5
4466
 10
-248.500
 20
598.661
 30
5.71000e-14
  70
    32
  0
SEQEND
  8
0
  5
4467
  0
LINE
  5
41A4
  8
0
  6
CONTINUOUS
 62
     3
 10
247.0000000000001137
 20
600.0805596322320525
 30
-0.0000000000000568
 11
-247.0
 21
600.0805596322320525
 31
0.0000000000000528
  0
POLYLINE
  5
41A5
  8
0
  6
CONTINUOUS
 62
     3
 10
248.5000000000001137
 20
598.6611192644646735
 30
-0.0000000000000571
 66
     1
 70
     8
  0
VERTEX
  8
0
  5
4468
 10
248.500
 20
598.661
 30
-5.71000e-14
  70
    32
  0
VERTEX
  8
0
  5
4469
 10
248.500
 20
598.679
 30
-5.71000e-14
  70
    32
  0
VERTEX
  8
0
  5
446A
 10
248.500
 20
598.696
 30
-5.70999e-14
  70
    32
  0
VERTEX
  8
0
  5
446B
 10
248.499
 20
598.713
 30
-5.70998e-14
  70
    32
  0
VERTEX
  8
0
  5
446C
 10
248.498
 20
598.731
 30
-5.70996e-14
  70
    32
  0
VERTEX
  8
0
  5
446D
 10
248.497
 20
598.748
 30
-5.70994e-14
  70
    32
  0
VERTEX
  8
0
  5
446E
 10
248.496
 20
598.766
 30
-5.70992e-14
  70
    32
  0
VERTEX
  8
0
  5
446F
 10
248.494
 20
598.783
 30
-5.70989e-14
  70
    32
  0
VERTEX
  8
0
  5
4470
 10
248.493
 20
598.800
 30
-5.70986e-14
  70
    32
  0
VERTEX
  8
0
  5
4471
 10
248.491
 20
598.818
 30
-5.70982e-14
  70
    32
  0
VERTEX
  8
0
  5
4472
 10
248.489
 20
598.835
 30
-5.70977e-14
  70
    32
  0
VERTEX
  8
0
  5
4473
 10
248.486
 20
598.852
 30
-5.70973e-14
  70
    32
  0
VERTEX
  8
0
  5
4474
 10
248.484
 20
598.869
 30
-5.70968e-14
  70
    32
  0
VERTEX
  8
0
  5
4475
 10
248.481
 20
598.887
 30
-5.70962e-14
  70
    32
  0
VERTEX
  8
0
  5
4476
 10
248.478
 20
598.904
 30
-5.70956e-14
  70
    32
  0
VERTEX
  8
0
  5
4477
 10
248.475
 20
598.921
 30
-5.70949e-14
  70
    32
  0
VERTEX
  8
0
  5
4478
 10
248.471
 20
598.938
 30
-5.70942e-14
  70
    32
  0
VERTEX
  8
0
  5
4479
 10
248.467
 20
598.955
 30
-5.70935e-14
  70
    32
  0
VERTEX
  8
0
  5
447A
 10
248.464
 20
598.972
 30
-5.70927e-14
  70
    32
  0
VERTEX
  8
0
  5
447B
 10
248.459
 20
598.989
 30
-5.70919e-14
  70
    32
  0
VERTEX
  8
0
  5
447C
 10
248.455
 20
599.006
 30
-5.70910e-14
  70
    32
  0
VERTEX
  8
0
  5
447D
 10
248.450
 20
599.023
 30
-5.70901e-14
  70
    32
  0
VERTEX
  8
0
  5
447E
 10
248.446
 20
599.040
 30
-5.70891e-14
  70
    32
  0
VERTEX
  8
0
  5
447F
 10
248.441
 20
599.056
 30
-5.70881e-14
  70
    32
  0
VERTEX
  8
0
  5
4480
 10
248.435
 20
599.073
 30
-5.70871e-14
  70
    32
  0
VERTEX
  8
0
  5
4481
 10
248.430
 20
599.090
 30
-5.70860e-14
  70
    32
  0
VERTEX
  8
0
  5
4482
 10
248.424
 20
599.106
 30
-5.70849e-14
  70
    32
  0
VERTEX
  8
0
  5
4483
 10
248.418
 20
599.123
 30
-5.70837e-14
  70
    32
  0
VERTEX
  8
0
  5
4484
 10
248.412
 20
599.139
 30
-5.70825e-14
  70
    32
  0
VERTEX
  8
0
  5
4485
 10
248.406
 20
599.156
 30
-5.70812e-14
  70
    32
  0
VERTEX
  8
0
  5
4486
 10
248.399
 20
599.172
 30
-5.70799e-14
  70
    32
  0
VERTEX
  8
0
  5
4487
 10
248.393
 20
599.188
 30
-5.70786e-14
  70
    32
  0
VERTEX
  8
0
  5
4488
 10
248.386
 20
599.204
 30
-5.70772e-14
  70
    32
  0
VERTEX
  8
0
  5
4489
 10
248.379
 20
599.220
 30
-5.70757e-14
  70
    32
  0
VERTEX
  8
0
  5
448A
 10
248.371
 20
599.236
 30
-5.70743e-14
  70
    32
  0
VERTEX
  8
0
  5
448B
 10
248.364
 20
599.252
 30
-5.70728e-14
  70
    32
  0
VERTEX
  8
0
  5
448C
 10
248.356
 20
599.268
 30
-5.70712e-14
  70
    32
  0
VERTEX
  8
0
  5
448D
 10
248.348
 20
599.284
 30
-5.70696e-14
  70
    32
  0
VERTEX
  8
0
  5
448E
 10
248.340
 20
599.299
 30
-5.70680e-14
  70
    32
  0
VERTEX
  8
0
  5
448F
 10
248.331
 20
599.315
 30
-5.70663e-14
  70
    32
  0
VERTEX
  8
0
  5
4490
 10
248.323
 20
599.330
 30
-5.70646e-14
  70
    32
  0
VERTEX
  8
0
  5
4491
 10
248.314
 20
599.346
 30
-5.70628e-14
  70
    32
  0
VERTEX
  8
0
  5
4492
 10
248.305
 20
599.361
 30
-5.70610e-14
  70
    32
  0
VERTEX
  8
0
  5
4493
 10
248.296
 20
599.376
 30
-5.70592e-14
  70
    32
  0
VERTEX
  8
0
  5
4494
 10
248.287
 20
599.391
 30
-5.70573e-14
  70
    32
  0
VERTEX
  8
0
  5
4495
 10
248.277
 20
599.406
 30
-5.70554e-14
  70
    32
  0
VERTEX
  8
0
  5
4496
 10
248.267
 20
599.421
 30
-5.70535e-14
  70
    32
  0
VERTEX
  8
0
  5
4497
 10
248.257
 20
599.435
 30
-5.70515e-14
  70
    32
  0
VERTEX
  8
0
  5
4498
 10
248.247
 20
599.450
 30
-5.70494e-14
  70
    32
  0
VERTEX
  8
0
  5
4499
 10
248.237
 20
599.464
 30
-5.70474e-14
  70
    32
  0
VERTEX
  8
0
  5
449A
 10
248.226
 20
599.478
 30
-5.70453e-14
  70
    32
  0
VERTEX
  8
0
  5
449B
 10
248.216
 20
599.493
 30
-5.70431e-14
  70
    32
  0
VERTEX
  8
0
  5
449C
 10
248.205
 20
599.507
 30
-5.70410e-14
  70
    32
  0
VERTEX
  8
0
  5
449D
 10
248.194
 20
599.521
 30
-5.70388e-14
  70
    32
  0
VERTEX
  8
0
  5
449E
 10
248.183
 20
599.534
 30
-5.70365e-14
  70
    32
  0
VERTEX
  8
0
  5
449F
 10
248.171
 20
599.548
 30
-5.70342e-14
  70
    32
  0
VERTEX
  8
0
  5
44A0
 10
248.160
 20
599.562
 30
-5.70319e-14
  70
    32
  0
VERTEX
  8
0
  5
44A1
 10
248.148
 20
599.575
 30
-5.70296e-14
  70
    32
  0
VERTEX
  8
0
  5
44A2
 10
248.136
 20
599.588
 30
-5.70272e-14
  70
    32
  0
VERTEX
  8
0
  5
44A3
 10
248.124
 20
599.601
 30
-5.70247e-14
  70
    32
  0
VERTEX
  8
0
  5
44A4
 10
248.111
 20
599.614
 30
-5.70223e-14
  70
    32
  0
VERTEX
  8
0
  5
44A5
 10
248.099
 20
599.627
 30
-5.70198e-14
  70
    32
  0
VERTEX
  8
0
  5
44A6
 10
248.086
 20
599.640
 30
-5.70173e-14
  70
    32
  0
VERTEX
  8
0
  5
44A7
 10
248.074
 20
599.652
 30
-5.70147e-14
  70
    32
  0
VERTEX
  8
0
  5
44A8
 10
248.061
 20
599.665
 30
-5.70121e-14
  70
    32
  0
VERTEX
  8
0
  5
44A9
 10
248.048
 20
599.677
 30
-5.70095e-14
  70
    32
  0
VERTEX
  8
0
  5
44AA
 10
248.034
 20
599.689
 30
-5.70069e-14
  70
    32
  0
VERTEX
  8
0
  5
44AB
 10
248.021
 20
599.701
 30
-5.70042e-14
  70
    32
  0
VERTEX
  8
0
  5
44AC
 10
248.007
 20
599.713
 30
-5.70015e-14
  70
    32
  0
VERTEX
  8
0
  5
44AD
 10
247.994
 20
599.724
 30
-5.69987e-14
  70
    32
  0
VERTEX
  8
0
  5
44AE
 10
247.980
 20
599.736
 30
-5.69960e-14
  70
    32
  0
VERTEX
  8
0
  5
44AF
 10
247.966
 20
599.747
 30
-5.69931e-14
  70
    32
  0
VERTEX
  8
0
  5
44B0
 10
247.952
 20
599.758
 30
-5.69903e-14
  70
    32
  0
VERTEX
  8
0
  5
44B1
 10
247.937
 20
599.769
 30
-5.69875e-14
  70
    32
  0
VERTEX
  8
0
  5
44B2
 10
247.923
 20
599.780
 30
-5.69846e-14
  70
    32
  0
VERTEX
  8
0
  5
44B3
 10
247.908
 20
599.791
 30
-5.69817e-14
  70
    32
  0
VERTEX
  8
0
  5
44B4
 10
247.894
 20
599.801
 30
-5.69787e-14
  70
    32
  0
VERTEX
  8
0
  5
44B5
 10
247.879
 20
599.812
 30
-5.69757e-14
  70
    32
  0
VERTEX
  8
0
  5
44B6
 10
247.864
 20
599.822
 30
-5.69727e-14
  70
    32
  0
VERTEX
  8
0
  5
44B7
 10
247.849
 20
599.832
 30
-5.69697e-14
  70
    32
  0
VERTEX
  8
0
  5
44B8
 10
247.833
 20
599.841
 30
-5.69667e-14
  70
    32
  0
VERTEX
  8
0
  5
44B9
 10
247.818
 20
599.851
 30
-5.69636e-14
  70
    32
  0
VERTEX
  8
0
  5
44BA
 10
247.802
 20
599.860
 30
-5.69605e-14
  70
    32
  0
VERTEX
  8
0
  5
44BB
 10
247.787
 20
599.870
 30
-5.69574e-14
  70
    32
  0
VERTEX
  8
0
  5
44BC
 10
247.771
 20
599.879
 30
-5.69542e-14
  70
    32
  0
VERTEX
  8
0
  5
44BD
 10
247.755
 20
599.887
 30
-5.69511e-14
  70
    32
  0
VERTEX
  8
0
  5
44BE
 10
247.739
 20
599.896
 30
-5.69479e-14
  70
    32
  0
VERTEX
  8
0
  5
44BF
 10
247.723
 20
599.905
 30
-5.69447e-14
  70
    32
  0
VERTEX
  8
0
  5
44C0
 10
247.707
 20
599.913
 30
-5.69414e-14
  70
    32
  0
VERTEX
  8
0
  5
44C1
 10
247.691
 20
599.921
 30
-5.69382e-14
  70
    32
  0
VERTEX
  8
0
  5
44C2
 10
247.674
 20
599.929
 30
-5.69349e-14
  70
    32
  0
VERTEX
  8
0
  5
44C3
 10
247.658
 20
599.937
 30
-5.69316e-14
  70
    32
  0
VERTEX
  8
0
  5
44C4
 10
247.641
 20
599.944
 30
-5.69283e-14
  70
    32
  0
VERTEX
  8
0
  5
44C5
 10
247.625
 20
599.952
 30
-5.69249e-14
  70
    32
  0
VERTEX
  8
0
  5
44C6
 10
247.608
 20
599.959
 30
-5.69216e-14
  70
    32
  0
VERTEX
  8
0
  5
44C7
 10
247.591
 20
599.966
 30
-5.69182e-14
  70
    32
  0
VERTEX
  8
0
  5
44C8
 10
247.574
 20
599.973
 30
-5.69148e-14
  70
    32
  0
VERTEX
  8
0
  5
44C9
 10
247.557
 20
599.979
 30
-5.69114e-14
  70
    32
  0
VERTEX
  8
0
  5
44CA
 10
247.540
 20
599.985
 30
-5.69080e-14
  70
    32
  0
VERTEX
  8
0
  5
44CB
 10
247.523
 20
599.992
 30
-5.69045e-14
  70
    32
  0
VERTEX
  8
0
  5
44CC
 10
247.505
 20
599.998
 30
-5.69011e-14
  70
    32
  0
VERTEX
  8
0
  5
44CD
 10
247.488
 20
600.003
 30
-5.68976e-14
  70
    32
  0
VERTEX
  8
0
  5
44CE
 10
247.471
 20
600.009
 30
-5.68941e-14
  70
    32
  0
VERTEX
  8
0
  5
44CF
 10
247.453
 20
600.014
 30
-5.68906e-14
  70
    32
  0
VERTEX
  8
0
  5
44D0
 10
247.435
 20
600.019
 30
-5.68871e-14
  70
    32
  0
VERTEX
  8
0
  5
44D1
 10
247.418
 20
600.024
 30
-5.68836e-14
  70
    32
  0
VERTEX
  8
0
  5
44D2
 10
247.400
 20
600.029
 30
-5.68800e-14
  70
    32
  0
VERTEX
  8
0
  5
44D3
 10
247.382
 20
600.034
 30
-5.68765e-14
  70
    32
  0
VERTEX
  8
0
  5
44D4
 10
247.364
 20
600.038
 30
-5.68729e-14
  70
    32
  0
VERTEX
  8
0
  5
44D5
 10
247.347
 20
600.042
 30
-5.68693e-14
  70
    32
  0
VERTEX
  8
0
  5
44D6
 10
247.329
 20
600.046
 30
-5.68657e-14
  70
    32
  0
VERTEX
  8
0
  5
44D7
 10
247.311
 20
600.050
 30
-5.68621e-14
  70
    32
  0
VERTEX
  8
0
  5
44D8
 10
247.293
 20
600.053
 30
-5.68585e-14
  70
    32
  0
VERTEX
  8
0
  5
44D9
 10
247.275
 20
600.057
 30
-5.68549e-14
  70
    32
  0
VERTEX
  8
0
  5
44DA
 10
247.256
 20
600.060
 30
-5.68513e-14
  70
    32
  0
VERTEX
  8
0
  5
44DB
 10
247.238
 20
600.063
 30
-5.68477e-14
  70
    32
  0
VERTEX
  8
0
  5
44DC
 10
247.220
 20
600.065
 30
-5.68440e-14
  70
    32
  0
VERTEX
  8
0
  5
44DD
 10
247.202
 20
600.068
 30
-5.68404e-14
  70
    32
  0
VERTEX
  8
0
  5
44DE
 10
247.184
 20
600.070
 30
-5.68367e-14
  70
    32
  0
VERTEX
  8
0
  5
44DF
 10
247.165
 20
600.072
 30
-5.68331e-14
  70
    32
  0
VERTEX
  8
0
  5
44E0
 10
247.147
 20
600.074
 30
-5.68294e-14
  70
    32
  0
VERTEX
  8
0
  5
44E1
 10
247.129
 20
600.075
 30
-5.68257e-14
  70
    32
  0
VERTEX
  8
0
  5
44E2
 10
247.110
 20
600.077
 30
-5.68221e-14
  70
    32
  0
VERTEX
  8
0
  5
44E3
 10
247.092
 20
600.078
 30
-5.68184e-14
  70
    32
  0
VERTEX
  8
0
  5
44E4
 10
247.074
 20
600.079
 30
-5.68147e-14
  70
    32
  0
VERTEX
  8
0
  5
44E5
 10
247.055
 20
600.080
 30
-5.68110e-14
  70
    32
  0
VERTEX
  8
0
  5
44E6
 10
247.037
 20
600.080
 30
-5.68074e-14
  70
    32
  0
VERTEX
  8
0
  5
44E7
 10
247.018
 20
600.080
 30
-5.68037e-14
  70
    32
  0
VERTEX
  8
0
  5
44E8
 10
247.000
 20
600.081
 30
-5.68000e-14
  70
    32
  0
SEQEND
  8
0
  5
44E9
  0
LINE
  5
41A6
  8
0
  6
CONTINUOUS
 62
     3
 10
248.5000000000005969
 20
508.3690120088247113
 30
-0.0000000000000568
 11
248.500000000000199
 21
598.6611192644649009
 31
-0.0000000000000568
  0
LINE
  5
41A7
  8
0
  6
CONTINUOUS
 62
     3
 10
250.000000000000199
 20
598.6611192644646735
 30
-0.0000000000000568
 11
250.0000000000007105
 21
508.2900825166038885
 31
-0.0000000000000568
  0
POLYLINE
  5
41A8
  8
0
  6
CONTINUOUS
 62
     3
 10
247.0000000000001137
 20
601.4999999999995453
 30
-0.0000000000000568
 66
     1
 70
     8
  0
VERTEX
  8
0
  5
44EA
 10
247.000
 20
601.500
 30
-5.68000e-14
  70
    32
  0
VERTEX
  8
0
  5
44EB
 10
247.037
 20
601.500
 30
-5.68086e-14
  70
    32
  0
VERTEX
  8
0
  5
44EC
 10
247.074
 20
601.499
 30
-5.68172e-14
  70
    32
  0
VERTEX
  8
0
  5
44ED
 10
247.110
 20
601.498
 30
-5.68258e-14
  70
    32
  0
VERTEX
  8
0
  5
44EE
 10
247.147
 20
601.497
 30
-5.68343e-14
  70
    32
  0
VERTEX
  8
0
  5
44EF
 10
247.184
 20
601.495
 30
-5.68429e-14
  70
    32
  0
VERTEX
  8
0
  5
44F0
 10
247.221
 20
601.492
 30
-5.68515e-14
  70
    32
  0
VERTEX
  8
0
  5
44F1
 10
247.257
 20
601.490
 30
-5.68601e-14
  70
    32
  0
VERTEX
  8
0
  5
44F2
 10
247.294
 20
601.486
 30
-5.68686e-14
  70
    32
  0
VERTEX
  8
0
  5
44F3
 10
247.331
 20
601.483
 30
-5.68772e-14
  70
    32
  0
VERTEX
  8
0
  5
44F4
 10
247.367
 20
601.479
 30
-5.68857e-14
  70
    32
  0
VERTEX
  8
0
  5
44F5
 10
247.404
 20
601.474
 30
-5.68942e-14
  70
    32
  0
VERTEX
  8
0
  5
44F6
 10
247.440
 20
601.469
 30
-5.69027e-14
  70
    32
  0
VERTEX
  8
0
  5
44F7
 10
247.477
 20
601.464
 30
-5.69112e-14
  70
    32
  0
VERTEX
  8
0
  5
44F8
 10
247.513
 20
601.458
 30
-5.69197e-14
  70
    32
  0
VERTEX
  8
0
  5
44F9
 10
247.549
 20
601.452
 30
-5.69281e-14
  70
    32
  0
VERTEX
  8
0
  5
44FA
 10
247.585
 20
601.445
 30
-5.69366e-14
  70
    32
  0
VERTEX
  8
0
  5
44FB
 10
247.621
 20
601.438
 30
-5.69450e-14
  70
    32
  0
VERTEX
  8
0
  5
44FC
 10
247.657
 20
601.431
 30
-5.69534e-14
  70
    32
  0
VERTEX
  8
0
  5
44FD
 10
247.693
 20
601.423
 30
-5.69617e-14
  70
    32
  0
VERTEX
  8
0
  5
44FE
 10
247.729
 20
601.415
 30
-5.69701e-14
  70
    32
  0
VERTEX
  8
0
  5
44FF
 10
247.765
 20
601.406
 30
-5.69784e-14
  70
    32
  0
VERTEX
  8
0
  5
4500
 10
247.800
 20
601.397
 30
-5.69867e-14
  70
    32
  0
VERTEX
  8
0
  5
4501
 10
247.836
 20
601.388
 30
-5.69950e-14
  70
    32
  0
VERTEX
  8
0
  5
4502
 10
247.871
 20
601.378
 30
-5.70032e-14
  70
    32
  0
VERTEX
  8
0
  5
4503
 10
247.906
 20
601.367
 30
-5.70114e-14
  70
    32
  0
VERTEX
  8
0
  5
4504
 10
247.941
 20
601.357
 30
-5.70196e-14
  70
    32
  0
VERTEX
  8
0
  5
4505
 10
247.976
 20
601.346
 30
-5.70277e-14
  70
    32
  0
VERTEX
  8
0
  5
4506
 10
248.011
 20
601.334
 30
-5.70358e-14
  70
    32
  0
VERTEX
  8
0
  5
4507
 10
248.045
 20
601.322
 30
-5.70439e-14
  70
    32
  0
VERTEX
  8
0
  5
4508
 10
248.080
 20
601.310
 30
-5.70519e-14
  70
    32
  0
VERTEX
  8
0
  5
4509
 10
248.114
 20
601.297
 30
-5.70599e-14
  70
    32
  0
VERTEX
  8
0
  5
450A
 10
248.148
 20
601.284
 30
-5.70679e-14
  70
    32
  0
VERTEX
  8
0
  5
450B
 10
248.182
 20
601.270
 30
-5.70758e-14
  70
    32
  0
VERTEX
  8
0
  5
450C
 10
248.216
 20
601.256
 30
-5.70837e-14
  70
    32
  0
VERTEX
  8
0
  5
450D
 10
248.249
 20
601.242
 30
-5.70915e-14
  70
    32
  0
VERTEX
  8
0
  5
450E
 10
248.283
 20
601.227
 30
-5.70993e-14
  70
    32
  0
VERTEX
  8
0
  5
450F
 10
248.316
 20
601.212
 30
-5.71070e-14
  70
    32
  0
VERTEX
  8
0
  5
4510
 10
248.349
 20
601.197
 30
-5.71147e-14
  70
    32
  0
VERTEX
  8
0
  5
4511
 10
248.382
 20
601.181
 30
-5.71224e-14
  70
    32
  0
VERTEX
  8
0
  5
4512
 10
248.414
 20
601.165
 30
-5.71300e-14
  70
    32
  0
VERTEX
  8
0
  5
4513
 10
248.447
 20
601.148
 30
-5.71375e-14
  70
    32
  0
VERTEX
  8
0
  5
4514
 10
248.479
 20
601.131
 30
-5.71450e-14
  70
    32
  0
VERTEX
  8
0
  5
4515
 10
248.511
 20
601.114
 30
-5.71525e-14
  70
    32
  0
VERTEX
  8
0
  5
4516
 10
248.542
 20
601.096
 30
-5.71599e-14
  70
    32
  0
VERTEX
  8
0
  5
4517
 10
248.574
 20
601.078
 30
-5.71672e-14
  70
    32
  0
VERTEX
  8
0
  5
4518
 10
248.605
 20
601.060
 30
-5.71745e-14
  70
    32
  0
VERTEX
  8
0
  5
4519
 10
248.636
 20
601.041
 30
-5.71817e-14
  70
    32
  0
VERTEX
  8
0
  5
451A
 10
248.667
 20
601.022
 30
-5.71889e-14
  70
    32
  0
VERTEX
  8
0
  5
451B
 10
248.697
 20
601.002
 30
-5.71960e-14
  70
    32
  0
VERTEX
  8
0
  5
451C
 10
248.727
 20
600.982
 30
-5.72031e-14
  70
    32
  0
VERTEX
  8
0
  5
451D
 10
248.757
 20
600.962
 30
-5.72101e-14
  70
    32
  0
VERTEX
  8
0
  5
451E
 10
248.787
 20
600.941
 30
-5.72170e-14
  70
    32
  0
VERTEX
  8
0
  5
451F
 10
248.817
 20
600.920
 30
-5.72239e-14
  70
    32
  0
VERTEX
  8
0
  5
4520
 10
248.846
 20
600.899
 30
-5.72307e-14
  70
    32
  0
VERTEX
  8
0
  5
4521
 10
248.875
 20
600.878
 30
-5.72374e-14
  70
    32
  0
VERTEX
  8
0
  5
4522
 10
248.903
 20
600.856
 30
-5.72441e-14
  70
    32
  0
VERTEX
  8
0
  5
4523
 10
248.931
 20
600.833
 30
-5.72507e-14
  70
    32
  0
VERTEX
  8
0
  5
4524
 10
248.960
 20
600.811
 30
-5.72572e-14
  70
    32
  0
VERTEX
  8
0
  5
4525
 10
248.987
 20
600.788
 30
-5.72637e-14
  70
    32
  0
VERTEX
  8
0
  5
4526
 10
249.015
 20
600.765
 30
-5.72701e-14
  70
    32
  0
VERTEX
  8
0
  5
4527
 10
249.042
 20
600.741
 30
-5.72764e-14
  70
    32
  0
VERTEX
  8
0
  5
4528
 10
249.069
 20
600.717
 30
-5.72827e-14
  70
    32
  0
VERTEX
  8
0
  5
4529
 10
249.095
 20
600.693
 30
-5.72889e-14
  70
    32
  0
VERTEX
  8
0
  5
452A
 10
249.121
 20
600.669
 30
-5.72950e-14
  70
    32
  0
VERTEX
  8
0
  5
452B
 10
249.147
 20
600.644
 30
-5.73010e-14
  70
    32
  0
VERTEX
  8
0
  5
452C
 10
249.173
 20
600.619
 30
-5.73070e-14
  70
    32
  0
VERTEX
  8
0
  5
452D
 10
249.198
 20
600.593
 30
-5.73129e-14
  70
    32
  0
VERTEX
  8
0
  5
452E
 10
249.223
 20
600.568
 30
-5.73187e-14
  70
    32
  0
VERTEX
  8
0
  5
452F
 10
249.247
 20
600.542
 30
-5.73244e-14
  70
    32
  0
VERTEX
  8
0
  5
4530
 10
249.272
 20
600.515
 30
-5.73300e-14
  70
    32
  0
VERTEX
  8
0
  5
4531
 10
249.296
 20
600.489
 30
-5.73356e-14
  70
    32
  0
VERTEX
  8
0
  5
4532
 10
249.319
 20
600.462
 30
-5.73411e-14
  70
    32
  0
VERTEX
  8
0
  5
4533
 10
249.342
 20
600.435
 30
-5.73465e-14
  70
    32
  0
VERTEX
  8
0
  5
4534
 10
249.365
 20
600.408
 30
-5.73518e-14
  70
    32
  0
VERTEX
  8
0
  5
4535
 10
249.388
 20
600.380
 30
-5.73571e-14
  70
    32
  0
VERTEX
  8
0
  5
4536
 10
249.410
 20
600.352
 30
-5.73622e-14
  70
    32
  0
VERTEX
  8
0
  5
4537
 10
249.431
 20
600.324
 30
-5.73673e-14
  70
    32
  0
VERTEX
  8
0
  5
4538
 10
249.453
 20
600.296
 30
-5.73723e-14
  70
    32
  0
VERTEX
  8
0
  5
4539
 10
249.474
 20
600.267
 30
-5.73772e-14
  70
    32
  0
VERTEX
  8
0
  5
453A
 10
249.494
 20
600.238
 30
-5.73820e-14
  70
    32
  0
VERTEX
  8
0
  5
453B
 10
249.515
 20
600.209
 30
-5.73868e-14
  70
    32
  0
VERTEX
  8
0
  5
453C
 10
249.535
 20
600.180
 30
-5.73914e-14
  70
    32
  0
VERTEX
  8
0
  5
453D
 10
249.554
 20
600.150
 30
-5.73959e-14
  70
    32
  0
VERTEX
  8
0
  5
453E
 10
249.573
 20
600.121
 30
-5.74004e-14
  70
    32
  0
VERTEX
  8
0
  5
453F
 10
249.592
 20
600.091
 30
-5.74048e-14
  70
    32
  0
VERTEX
  8
0
  5
4540
 10
249.610
 20
600.060
 30
-5.74091e-14
  70
    32
  0
VERTEX
  8
0
  5
4541
 10
249.628
 20
600.030
 30
-5.74132e-14
  70
    32
  0
VERTEX
  8
0
  5
4542
 10
249.646
 20
599.999
 30
-5.74173e-14
  70
    32
  0
VERTEX
  8
0
  5
4543
 10
249.663
 20
599.969
 30
-5.74213e-14
  70
    32
  0
VERTEX
  8
0
  5
4544
 10
249.680
 20
599.938
 30
-5.74253e-14
  70
    32
  0
VERTEX
  8
0
  5
4545
 10
249.696
 20
599.906
 30
-5.74291e-14
  70
    32
  0
VERTEX
  8
0
  5
4546
 10
249.712
 20
599.875
 30
-5.74328e-14
  70
    32
  0
VERTEX
  8
0
  5
4547
 10
249.728
 20
599.843
 30
-5.74364e-14
  70
    32
  0
VERTEX
  8
0
  5
4548
 10
249.743
 20
599.812
 30
-5.74399e-14
  70
    32
  0
VERTEX
  8
0
  5
4549
 10
249.757
 20
599.780
 30
-5.74434e-14
  70
    32
  0
VERTEX
  8
0
  5
454A
 10
249.772
 20
599.748
 30
-5.74467e-14
  70
    32
  0
VERTEX
  8
0
  5
454B
 10
249.786
 20
599.715
 30
-5.74500e-14
  70
    32
  0
VERTEX
  8
0
  5
454C
 10
249.799
 20
599.683
 30
-5.74531e-14
  70
    32
  0
VERTEX
  8
0
  5
454D
 10
249.812
 20
599.650
 30
-5.74561e-14
  70
    32
  0
VERTEX
  8
0
  5
454E
 10
249.825
 20
599.618
 30
-5.74591e-14
  70
    32
  0
VERTEX
  8
0
  5
454F
 10
249.837
 20
599.585
 30
-5.74619e-14
  70
    32
  0
VERTEX
  8
0
  5
4550
 10
249.849
 20
599.552
 30
-5.74647e-14
  70
    32
  0
VERTEX
  8
0
  5
4551
 10
249.860
 20
599.518
 30
-5.74673e-14
  70
    32
  0
VERTEX
  8
0
  5
4552
 10
249.871
 20
599.485
 30
-5.74699e-14
  70
    32
  0
VERTEX
  8
0
  5
4553
 10
249.881
 20
599.452
 30
-5.74723e-14
  70
    32
  0
VERTEX
  8
0
  5
4554
 10
249.891
 20
599.418
 30
-5.74746e-14
  70
    32
  0
VERTEX
  8
0
  5
4555
 10
249.901
 20
599.385
 30
-5.74769e-14
  70
    32
  0
VERTEX
  8
0
  5
4556
 10
249.910
 20
599.351
 30
-5.74790e-14
  70
    32
  0
VERTEX
  8
0
  5
4557
 10
249.919
 20
599.317
 30
-5.74811e-14
  70
    32
  0
VERTEX
  8
0
  5
4558
 10
249.927
 20
599.283
 30
-5.74830e-14
  70
    32
  0
VERTEX
  8
0
  5
4559
 10
249.935
 20
599.249
 30
-5.74848e-14
  70
    32
  0
VERTEX
  8
0
  5
455A
 10
249.942
 20
599.215
 30
-5.74865e-14
  70
    32
  0
VERTEX
  8
0
  5
455B
 10
249.949
 20
599.181
 30
-5.74882e-14
  70
    32
  0
VERTEX
  8
0
  5
455C
 10
249.956
 20
599.146
 30
-5.74897e-14
  70
    32
  0
VERTEX
  8
0
  5
455D
 10
249.962
 20
599.112
 30
-5.74911e-14
  70
    32
  0
VERTEX
  8
0
  5
455E
 10
249.968
 20
599.078
 30
-5.74924e-14
  70
    32
  0
VERTEX
  8
0
  5
455F
 10
249.973
 20
599.043
 30
-5.74936e-14
  70
    32
  0
VERTEX
  8
0
  5
4560
 10
249.977
 20
599.009
 30
-5.74947e-14
  70
    32
  0
VERTEX
  8
0
  5
4561
 10
249.982
 20
598.974
 30
-5.74957e-14
  70
    32
  0
VERTEX
  8
0
  5
4562
 10
249.986
 20
598.939
 30
-5.74966e-14
  70
    32
  0
VERTEX
  8
0
  5
4563
 10
249.989
 20
598.905
 30
-5.74974e-14
  70
    32
  0
VERTEX
  8
0
  5
4564
 10
249.992
 20
598.870
 30
-5.74981e-14
  70
    32
  0
VERTEX
  8
0
  5
4565
 10
249.994
 20
598.835
 30
-5.74987e-14
  70
    32
  0
VERTEX
  8
0
  5
4566
 10
249.996
 20
598.800
 30
-5.74992e-14
  70
    32
  0
VERTEX
  8
0
  5
4567
 10
249.998
 20
598.766
 30
-5.74995e-14
  70
    32
  0
VERTEX
  8
0
  5
4568
 10
249.999
 20
598.731
 30
-5.74998e-14
  70
    32
  0
VERTEX
  8
0
  5
4569
 10
250.000
 20
598.696
 30
-5.74999e-14
  70
    32
  0
VERTEX
  8
0
  5
456A
 10
250.000
 20
598.661
 30
-5.75000e-14
  70
    32
  0
SEQEND
  8
0
  5
456B
  0
LINE
  5
41A9
  8
0
  6
CONTINUOUS
 62
     3
 10
-247.0
 20
601.4999999999996589
 30
0.0000000000000568
 11
247.0000000000001137
 21
601.4999999999996589
 31
-0.0000000000000528
  0
POLYLINE
  5
41AA
  8
0
  6
CONTINUOUS
 62
     3
 10
-250.0
 20
598.6611192644646735
 30
0.0000000000000575
 66
     1
 70
     8
  0
VERTEX
  8
0
  5
456C
 10
-250.000
 20
598.661
 30
5.75000e-14
  70
    32
  0
VERTEX
  8
0
  5
456D
 10
-250.000
 20
598.696
 30
5.74999e-14
  70
    32
  0
VERTEX
  8
0
  5
456E
 10
-249.999
 20
598.731
 30
5.74998e-14
  70
    32
  0
VERTEX
  8
0
  5
456F
 10
-249.998
 20
598.766
 30
5.74995e-14
  70
    32
  0
VERTEX
  8
0
  5
4570
 10
-249.996
 20
598.800
 30
5.74992e-14
  70
    32
  0
VERTEX
  8
0
  5
4571
 10
-249.994
 20
598.835
 30
5.74987e-14
  70
    32
  0
VERTEX
  8
0
  5
4572
 10
-249.992
 20
598.870
 30
5.74981e-14
  70
    32
  0
VERTEX
  8
0
  5
4573
 10
-249.989
 20
598.905
 30
5.74974e-14
  70
    32
  0
VERTEX
  8
0
  5
4574
 10
-249.986
 20
598.939
 30
5.74966e-14
  70
    32
  0
VERTEX
  8
0
  5
4575
 10
-249.982
 20
598.974
 30
5.74957e-14
  70
    32
  0
VERTEX
  8
0
  5
4576
 10
-249.977
 20
599.009
 30
5.74947e-14
  70
    32
  0
VERTEX
  8
0
  5
4577
 10
-249.973
 20
599.043
 30
5.74936e-14
  70
    32
  0
VERTEX
  8
0
  5
4578
 10
-249.968
 20
599.078
 30
5.74924e-14
  70
    32
  0
VERTEX
  8
0
  5
4579
 10
-249.962
 20
599.112
 30
5.74911e-14
  70
    32
  0
VERTEX
  8
0
  5
457A
 10
-249.956
 20
599.146
 30
5.74897e-14
  70
    32
  0
VERTEX
  8
0
  5
457B
 10
-249.949
 20
599.181
 30
5.74882e-14
  70
    32
  0
VERTEX
  8
0
  5
457C
 10
-249.942
 20
599.215
 30
5.74865e-14
  70
    32
  0
VERTEX
  8
0
  5
457D
 10
-249.935
 20
599.249
 30
5.74848e-14
  70
    32
  0
VERTEX
  8
0
  5
457E
 10
-249.927
 20
599.283
 30
5.74830e-14
  70
    32
  0
VERTEX
  8
0
  5
457F
 10
-249.919
 20
599.317
 30
5.74811e-14
  70
    32
  0
VERTEX
  8
0
  5
4580
 10
-249.910
 20
599.351
 30
5.74790e-14
  70
    32
  0
VERTEX
  8
0
  5
4581
 10
-249.901
 20
599.385
 30
5.74769e-14
  70
    32
  0
VERTEX
  8
0
  5
4582
 10
-249.891
 20
599.418
 30
5.74746e-14
  70
    32
  0
VERTEX
  8
0
  5
4583
 10
-249.881
 20
599.452
 30
5.74723e-14
  70
    32
  0
VERTEX
  8
0
  5
4584
 10
-249.871
 20
599.485
 30
5.74699e-14
  70
    32
  0
VERTEX
  8
0
  5
4585
 10
-249.860
 20
599.518
 30
5.74673e-14
  70
    32
  0
VERTEX
  8
0
  5
4586
 10
-249.849
 20
599.552
 30
5.74647e-14
  70
    32
  0
VERTEX
  8
0
  5
4587
 10
-249.837
 20
599.585
 30
5.74619e-14
  70
    32
  0
VERTEX
  8
0
  5
4588
 10
-249.825
 20
599.618
 30
5.74591e-14
  70
    32
  0
VERTEX
  8
0
  5
4589
 10
-249.812
 20
599.650
 30
5.74561e-14
  70
    32
  0
VERTEX
  8
0
  5
458A
 10
-249.799
 20
599.683
 30
5.74531e-14
  70
    32
  0
VERTEX
  8
0
  5
458B
 10
-249.786
 20
599.715
 30
5.74500e-14
  70
    32
  0
VERTEX
  8
0
  5
458C
 10
-249.772
 20
599.748
 30
5.74467e-14
  70
    32
  0
VERTEX
  8
0
  5
458D
 10
-249.757
 20
599.780
 30
5.74434e-14
  70
    32
  0
VERTEX
  8
0
  5
458E
 10
-249.743
 20
599.812
 30
5.74399e-14
  70
    32
  0
VERTEX
  8
0
  5
458F
 10
-249.728
 20
599.843
 30
5.74364e-14
  70
    32
  0
VERTEX
  8
0
  5
4590
 10
-249.712
 20
599.875
 30
5.74328e-14
  70
    32
  0
VERTEX
  8
0
  5
4591
 10
-249.696
 20
599.906
 30
5.74291e-14
  70
    32
  0
VERTEX
  8
0
  5
4592
 10
-249.680
 20
599.938
 30
5.74253e-14
  70
    32
  0
VERTEX
  8
0
  5
4593
 10
-249.663
 20
599.969
 30
5.74213e-14
  70
    32
  0
VERTEX
  8
0
  5
4594
 10
-249.646
 20
599.999
 30
5.74173e-14
  70
    32
  0
VERTEX
  8
0
  5
4595
 10
-249.628
 20
600.030
 30
5.74132e-14
  70
    32
  0
VERTEX
  8
0
  5
4596
 10
-249.610
 20
600.060
 30
5.74091e-14
  70
    32
  0
VERTEX
  8
0
  5
4597
 10
-249.592
 20
600.091
 30
5.74048e-14
  70
    32
  0
VERTEX
  8
0
  5
4598
 10
-249.573
 20
600.121
 30
5.74004e-14
  70
    32
  0
VERTEX
  8
0
  5
4599
 10
-249.554
 20
600.150
 30
5.73959e-14
  70
    32
  0
VERTEX
  8
0
  5
459A
 10
-249.535
 20
600.180
 30
5.73914e-14
  70
    32
  0
VERTEX
  8
0
  5
459B
 10
-249.515
 20
600.209
 30
5.73868e-14
  70
    32
  0
VERTEX
  8
0
  5
459C
 10
-249.494
 20
600.238
 30
5.73820e-14
  70
    32
  0
VERTEX
  8
0
  5
459D
 10
-249.474
 20
600.267
 30
5.73772e-14
  70
    32
  0
VERTEX
  8
0
  5
459E
 10
-249.453
 20
600.296
 30
5.73723e-14
  70
    32
  0
VERTEX
  8
0
  5
459F
 10
-249.431
 20
600.324
 30
5.73673e-14
  70
    32
  0
VERTEX
  8
0
  5
45A0
 10
-249.410
 20
600.352
 30
5.73622e-14
  70
    32
  0
VERTEX
  8
0
  5
45A1
 10
-249.388
 20
600.380
 30
5.73571e-14
  70
    32
  0
VERTEX
  8
0
  5
45A2
 10
-249.365
 20
600.408
 30
5.73518e-14
  70
    32
  0
VERTEX
  8
0
  5
45A3
 10
-249.342
 20
600.435
 30
5.73465e-14
  70
    32
  0
VERTEX
  8
0
  5
45A4
 10
-249.319
 20
600.462
 30
5.73411e-14
  70
    32
  0
VERTEX
  8
0
  5
45A5
 10
-249.296
 20
600.489
 30
5.73356e-14
  70
    32
  0
VERTEX
  8
0
  5
45A6
 10
-249.272
 20
600.515
 30
5.73300e-14
  70
    32
  0
VERTEX
  8
0
  5
45A7
 10
-249.247
 20
600.542
 30
5.73244e-14
  70
    32
  0
VERTEX
  8
0
  5
45A8
 10
-249.223
 20
600.568
 30
5.73187e-14
  70
    32
  0
VERTEX
  8
0
  5
45A9
 10
-249.198
 20
600.593
 30
5.73129e-14
  70
    32
  0
VERTEX
  8
0
  5
45AA
 10
-249.173
 20
600.619
 30
5.73070e-14
  70
    32
  0
VERTEX
  8
0
  5
45AB
 10
-249.147
 20
600.644
 30
5.73010e-14
  70
    32
  0
VERTEX
  8
0
  5
45AC
 10
-249.121
 20
600.669
 30
5.72950e-14
  70
    32
  0
VERTEX
  8
0
  5
45AD
 10
-249.095
 20
600.693
 30
5.72889e-14
  70
    32
  0
VERTEX
  8
0
  5
45AE
 10
-249.069
 20
600.717
 30
5.72827e-14
  70
    32
  0
VERTEX
  8
0
  5
45AF
 10
-249.042
 20
600.741
 30
5.72764e-14
  70
    32
  0
VERTEX
  8
0
  5
45B0
 10
-249.015
 20
600.765
 30
5.72701e-14
  70
    32
  0
VERTEX
  8
0
  5
45B1
 10
-248.987
 20
600.788
 30
5.72637e-14
  70
    32
  0
VERTEX
  8
0
  5
45B2
 10
-248.960
 20
600.811
 30
5.72572e-14
  70
    32
  0
VERTEX
  8
0
  5
45B3
 10
-248.931
 20
600.833
 30
5.72507e-14
  70
    32
  0
VERTEX
  8
0
  5
45B4
 10
-248.903
 20
600.856
 30
5.72441e-14
  70
    32
  0
VERTEX
  8
0
  5
45B5
 10
-248.875
 20
600.878
 30
5.72374e-14
  70
    32
  0
VERTEX
  8
0
  5
45B6
 10
-248.846
 20
600.899
 30
5.72307e-14
  70
    32
  0
VERTEX
  8
0
  5
45B7
 10
-248.817
 20
600.920
 30
5.72239e-14
  70
    32
  0
VERTEX
  8
0
  5
45B8
 10
-248.787
 20
600.941
 30
5.72170e-14
  70
    32
  0
VERTEX
  8
0
  5
45B9
 10
-248.757
 20
600.962
 30
5.72101e-14
  70
    32
  0
VERTEX
  8
0
  5
45BA
 10
-248.727
 20
600.982
 30
5.72031e-14
  70
    32
  0
VERTEX
  8
0
  5
45BB
 10
-248.697
 20
601.002
 30
5.71960e-14
  70
    32
  0
VERTEX
  8
0
  5
45BC
 10
-248.667
 20
601.022
 30
5.71889e-14
  70
    32
  0
VERTEX
  8
0
  5
45BD
 10
-248.636
 20
601.041
 30
5.71817e-14
  70
    32
  0
VERTEX
  8
0
  5
45BE
 10
-248.605
 20
601.060
 30
5.71745e-14
  70
    32
  0
VERTEX
  8
0
  5
45BF
 10
-248.574
 20
601.078
 30
5.71672e-14
  70
    32
  0
VERTEX
  8
0
  5
45C0
 10
-248.542
 20
601.096
 30
5.71599e-14
  70
    32
  0
VERTEX
  8
0
  5
45C1
 10
-248.511
 20
601.114
 30
5.71525e-14
  70
    32
  0
VERTEX
  8
0
  5
45C2
 10
-248.479
 20
601.131
 30
5.71450e-14
  70
    32
  0
VERTEX
  8
0
  5
45C3
 10
-248.447
 20
601.148
 30
5.71375e-14
  70
    32
  0
VERTEX
  8
0
  5
45C4
 10
-248.414
 20
601.165
 30
5.71300e-14
  70
    32
  0
VERTEX
  8
0
  5
45C5
 10
-248.382
 20
601.181
 30
5.71224e-14
  70
    32
  0
VERTEX
  8
0
  5
45C6
 10
-248.349
 20
601.197
 30
5.71147e-14
  70
    32
  0
VERTEX
  8
0
  5
45C7
 10
-248.316
 20
601.212
 30
5.71070e-14
  70
    32
  0
VERTEX
  8
0
  5
45C8
 10
-248.283
 20
601.227
 30
5.70993e-14
  70
    32
  0
VERTEX
  8
0
  5
45C9
 10
-248.249
 20
601.242
 30
5.70915e-14
  70
    32
  0
VERTEX
  8
0
  5
45CA
 10
-248.216
 20
601.256
 30
5.70837e-14
  70
    32
  0
VERTEX
  8
0
  5
45CB
 10
-248.182
 20
601.270
 30
5.70758e-14
  70
    32
  0
VERTEX
  8
0
  5
45CC
 10
-248.148
 20
601.284
 30
5.70679e-14
  70
    32
  0
VERTEX
  8
0
  5
45CD
 10
-248.114
 20
601.297
 30
5.70599e-14
  70
    32
  0
VERTEX
  8
0
  5
45CE
 10
-248.080
 20
601.310
 30
5.70519e-14
  70
    32
  0
VERTEX
  8
0
  5
45CF
 10
-248.045
 20
601.322
 30
5.70439e-14
  70
    32
  0
VERTEX
  8
0
  5
45D0
 10
-248.011
 20
601.334
 30
5.70358e-14
  70
    32
  0
VERTEX
  8
0
  5
45D1
 10
-247.976
 20
601.346
 30
5.70277e-14
  70
    32
  0
VERTEX
  8
0
  5
45D2
 10
-247.941
 20
601.357
 30
5.70196e-14
  70
    32
  0
VERTEX
  8
0
  5
45D3
 10
-247.906
 20
601.367
 30
5.70114e-14
  70
    32
  0
VERTEX
  8
0
  5
45D4
 10
-247.871
 20
601.378
 30
5.70032e-14
  70
    32
  0
VERTEX
  8
0
  5
45D5
 10
-247.836
 20
601.388
 30
5.69950e-14
  70
    32
  0
VERTEX
  8
0
  5
45D6
 10
-247.800
 20
601.397
 30
5.69867e-14
  70
    32
  0
VERTEX
  8
0
  5
45D7
 10
-247.765
 20
601.406
 30
5.69784e-14
  70
    32
  0
VERTEX
  8
0
  5
45D8
 10
-247.729
 20
601.415
 30
5.69701e-14
  70
    32
  0
VERTEX
  8
0
  5
45D9
 10
-247.693
 20
601.423
 30
5.69617e-14
  70
    32
  0
VERTEX
  8
0
  5
45DA
 10
-247.657
 20
601.431
 30
5.69534e-14
  70
    32
  0
VERTEX
  8
0
  5
45DB
 10
-247.621
 20
601.438
 30
5.69450e-14
  70
    32
  0
VERTEX
  8
0
  5
45DC
 10
-247.585
 20
601.445
 30
5.69366e-14
  70
    32
  0
VERTEX
  8
0
  5
45DD
 10
-247.549
 20
601.452
 30
5.69281e-14
  70
    32
  0
VERTEX
  8
0
  5
45DE
 10
-247.513
 20
601.458
 30
5.69197e-14
  70
    32
  0
VERTEX
  8
0
  5
45DF
 10
-247.477
 20
601.464
 30
5.69112e-14
  70
    32
  0
VERTEX
  8
0
  5
45E0
 10
-247.440
 20
601.469
 30
5.69027e-14
  70
    32
  0
VERTEX
  8
0
  5
45E1
 10
-247.404
 20
601.474
 30
5.68942e-14
  70
    32
  0
VERTEX
  8
0
  5
45E2
 10
-247.367
 20
601.479
 30
5.68857e-14
  70
    32
  0
VERTEX
  8
0
  5
45E3
 10
-247.331
 20
601.483
 30
5.68772e-14
  70
    32
  0
VERTEX
  8
0
  5
45E4
 10
-247.294
 20
601.486
 30
5.68686e-14
  70
    32
  0
VERTEX
  8
0
  5
45E5
 10
-247.257
 20
601.490
 30
5.68601e-14
  70
    32
  0
VERTEX
  8
0
  5
45E6
 10
-247.221
 20
601.492
 30
5.68515e-14
  70
    32
  0
VERTEX
  8
0
  5
45E7
 10
-247.184
 20
601.495
 30
5.68429e-14
  70
    32
  0
VERTEX
  8
0
  5
45E8
 10
-247.147
 20
601.497
 30
5.68343e-14
  70
    32
  0
VERTEX
  8
0
  5
45E9
 10
-247.110
 20
601.498
 30
5.68258e-14
  70
    32
  0
VERTEX
  8
0
  5
45EA
 10
-247.074
 20
601.499
 30
5.68172e-14
  70
    32
  0
VERTEX
  8
0
  5
45EB
 10
-247.037
 20
601.500
 30
5.68086e-14
  70
    32
  0
VERTEX
  8
0
  5
45EC
 10
-247.000
 20
601.500
 30
5.68000e-14
  70
    32
  0
SEQEND
  8
0
  5
45ED
  0
LINE
  5
41AB
  8
0
  6
CONTINUOUS
 62
     3
 10
-250.0000000000005969
 20
508.2900825166038885
 30
0.0000000000000568
 11
-250.0
 21
598.6611192644649009
 31
0.0000000000000568
  0
LINE
  5
41AC
  8
0
  6
CONTINUOUS
 62
     3
 10
-248.5000000000005969
 20
254.731090994648298
 30
0.0000000000000568
 11
-248.5000000000005969
 21
249.7379433208755017
 31
0.0000000000000568
  0
LINE
  5
41AD
  8
0
  6
CONTINUOUS
 62
     3
 10
-248.5000000000005116
 20
139.8886944978723079
 30
0.0000000000000568
 11
-248.5000000000005116
 21
134.8955468240993127
 31
0.0000000000000568
  0
LINE
  5
41AE
  8
0
  6
CONTINUOUS
 62
     3
 10
-248.5000000000005116
 20
25.0462980010963783
 30
0.0000000000000568
 11
-248.5000000000005116
 21
20.0531503273233511
 31
0.0000000000000568
  0
LINE
  5
41AF
  8
0
  6
CONTINUOUS
 62
     3
 10
-248.5000000000005969
 20
484.4158839882002781
 30
0.0000000000000568
 11
-248.5000000000005969
 21
479.4227363144274818
 31
0.0000000000000568
  0
LINE
  5
41B0
  8
0
  6
CONTINUOUS
 62
     3
 10
-248.5000000000005969
 20
369.5734874914243733
 30
0.0000000000000568
 11
-248.5000000000005969
 21
364.5803398176515202
 31
0.0000000000000568
  0
LINE
  5
41B1
  8
0
  6
CONTINUOUS
 62
     3
 10
248.5000000000005969
 20
364.5803398176516907
 30
-0.0000000000000568
 11
248.5000000000005969
 21
369.5734874914246006
 31
-0.0000000000000568
  0
LINE
  5
41B2
  8
0
  6
CONTINUOUS
 62
     3
 10
248.5000000000005969
 20
479.4227363144277092
 30
-0.0000000000000568
 11
248.5000000000005969
 21
484.4158839882005054
 31
-0.0000000000000568
  0
LINE
  5
41B3
  8
0
  6
CONTINUOUS
 62
     3
 10
248.5000000000005969
 20
20.0531503273235607
 30
-0.0000000000000568
 11
248.5000000000005969
 21
25.0462980010965701
 31
-0.0000000000000568
  0
LINE
  5
41B4
  8
0
  6
CONTINUOUS
 62
     3
 10
248.5000000000005969
 20
134.8955468240995117
 30
-0.0000000000000568
 11
248.5000000000005969
 21
139.8886944978725069
 31
-0.0000000000000568
  0
LINE
  5
41B5
  8
0
  6
CONTINUOUS
 62
     3
 10
248.5000000000005969
 20
249.737943320875587
 30
-0.0000000000000568
 11
248.5000000000005969
 21
254.7310909946484969
 31
-0.0000000000000568
  0
LINE
  5
41B6
  8
0
  6
CONTINUOUS
 62
     3
 10
-250.0000000000005116
 20
139.8886944978723932
 30
0.0000000000000568
 11
-250.0000000000005116
 21
134.8955468240993127
 31
0.0000000000000568
  0
LINE
  5
41B7
  8
0
  6
CONTINUOUS
 62
     3
 10
-250.0000000000005969
 20
254.7310909946484117
 30
0.0000000000000568
 11
-250.0000000000005969
 21
249.7379433208755017
 31
0.0000000000000568
  0
LINE
  5
41B8
  8
0
  6
CONTINUOUS
 62
     3
 10
-250.0000000000005969
 20
484.4158839882002781
 30
0.0000000000000568
 11
-250.0000000000005969
 21
479.4227363144274818
 31
0.0000000000000568
  0
LINE
  5
41B9
  8
0
  6
CONTINUOUS
 62
     3
 10
-250.0000000000005116
 20
25.0462980010963783
 30
0.0000000000000568
 11
-250.0000000000005116
 21
20.0531503273233511
 31
0.0000000000000568
  0
LINE
  5
41BA
  8
0
  6
CONTINUOUS
 62
     3
 10
250.0000000000007105
 20
479.4227363144277092
 30
-0.0000000000000568
 11
250.0000000000007105
 21
484.4158839882005054
 31
-0.0000000000000568
  0
LINE
  5
41BB
  8
0
  6
CONTINUOUS
 62
     3
 10
250.0000000000007105
 20
134.8955468240995117
 30
-0.0000000000000568
 11
250.0000000000007105
 21
139.8886944978725069
 31
-0.0000000000000568
  0
LINE
  5
41BC
  8
0
  6
CONTINUOUS
 62
     3
 10
250.0000000000007105
 20
364.5803398176516907
 30
-0.0000000000000568
 11
250.0000000000007105
 21
369.5734874914246006
 31
-0.0000000000000568
  0
LINE
  5
41BD
  8
0
  6
CONTINUOUS
 62
     3
 10
250.0000000000005969
 20
20.0531503273235607
 30
-0.0000000000000568
 11
250.0000000000005969
 21
25.0462980010965701
 31
-0.0000000000000568
  0
LINE
  5
41BE
  8
0
  6
CONTINUOUS
 62
     3
 10
-250.0000000000005969
 20
369.5734874914243733
 30
0.0000000000000568
 11
-250.0000000000005969
 21
364.5803398176515202
 31
0.0000000000000568
  0
LINE
  5
41BF
  8
0
  6
CONTINUOUS
 62
     3
 10
250.0000000000007105
 20
249.737943320875587
 30
-0.0000000000000568
 11
250.0000000000007105
 21
254.7310909946486106
 31
-0.0000000000000568
  0
LINE
  5
41C0
  8
0
  6
VERDECKT
 62
     1
 10
-250.5
 20
1.4999999999998861
 30
0.0000000000000555
 11
-250.5
 21
-0.0000000000001137
 31
0.0000000000000555
  0
LINE
  5
41C1
  8
0
  6
VERDECKT
 62
     1
 10
-249.0000000000001137
 20
1.499999999999889
 30
0.0000000000000568
 11
-249.0000000000001137
 21
-0.000000000000111
 31
0.0000000000000568
  0
LINE
  5
41C2
  8
0
  6
VERDECKT
 62
     1
 10
-152.75
 20
1.499999999999889
 30
0.0000000000000355
 11
-152.75
 21
-0.0000000000001108
 31
0.0000000000000355
  0
LINE
  5
41C3
  8
0
  6
VERDECKT
 62
     1
 10
-147.2499999999998863
 20
1.499999999999889
 30
0.0000000000000355
 11
-147.2499999999998863
 21
-0.0000000000001108
 31
0.0000000000000355
  0
LINE
  5
41C4
  8
0
  6
VERDECKT
 62
     1
 10
-2.750000000000032
 20
1.499999999999889
 30
0.0
 11
-2.750000000000032
 21
-0.0000000000001108
 31
0.0
  0
LINE
  5
41C5
  8
0
  6
VERDECKT
 62
     1
 10
2.749999999999968
 20
1.499999999999889
 30
0.0
 11
2.749999999999968
 21
-0.0000000000001108
 31
0.0
  0
LINE
  5
41C6
  8
0
  6
VERDECKT
 62
     1
 10
147.2499999999998863
 20
1.499999999999889
 30
-0.0000000000000355
 11
147.2499999999998863
 21
-0.0000000000001108
 31
-0.0000000000000355
  0
LINE
  5
41C7
  8
0
  6
VERDECKT
 62
     1
 10
152.75
 20
1.499999999999889
 30
-0.0000000000000355
 11
152.75
 21
-0.0000000000001108
 31
-0.0000000000000355
  0
LINE
  5
41C8
  8
0
  6
VERDECKT
 62
     1
 10
249.0000000000001137
 20
1.499999999999889
 30
-0.0000000000000568
 11
249.0000000000001137
 21
-0.000000000000111
 31
-0.0000000000000568
  0
LINE
  5
41C9
  8
0
  6
VERDECKT
 62
     1
 10
250.4999999999998863
 20
1.4999999999998861
 30
-0.0000000000000555
 11
250.4999999999998863
 21
-0.0000000000001137
 31
-0.0000000000000555
  0
LINE
  5
41CA
  8
0
  6
VERDECKT
 62
     1
 10
123.4999999999999005
 20
1.499999999999895
 30
-0.0000000000000284
 11
123.4999999999999005
 21
-0.0000000000001048
 31
-0.0000000000000284
  0
LINE
  5
41CB
  8
0
  6
VERDECKT
 62
     1
 10
116.4999999999999005
 20
1.499999999999895
 30
-0.0000000000000284
 11
116.4999999999999005
 21
-0.0000000000001048
 31
-0.0000000000000284
  0
LINE
  5
41CC
  8
0
  6
VERDECKT
 62
     1
 10
-116.5
 20
1.499999999999895
 30
0.0000000000000284
 11
-116.5
 21
-0.0000000000001048
 31
0.0000000000000284
  0
LINE
  5
41CD
  8
0
  6
VERDECKT
 62
     1
 10
-123.5
 20
1.499999999999895
 30
0.0000000000000284
 11
-123.5
 21
-0.0000000000001048
 31
0.0000000000000284
  0
LINE
  5
41CE
  8
0
  6
VERDECKT
 62
     1
 10
353.4999999999998863
 20
1.499999999999895
 30
-0.0000000000000853
 11
353.4999999999998863
 21
-0.0000000000001048
 31
-0.0000000000000853
  0
LINE
  5
41CF
  8
0
  6
VERDECKT
 62
     1
 10
346.4999999999998863
 20
1.499999999999895
 30
-0.0000000000000853
 11
346.4999999999998863
 21
-0.0000000000001048
 31
-0.0000000000000853
  0
LINE
  5
41D0
  8
0
  6
VERDECKT
 62
     1
 10
-346.5000000000001137
 20
1.499999999999895
 30
0.0000000000000853
 11
-346.5000000000001137
 21
-0.0000000000001048
 31
0.0000000000000853
  0
LINE
  5
41D1
  8
0
  6
VERDECKT
 62
     1
 10
-353.5000000000001137
 20
1.499999999999895
 30
0.0000000000000853
 11
-353.5000000000001137
 21
-0.0000000000001048
 31
0.0000000000000853
  0
LINE
  5
41D2
  8
0
  6
VERDECKT
 62
     1
 10
-249.2499999999998863
 20
19.7249890092715603
 30
0.0000000000000568
 11
-248.5
 21
19.7249890092715496
 31
0.0000000000000567
  0
LINE
  5
41D3
  8
0
  6
VERDECKT
 62
     1
 10
-249.2499999999998863
 20
134.5673855060476001
 30
0.0000000000000568
 11
-248.5
 21
134.5673855060476001
 31
0.0000000000000567
  0
LINE
  5
41D4
  8
0
  6
VERDECKT
 62
     1
 10
-249.2499999999998863
 20
249.4097820028235901
 30
0.0000000000000568
 11
-248.4999999999998863
 21
249.4097820028235901
 31
0.0000000000000567
  0
LINE
  5
41D5
  8
0
  6
VERDECKT
 62
     1
 10
-249.2499999999998863
 20
364.2521784995996086
 30
0.0000000000000568
 11
-248.5
 21
364.2521784995996086
 31
0.0000000000000567
  0
LINE
  5
41D6
  8
0
  6
VERDECKT
 62
     1
 10
-249.2499999999998863
 20
479.0945749963753997
 30
0.0000000000000568
 11
-248.4999999999998863
 21
479.0945749963755134
 31
0.0000000000000567
  0
LINE
  5
41D7
  8
0
  6
VERDECKT
 62
     1
 10
-249.2499999999998863
 20
508.2905080744603765
 30
0.0000000000000568
 11
249.2500000000001137
 21
508.2905080744603765
 31
-0.0000000000000538
  0
LINE
  5
41D8
  8
0
  6
VERDECKT
 62
     1
 10
248.4999999999998863
 20
479.0945749963755134
 30
-0.0000000000000568
 11
249.25
 21
479.0945749963755134
 31
-0.000000000000057
  0
LINE
  5
41D9
  8
0
  6
VERDECKT
 62
     1
 10
248.5
 20
364.2521784995996086
 30
-0.0000000000000568
 11
249.25
 21
364.2521784995996086
 31
-0.000000000000057
  0
LINE
  5
41DA
  8
0
  6
VERDECKT
 62
     1
 10
248.4999999999998863
 20
249.4097820028235901
 30
-0.0000000000000568
 11
249.25
 21
249.4097820028235901
 31
-0.000000000000057
  0
LINE
  5
41DB
  8
0
  6
VERDECKT
 62
     1
 10
248.5
 20
134.5673855060476001
 30
-0.0000000000000568
 11
249.25
 21
134.5673855060476001
 31
-0.000000000000057
  0
LINE
  5
41DC
  8
0
  6
VERDECKT
 62
     1
 10
248.5
 20
19.7249890092715283
 30
-0.0000000000000568
 11
249.25
 21
19.724989009271539
 31
-0.000000000000057
  0
LINE
  5
41DD
  8
0
  6
VERDECKT
 62
     1
 10
152.5
 20
0.0020556978687154
 30
-0.0000000000000355
 11
147.5
 21
0.0020556978687154
 31
-0.0000000000000344
  0
LINE
  5
41DE
  8
0
  6
VERDECKT
 62
     1
 10
2.4999999999999889
 20
0.0020556978687154
 30
0.0
 11
-2.5000000000000102
 21
0.0020556978687154
 31
0.0000000000000011
  0
LINE
  5
41DF
  8
0
  6
VERDECKT
 62
     1
 10
-147.5
 20
0.0020556978687154
 30
0.0000000000000355
 11
-152.5
 21
0.0020556978687154
 31
0.0000000000000366
  0
LINE
  5
41E0
  8
0
  6
VERDECKT
 62
     1
 10
248.4999999999998863
 20
479.0945749963755134
 30
-0.0000000000000568
 11
248.4999999999998863
 21
479.1730789307400187
 31
-0.0000000000000568
  0
LINE
  5
41E1
  8
0
  6
VERDECKT
 62
     1
 10
248.5
 20
364.2521784995996086
 30
-0.0000000000000568
 11
248.5
 21
364.3306824339640002
 31
-0.0000000000000568
  0
LINE
  5
41E2
  8
0
  6
VERDECKT
 62
     1
 10
248.4999999999998863
 20
249.4097820028235901
 30
-0.0000000000000568
 11
248.4999999999998863
 21
249.4882859371880102
 31
-0.0000000000000568
  0
LINE
  5
41E3
  8
0
  6
VERDECKT
 62
     1
 10
248.5
 20
134.5673855060476001
 30
-0.0000000000000568
 11
248.5
 21
134.6458894404119917
 31
-0.0000000000000568
  0
LINE
  5
41E4
  8
0
  6
VERDECKT
 62
     1
 10
248.5
 20
19.7249890092715283
 30
-0.0000000000000568
 11
248.5
 21
19.8034929436359413
 31
-0.0000000000000568
  0
LINE
  5
41E5
  8
0
  6
VERDECKT
 62
     1
 10
152.5
 20
1.4999999999998961
 30
-0.0000000000000355
 11
152.5
 21
0.0805596322331448
 31
-0.0000000000000355
  0
LINE
  5
41E6
  8
0
  6
VERDECKT
 62
     1
 10
152.5
 20
0.0020556978687154
 30
-0.0000000000000355
 11
152.5
 21
0.0805596322331307
 31
-0.0000000000000355
  0
LINE
  5
41E7
  8
0
  6
VERDECKT
 62
     1
 10
152.5
 20
0.0805596322331357
 30
-0.0000000000000355
 11
147.5
 21
0.0805596322331357
 31
-0.0000000000000344
  0
LINE
  5
41E8
  8
0
  6
VERDECKT
 62
     1
 10
147.5
 20
0.0020556978687154
 30
-0.0000000000000355
 11
147.5
 21
0.0805596322331307
 31
-0.0000000000000355
  0
LINE
  5
41E9
  8
0
  6
VERDECKT
 62
     1
 10
147.5
 20
0.0805596322331357
 30
-0.0000000000000355
 11
147.5
 21
1.4999999999998961
 31
-0.0000000000000355
  0
LINE
  5
41EA
  8
0
  6
VERDECKT
 62
     1
 10
2.499999999999988
 20
1.4999999999998961
 30
0.0
 11
2.4999999999999889
 21
0.0805596322331448
 31
0.0
  0
LINE
  5
41EB
  8
0
  6
VERDECKT
 62
     1
 10
2.4999999999999889
 20
0.0020556978687154
 30
0.0
 11
2.4999999999999889
 21
0.0805596322331307
 31
0.0
  0
LINE
  5
41EC
  8
0
  6
VERDECKT
 62
     1
 10
2.499999999999988
 20
0.0805596322331357
 30
0.0
 11
-2.5000000000000111
 21
0.0805596322331357
 31
0.0000000000000011
  0
LINE
  5
41ED
  8
0
  6
VERDECKT
 62
     1
 10
-2.5000000000000102
 20
0.0020556978687154
 30
0.0
 11
-2.5000000000000111
 21
0.0805596322331307
 31
0.0
  0
LINE
  5
41EE
  8
0
  6
VERDECKT
 62
     1
 10
-2.5000000000000111
 20
0.0805596322331357
 30
0.0
 11
-2.5000000000000102
 21
1.4999999999998961
 31
0.0
  0
LINE
  5
41EF
  8
0
  6
VERDECKT
 62
     1
 10
-147.5
 20
1.4999999999998961
 30
0.0000000000000355
 11
-147.5
 21
0.0805596322331448
 31
0.0000000000000355
  0
LINE
  5
41F0
  8
0
  6
VERDECKT
 62
     1
 10
-147.5
 20
0.0020556978687154
 30
0.0000000000000355
 11
-147.5
 21
0.0805596322331307
 31
0.0000000000000355
  0
LINE
  5
41F1
  8
0
  6
VERDECKT
 62
     1
 10
-147.5
 20
0.0805596322331357
 30
0.0000000000000355
 11
-152.5
 21
0.0805596322331357
 31
0.0000000000000366
  0
LINE
  5
41F2
  8
0
  6
VERDECKT
 62
     1
 10
-152.5
 20
0.0020556978687154
 30
0.0000000000000355
 11
-152.5
 21
0.0805596322331307
 31
0.0000000000000355
  0
LINE
  5
41F3
  8
0
  6
VERDECKT
 62
     1
 10
-152.5
 20
0.0805596322331357
 30
0.0000000000000355
 11
-152.5
 21
1.4999999999998961
 31
0.0000000000000355
  0
LINE
  5
41F4
  8
0
  6
VERDECKT
 62
     1
 10
-248.5
 20
19.7249890092715283
 30
0.0000000000000568
 11
-248.5
 21
19.8034929436359413
 31
0.0000000000000568
  0
LINE
  5
41F5
  8
0
  6
VERDECKT
 62
     1
 10
-248.5
 20
134.5673855060476001
 30
0.0000000000000568
 11
-248.5
 21
134.6458894404119917
 31
0.0000000000000568
  0
LINE
  5
41F6
  8
0
  6
VERDECKT
 62
     1
 10
-248.4999999999998863
 20
249.4097820028235901
 30
0.0000000000000568
 11
-248.4999999999998863
 21
249.4882859371880102
 31
0.0000000000000568
  0
LINE
  5
41F7
  8
0
  6
VERDECKT
 62
     1
 10
-248.5
 20
364.2521784995996086
 30
0.0000000000000568
 11
-248.5
 21
364.3306824339640002
 31
0.0000000000000568
  0
LINE
  5
41F8
  8
0
  6
VERDECKT
 62
     1
 10
-248.4999999999998863
 20
479.0945749963755134
 30
0.0000000000000568
 11
-248.4999999999998863
 21
479.1730789307400187
 31
0.0000000000000568
  0
LINE
  5
41F9
  8
0
  6
VERDECKT
 62
     1
 10
-147.4999999999998863
 20
0.5798743996095338
 30
0.0000000000000355
 11
-152.4999999999998863
 21
0.5798743996095338
 31
0.0000000000000366
  0
LINE
  5
41FA
  8
0
  6
VERDECKT
 62
     1
 10
-147.4999999999998863
 20
0.5013704652450853
 30
0.0000000000000355
 11
-152.4999999999998863
 21
0.5013704652450853
 31
0.0000000000000366
  0
LINE
  5
41FB
  8
0
  6
VERDECKT
 62
     1
 10
152.5
 20
0.5798743996095338
 30
-0.0000000000000355
 11
147.5
 21
0.5798743996095338
 31
-0.0000000000000344
  0
LINE
  5
41FC
  8
0
  6
VERDECKT
 62
     1
 10
152.5
 20
0.5013704652450853
 30
-0.0000000000000355
 11
147.5
 21
0.5013704652450853
 31
-0.0000000000000344
  0
LINE
  5
41FD
  8
0
  6
VERDECKT
 62
     1
 10
248.5000000000005969
 20
254.6525870602841053
 30
-0.0000000000000568
 11
250.0000000000005969
 21
254.6525870602841053
 31
-0.0000000000000572
  0
LINE
  5
41FE
  8
0
  6
VERDECKT
 62
     1
 10
-250.0000000000005116
 20
254.6525870602841053
 30
0.0000000000000568
 11
-248.5000000000005969
 21
254.6525870602841053
 31
0.0000000000000565
  0
LINE
  5
41FF
  8
0
  6
VERDECKT
 62
     1
 10
248.5000000000005969
 20
254.9807483783382054
 30
-0.0000000000000568
 11
248.5000000000005969
 21
364.2521784995996086
 31
-0.0000000000000568
  0
LINE
  5
4200
  8
0
  6
VERDECKT
 62
     1
 10
-248.5000000000005969
 20
364.2521784995996086
 30
0.0000000000000568
 11
-248.5000000000005969
 21
254.9807483783382054
 31
0.0000000000000568
  0
LINE
  5
4201
  8
0
  6
VERDECKT
 62
     1
 10
248.5000000000005969
 20
1.4999999999996041
 30
-0.0000000000000568
 11
248.5000000000005969
 21
19.7249890092715283
 31
-0.0000000000000568
  0
LINE
  5
4202
  8
0
  6
VERDECKT
 62
     1
 10
248.5000000000003126
 20
-0.0000000000004261
 30
-0.0000000000000551
 11
248.5000000000003126
 21
1.499999999999801
 31
-0.0000000000000551
  0
LINE
  5
4203
  8
0
  6
VERDECKT
 62
     1
 10
250.0000000000003126
 20
1.499999999999801
 30
-0.0000000000000555
 11
250.0000000000003126
 21
-0.0000000000004261
 31
-0.0000000000000555
  0
LINE
  5
4204
  8
0
  6
VERDECKT
 62
     1
 10
-248.5000000000005116
 20
19.7249890092715283
 30
0.0000000000000568
 11
-248.5000000000005116
 21
1.499999999999577
 31
0.0000000000000568
  0
LINE
  5
4205
  8
0
  6
VERDECKT
 62
     1
 10
-248.5000000000003126
 20
1.499999999999801
 30
0.0000000000000551
 11
-248.5000000000003126
 21
-0.0000000000004261
 31
0.0000000000000551
  0
LINE
  5
4206
  8
0
  6
VERDECKT
 62
     1
 10
-250.0000000000003126
 20
-0.0000000000004261
 30
0.0000000000000555
 11
-250.0000000000003126
 21
1.499999999999801
 31
0.0000000000000555
  0
LINE
  5
4207
  8
0
  6
VERDECKT
 62
     1
 10
248.5000000000005969
 20
369.4949835570599816
 30
-0.0000000000000568
 11
250.0000000000005969
 21
369.4949835570599816
 31
-0.0000000000000572
  0
LINE
  5
4208
  8
0
  6
VERDECKT
 62
     1
 10
-250.0000000000005116
 20
369.4949835570599816
 30
0.0000000000000568
 11
-248.5000000000005969
 21
369.4949835570599816
 31
0.0000000000000565
  0
LINE
  5
4209
  8
0
  6
VERDECKT
 62
     1
 10
248.5000000000005969
 20
369.8231448751142239
 30
-0.0000000000000568
 11
248.5000000000005969
 21
479.0945749963756271
 31
-0.0000000000000568
  0
LINE
  5
420A
  8
0
  6
VERDECKT
 62
     1
 10
-248.5000000000005969
 20
479.0945749963756271
 30
0.0000000000000568
 11
-248.5000000000005969
 21
369.8231448751142239
 31
0.0000000000000568
  0
LINE
  5
420B
  8
0
  6
VERDECKT
 62
     1
 10
248.5000000000005969
 20
139.8101905635080016
 30
-0.0000000000000568
 11
250.0000000000005969
 21
139.8101905635080016
 31
-0.0000000000000572
  0
LINE
  5
420C
  8
0
  6
VERDECKT
 62
     1
 10
-250.0000000000005116
 20
139.8101905635080016
 30
0.0000000000000568
 11
-248.5000000000005969
 21
139.8101905635080016
 31
0.0000000000000565
  0
LINE
  5
420D
  8
0
  6
VERDECKT
 62
     1
 10
248.5000000000005969
 20
140.1383518815621869
 30
-0.0000000000000568
 11
248.5000000000005969
 21
249.4097820028235901
 31
-0.0000000000000568
  0
LINE
  5
420E
  8
0
  6
VERDECKT
 62
     1
 10
-248.5000000000005969
 20
249.4097820028235901
 30
0.0000000000000568
 11
-248.5000000000005969
 21
140.1383518815621869
 31
0.0000000000000568
  0
LINE
  5
420F
  8
0
  6
VERDECKT
 62
     1
 10
248.5000000000005969
 20
24.9677940667321003
 30
-0.0000000000000568
 11
250.0000000000005969
 21
24.9677940667321003
 31
-0.0000000000000572
  0
LINE
  5
4210
  8
0
  6
VERDECKT
 62
     1
 10
-250.0000000000005116
 20
24.9677940667321003
 30
0.0000000000000568
 11
-248.5000000000005969
 21
24.9677940667321003
 31
0.0000000000000565
  0
LINE
  5
4211
  8
0
  6
VERDECKT
 62
     1
 10
248.5000000000005969
 20
25.2959553847860583
 30
-0.0000000000000568
 11
248.5000000000005969
 21
134.5673855060476001
 31
-0.0000000000000568
  0
LINE
  5
4212
  8
0
  6
VERDECKT
 62
     1
 10
-248.5000000000005969
 20
134.5673855060476001
 30
0.0000000000000568
 11
-248.5000000000005116
 21
25.2959553847860796
 31
0.0000000000000568
  0
LINE
  5
4213
  8
0
  6
VERDECKT
 62
     1
 10
248.5000000000005969
 20
484.6655413718900718
 30
-0.0000000000000568
 11
248.5000000000005969
 21
508.2900825166038885
 31
-0.0000000000000568
  0
LINE
  5
4214
  8
0
  6
VERDECKT
 62
     1
 10
248.5000000000005969
 20
484.3373800538361138
 30
-0.0000000000000568
 11
250.0000000000005969
 21
484.3373800538361138
 31
-0.0000000000000572
  0
LINE
  5
4215
  8
0
  6
VERDECKT
 62
     1
 10
249.25
 20
508.2900825166038885
 30
-0.0000000000000568
 11
248.5000000000005969
 21
508.2900825166038885
 31
-0.0000000000000567
  0
LINE
  5
4216
  8
0
  6
VERDECKT
 62
     1
 10
-248.5000000000005969
 20
508.2900825166038885
 30
0.0000000000000568
 11
-248.5000000000005969
 21
484.6655413718900718
 31
0.0000000000000568
  0
LINE
  5
4217
  8
0
  6
VERDECKT
 62
     1
 10
-248.5000000000005969
 20
508.2900825166038885
 30
0.0000000000000568
 11
-249.2499999999998863
 21
508.2900825166038885
 31
0.000000000000057
  0
LINE
  5
4218
  8
0
  6
VERDECKT
 62
     1
 10
-250.0000000000005969
 20
484.3373800538361138
 30
0.0000000000000568
 11
-248.5000000000005969
 21
484.3373800538361138
 31
0.0000000000000565
  0
LINE
  5
4219
  8
0
  6
VERDECKT
 62
     1
 10
-248.5000000000005969
 20
508.3690120088247113
 30
0.0000000000000568
 11
-248.5000000000005969
 21
508.2900825166038885
 31
0.0000000000000568
  0
LINE
  5
421A
  8
0
  6
VERDECKT
 62
     1
 10
248.5000000000005969
 20
508.2900825166038885
 30
-0.0000000000000568
 11
248.5000000000005969
 21
508.3690120088247113
 31
-0.0000000000000568
  0
ENDBLK
  5
421C
  8
0
  0
BLOCK
  8
0
  2
A$CDF5CEA13
 70
     0
 10
0.0
 20
0.0
 30
0.0
  3
A$CDF5CEA13
  1

  0
LINE
  5
4220
  8
0
  6
CONTINUOUS
 62
     3
 10
248.0
 20
-48.9999999999998366
 30
0.0000000000000109
 11
152.75
 21
-48.9999999999998721
 31
0.0000000000000109
210
0.0
220
1.0
230
-0.0000000000000002
  0
LINE
  5
4221
  8
0
  6
CONTINUOUS
 62
     3
 10
152.75
 20
-48.9999999999998792
 30
0.0000000000000109
 11
152.75
 21
-50.4999999999998792
 31
0.0000000000000112
210
0.0
220
1.0
230
-0.0000000000000002
  0
LINE
  5
4222
  8
0
  6
CONTINUOUS
 62
     3
 10
152.75
 20
-50.4999999999998792
 30
0.0000000000000112
 11
147.25
 21
-50.4999999999998792
 31
0.0000000000000112
210
0.0
220
1.0
230
-0.0000000000000002
  0
LINE
  5
4223
  8
0
  6
CONTINUOUS
 62
     3
 10
147.25
 20
-50.4999999999998792
 30
0.0000000000000112
 11
147.2499999999998863
 21
-48.9999999999998792
 31
0.0000000000000109
210
0.0
220
1.0
230
-0.0000000000000002
  0
LINE
  5
4224
  8
0
  6
CONTINUOUS
 62
     3
 10
147.2499999999998863
 20
-48.9999999999998792
 30
0.0000000000000109
 11
2.75
 21
-48.9999999999999716
 31
0.0000000000000109
210
0.0
220
1.0
230
-0.0000000000000002
  0
LINE
  5
4225
  8
0
  6
CONTINUOUS
 62
     3
 10
2.7500000000000022
 20
-48.9999999999999716
 30
0.0000000000000109
 11
2.7500000000000031
 21
-50.4999999999999787
 31
0.0000000000000112
210
0.0
220
1.0
230
-0.0000000000000002
  0
LINE
  5
4226
  8
0
  6
CONTINUOUS
 62
     3
 10
2.750000000000004
 20
-50.4999999999999787
 30
0.0000000000000112
 11
-2.749999999999996
 21
-50.4999999999999929
 31
0.0000000000000112
210
0.0
220
1.0
230
-0.0000000000000002
  0
LINE
  5
4227
  8
0
  6
CONTINUOUS
 62
     3
 10
-2.749999999999996
 20
-50.4999999999999787
 30
0.0000000000000112
 11
-2.749999999999996
 21
-48.9999999999999716
 31
0.0000000000000109
210
0.0
220
1.0
230
-0.0000000000000002
  0
LINE
  5
4228
  8
0
  6
CONTINUOUS
 62
     3
 10
-2.7499999999999969
 20
-48.9999999999999716
 30
0.0000000000000109
 11
-147.25
 21
-49.0000000000000782
 31
0.0000000000000109
210
0.0
220
1.0
230
-0.0000000000000002
  0
LINE
  5
4229
  8
0
  6
CONTINUOUS
 62
     3
 10
-147.25
 20
-49.0000000000000924
 30
0.0000000000000109
 11
-147.2499999999998863
 21
-50.4999999999999787
 31
0.0000000000000112
210
0.0
220
1.0
230
-0.0000000000000002
  0
LINE
  5
422A
  8
0
  6
CONTINUOUS
 62
     3
 10
-147.2499999999998863
 20
-50.4999999999999787
 30
0.0000000000000112
 11
-152.75
 21
-50.5000000000000782
 31
0.0000000000000112
210
0.0
220
1.0
230
-0.0000000000000002
  0
LINE
  5
422B
  8
0
  6
CONTINUOUS
 62
     3
 10
-152.75
 20
-50.5000000000000782
 30
0.0000000000000112
 11
-152.7499999999998863
 21
-48.9999999999999787
 31
0.0000000000000109
210
0.0
220
1.0
230
-0.0000000000000002
  0
LINE
  5
422C
  8
0
  6
CONTINUOUS
 62
     3
 10
-152.7499999999998863
 20
-48.9999999999999929
 30
0.0000000000000109
 11
-248.0
 21
-49.0000000000000284
 31
0.0000000000000109
210
0.0
220
1.0
230
-0.0000000000000002
  0
ARC
  5
422D
  8
0
  6
CONTINUOUS
 62
     3
 10
248.0
 20
-48.0000000000000284
 30
0.0
 40
1.0
210
0.0
220
-0.0000000000000002
230
-1.0
 50
270.0
 51
359.9999999999959073
  0
LINE
  5
422E
  8
0
  6
CONTINUOUS
 62
     3
 10
-249.0
 20
-48.0000000000001492
 30
0.0000000000000107
 11
-249.0
 21
-2.7499999999999498
 31
0.0000000000000006
210
0.0
220
1.0
230
-0.0000000000000002
  0
LINE
  5
422F
  8
0
  6
CONTINUOUS
 62
     3
 10
-249.0
 20
-2.7499999999999512
 30
0.0000000000000006
 11
-250.5
 21
-2.7499999999999001
 31
0.0000000000000006
210
0.0
220
1.0
230
-0.0000000000000002
  0
LINE
  5
4230
  8
0
  6
CONTINUOUS
 62
     3
 10
-250.5
 20
-2.7499999999999001
 30
0.0000000000000006
 11
-250.5
 21
2.7500000000000999
 31
-0.0000000000000006
210
0.0
220
1.0
230
-0.0000000000000002
  0
LINE
  5
4231
  8
0
  6
CONTINUOUS
 62
     3
 10
-250.5
 20
2.7500000000001008
 30
-0.0000000000000006
 11
-249.0
 21
2.7500000000000488
 31
-0.0000000000000006
210
0.0
220
1.0
230
-0.0000000000000002
  0
LINE
  5
4232
  8
0
  6
CONTINUOUS
 62
     3
 10
-249.0
 20
2.7500000000000488
 30
-0.0000000000000006
 11
-249.0000000000001137
 21
48.0000000000000284
 31
-0.0000000000000107
210
0.0
220
1.0
230
-0.0000000000000002
  0
ARC
  5
4233
  8
0
  6
CONTINUOUS
 62
     3
 10
248.0
 20
47.9999999999998579
 30
0.0
 40
1.000000000000028
210
0.0
220
-0.0000000000000002
230
-1.0
 50
0.0
 51
89.9999999999922693
  0
LINE
  5
4234
  8
0
  6
CONTINUOUS
 62
     3
 10
-248.0
 20
48.9999999999999076
 30
-0.0000000000000109
 11
-152.75
 21
48.9999999999999289
 31
-0.0000000000000109
210
0.0
220
1.0
230
-0.0000000000000002
  0
LINE
  5
4235
  8
0
  6
CONTINUOUS
 62
     3
 10
-152.7499999999998863
 20
48.9999999999999218
 30
-0.0000000000000109
 11
-152.75
 21
50.5000000000000071
 31
-0.0000000000000112
210
0.0
220
1.0
230
-0.0000000000000002
  0
LINE
  5
4236
  8
0
  6
CONTINUOUS
 62
     3
 10
-152.75
 20
50.5
 30
-0.0000000000000112
 11
-147.2499999999998863
 21
50.4999999999999005
 31
-0.0000000000000112
210
0.0
220
1.0
230
-0.0000000000000002
  0
LINE
  5
4237
  8
0
  6
CONTINUOUS
 62
     3
 10
-147.2499999999998863
 20
50.4999999999999076
 30
-0.0000000000000112
 11
-147.25
 21
49.0000000000000071
 31
-0.0000000000000109
210
0.0
220
1.0
230
-0.0000000000000002
  0
LINE
  5
4238
  8
0
  6
CONTINUOUS
 62
     3
 10
-147.25
 20
49.0000000000000213
 30
-0.0000000000000109
 11
-2.75
 21
48.9999999999999787
 31
-0.0000000000000109
210
0.0
220
1.0
230
-0.0000000000000002
  0
LINE
  5
4239
  8
0
  6
CONTINUOUS
 62
     3
 10
-2.7500000000000209
 20
48.9999999999999716
 30
-0.0000000000000109
 11
-2.7500000000000209
 21
50.4999999999999787
 31
-0.0000000000000112
210
0.0
220
1.0
230
-0.0000000000000002
  0
LINE
  5
423A
  8
0
  6
CONTINUOUS
 62
     3
 10
-2.7500000000000209
 20
50.4999999999999787
 30
-0.0000000000000112
 11
2.7499999999999778
 21
50.4999999999999787
 31
-0.0000000000000112
210
0.0
220
1.0
230
-0.0000000000000002
  0
LINE
  5
423B
  8
0
  6
CONTINUOUS
 62
     3
 10
2.7499999999999791
 20
50.4999999999999787
 30
-0.0000000000000112
 11
2.7499999999999778
 21
48.9999999999999716
 31
-0.0000000000000109
210
0.0
220
1.0
230
-0.0000000000000002
  0
LINE
  5
423C
  8
0
  6
CONTINUOUS
 62
     3
 10
2.7499999999999778
 20
48.9999999999999716
 30
-0.0000000000000109
 11
147.2499999999998863
 21
48.9999999999999503
 31
-0.0000000000000109
210
0.0
220
1.0
230
-0.0000000000000002
  0
LINE
  5
423D
  8
0
  6
CONTINUOUS
 62
     3
 10
147.2499999999998863
 20
48.9999999999999503
 30
-0.0000000000000109
 11
147.2499999999998863
 21
50.4999999999999503
 31
-0.0000000000000112
210
0.0
220
1.0
230
-0.0000000000000002
  0
LINE
  5
423E
  8
0
  6
CONTINUOUS
 62
     3
 10
147.25
 20
50.4999999999999503
 30
-0.0000000000000112
 11
152.75
 21
50.4999999999999503
 31
-0.0000000000000112
210
0.0
220
1.0
230
-0.0000000000000002
  0
LINE
  5
423F
  8
0
  6
CONTINUOUS
 62
     3
 10
152.75
 20
50.4999999999999503
 30
-0.0000000000000112
 11
152.75
 21
48.9999999999999503
 31
-0.0000000000000109
210
0.0
220
1.0
230
-0.0000000000000002
  0
LINE
  5
4240
  8
0
  6
CONTINUOUS
 62
     3
 10
152.75
 20
48.9999999999999503
 30
-0.0000000000000109
 11
248.0
 21
48.9999999999999787
 31
-0.0000000000000109
210
0.0
220
1.0
230
-0.0000000000000002
  0
ARC
  5
4241
  8
0
  6
CONTINUOUS
 62
     3
 10
-248.0
 20
48.0000000000000995
 30
0.0
 40
0.9999999999999928
210
0.0
220
-0.0000000000000002
230
-1.0
 50
90.0
 51
180.0000000000003979
  0
LINE
  5
4242
  8
0
  6
CONTINUOUS
 62
     3
 10
249.0000000000001137
 20
48.0000000000000924
 30
-0.0000000000000107
 11
248.9999999999998863
 21
2.750000000000107
 31
-0.0000000000000006
210
0.0
220
1.0
230
-0.0000000000000002
  0
LINE
  5
4243
  8
0
  6
CONTINUOUS
 62
     3
 10
248.9999999999998863
 20
2.750000000000111
 30
-0.0000000000000006
 11
250.4999999999998863
 21
2.7500000000001621
 31
-0.0000000000000006
210
0.0
220
1.0
230
-0.0000000000000002
  0
LINE
  5
4244
  8
0
  6
CONTINUOUS
 62
     3
 10
250.4999999999998863
 20
2.7500000000001621
 30
-0.0000000000000006
 11
250.4999999999998863
 21
-2.7499999999998379
 31
0.0000000000000006
210
0.0
220
1.0
230
-0.0000000000000002
  0
LINE
  5
4245
  8
0
  6
CONTINUOUS
 62
     3
 10
250.4999999999998863
 20
-2.7499999999998379
 30
0.0000000000000006
 11
248.9999999999998863
 21
-2.7499999999998899
 31
0.0000000000000006
210
0.0
220
1.0
230
-0.0000000000000002
  0
LINE
  5
4246
  8
0
  6
CONTINUOUS
 62
     3
 10
248.9999999999998863
 20
-2.7499999999998899
 30
0.0000000000000006
 11
249.0000000000001137
 21
-47.9999999999999574
 31
0.0000000000000107
210
0.0
220
1.0
230
-0.0000000000000002
  0
ARC
  5
4247
  8
0
  6
CONTINUOUS
 62
     3
 10
-248.0
 20
-47.9999999999999787
 30
0.0
 40
1.0
210
0.0
220
-0.0000000000000002
230
-1.0
 50
179.9999999999992042
 51
270.0
  0
CIRCLE
  5
4248
  8
0
  6
CONTINUOUS
 62
     3
 10
120.0
 20
-150.0
 30
0.0
 40
3.5
210
0.0
220
-0.0000000000000002
230
-1.0
  0
CIRCLE
  5
4249
  8
0
  6
CONTINUOUS
 62
     3
 10
-120.0
 20
-150.0
 30
0.0
 40
3.5
210
0.0
220
-0.0000000000000002
230
-1.0
  0
CIRCLE
  5
424A
  8
0
  6
CONTINUOUS
 62
     3
 10
-120.0
 20
150.0
 30
0.0
 40
3.5
210
0.0
220
-0.0000000000000002
230
-1.0
  0
CIRCLE
  5
424B
  8
0
  6
CONTINUOUS
 62
     3
 10
120.0
 20
150.0
 30
0.0
 40
3.5
210
0.0
220
-0.0000000000000002
230
-1.0
  0
CIRCLE
  5
424C
  8
0
  6
CONTINUOUS
 62
     3
 10
-350.0
 20
150.0
 30
0.0
 40
3.4999999999999898
210
0.0
220
-0.0000000000000002
230
-1.0
  0
CIRCLE
  5
424D
  8
0
  6
CONTINUOUS
 62
     3
 10
-350.0
 20
-150.0
 30
0.0
 40
3.499999999999992
210
0.0
220
-0.0000000000000002
230
-1.0
  0
CIRCLE
  5
424E
  8
0
  6
CONTINUOUS
 62
     3
 10
350.0
 20
-150.0000000000001137
 30
0.0
 40
3.5000000000000089
210
0.0
220
-0.0000000000000002
230
-1.0
  0
CIRCLE
  5
424F
  8
0
  6
CONTINUOUS
 62
     3
 10
350.0
 20
150.0
 30
0.0
 40
3.4999999999999871
210
0.0
220
-0.0000000000000002
230
-1.0
  0
ARC
  5
4250
  8
0
  6
CONTINUOUS
 62
     3
 10
350.0
 20
-150.0000000000001137
 30
0.0
 40
20.0
210
0.0
220
-0.0000000000000002
230
-1.0
 50
270.0
 51
0.0
  0
LINE
  5
4251
  8
0
  6
CONTINUOUS
 62
     3
 10
-370.0
 20
-150.0000000000001137
 30
0.0000000000000333
 11
-370.0000000000001137
 21
150.0
 31
-0.0000000000000333
210
0.0
220
1.0
230
-0.0000000000000002
  0
ARC
  5
4252
  8
0
  6
CONTINUOUS
 62
     3
 10
350.0
 20
150.0
 30
0.0
 40
20.0
210
0.0
220
-0.0000000000000002
230
-1.0
 50
0.0
 51
90.0
  0
LINE
  5
4253
  8
0
  6
CONTINUOUS
 62
     3
 10
-350.0
 20
170.0
 30
-0.0000000000000377
 11
350.0
 21
170.0
 31
-0.0000000000000377
210
0.0
220
1.0
230
-0.0000000000000002
  0
ARC
  5
4254
  8
0
  6
CONTINUOUS
 62
     3
 10
-350.0
 20
150.0
 30
0.0
 40
20.0
210
0.0
220
-0.0000000000000002
230
-1.0
 50
90.0
 51
180.0
  0
LINE
  5
4255
  8
0
  6
CONTINUOUS
 62
     3
 10
369.9999999999998863
 20
150.0
 30
-0.0000000000000333
 11
369.9999999999998863
 21
-150.0
 31
0.0000000000000333
210
0.0
220
1.0
230
-0.0000000000000002
  0
ARC
  5
4256
  8
0
  6
CONTINUOUS
 62
     3
 10
-350.0
 20
-150.0
 30
0.0
 40
20.0
210
0.0
220
-0.0000000000000002
230
-1.0
 50
180.0
 51
270.0
  0
LINE
  5
4257
  8
0
  6
CONTINUOUS
 62
     3
 10
350.0
 20
-170.0
 30
0.0000000000000377
 11
-350.0
 21
-170.0000000000001137
 31
0.0000000000000377
210
0.0
220
1.0
230
-0.0000000000000002
  0
LINE
  5
4258
  8
0
  6
CONTINUOUS
 62
     3
 10
152.75
 20
50.0645030830317808
 30
-0.0000000000000111
 11
152.5
 21
50.0645030830317808
 31
-0.0000000000000111
210
0.0
220
1.0
230
-0.0000000000000002
  0
LINE
  5
4259
  8
0
  6
CONTINUOUS
 62
     3
 10
248.8240213272636083
 20
48.5665587808999106
 30
-0.0000000000000108
 11
152.5
 21
48.5665587808999106
 31
-0.0000000000000108
210
0.0
220
1.0
230
-0.0000000000000002
  0
LINE
  5
425A
  8
0
  6
CONTINUOUS
 62
     3
 10
-248.5000000000003979
 20
22.0067936909935113
 30
-0.0000000000000049
 11
248.5000000000003979
 21
22.0067936909935113
 31
-0.0000000000000049
210
0.0
220
1.0
230
-0.0000000000000002
  0
LINE
  5
425B
  8
0
  6
CONTINUOUS
 62
     3
 10
152.5
 20
48.5665587808999106
 30
-0.0000000000000108
 11
152.5
 21
48.6450627152643307
 31
-0.0000000000000108
210
0.0
220
1.0
230
-0.0000000000000002
  0
LINE
  5
425C
  8
0
  6
CONTINUOUS
 62
     3
 10
152.5
 20
48.6450627152643307
 30
-0.0000000000000108
 11
147.5
 21
48.6450627152643307
 31
-0.0000000000000108
210
0.0
220
1.0
230
-0.0000000000000002
  0
LINE
  5
425D
  8
0
  6
CONTINUOUS
 62
     3
 10
147.5
 20
48.6450627152643307
 30
-0.0000000000000108
 11
147.5
 21
48.5665587808999106
 31
-0.0000000000000108
210
0.0
220
1.0
230
-0.0000000000000002
  0
LINE
  5
425E
  8
0
  6
CONTINUOUS
 62
     3
 10
147.5
 20
48.5665587808999106
 30
-0.0000000000000108
 11
2.5
 21
48.5665587808999106
 31
-0.0000000000000108
210
0.0
220
1.0
230
-0.0000000000000002
  0
LINE
  5
425F
  8
0
  6
CONTINUOUS
 62
     3
 10
2.5
 20
48.5665587808999106
 30
-0.0000000000000108
 11
2.5
 21
48.6450627152643307
 31
-0.0000000000000108
210
0.0
220
1.0
230
-0.0000000000000002
  0
LINE
  5
4260
  8
0
  6
CONTINUOUS
 62
     3
 10
2.5
 20
48.6450627152643307
 30
-0.0000000000000108
 11
-2.5
 21
48.6450627152643307
 31
-0.0000000000000108
210
0.0
220
1.0
230
-0.0000000000000002
  0
LINE
  5
4261
  8
0
  6
CONTINUOUS
 62
     3
 10
-2.5
 20
48.6450627152643307
 30
-0.0000000000000108
 11
-2.4999999999999991
 21
48.5665587808999106
 31
-0.0000000000000108
210
0.0
220
1.0
230
-0.0000000000000002
  0
LINE
  5
4262
  8
0
  6
CONTINUOUS
 62
     3
 10
-2.5
 20
48.5665587808999106
 30
-0.0000000000000108
 11
-147.5
 21
48.5665587808999106
 31
-0.0000000000000108
210
0.0
220
1.0
230
-0.0000000000000002
  0
LINE
  5
4263
  8
0
  6
CONTINUOUS
 62
     3
 10
-147.5
 20
48.5665587808999106
 30
-0.0000000000000108
 11
-147.5
 21
48.6450627152643307
 31
-0.0000000000000108
210
0.0
220
1.0
230
-0.0000000000000002
  0
LINE
  5
4264
  8
0
  6
CONTINUOUS
 62
     3
 10
-147.5
 20
48.6450627152643307
 30
-0.0000000000000108
 11
-152.5
 21
48.6450627152643307
 31
-0.0000000000000108
210
0.0
220
1.0
230
-0.0000000000000002
  0
LINE
  5
4265
  8
0
  6
CONTINUOUS
 62
     3
 10
-152.5
 20
48.6450627152643307
 30
-0.0000000000000108
 11
-152.5
 21
48.5665587808999106
 31
-0.0000000000000108
210
0.0
220
1.0
230
-0.0000000000000002
  0
LINE
  5
4266
  8
0
  6
CONTINUOUS
 62
     3
 10
-152.5
 20
48.5665587808999106
 30
-0.0000000000000108
 11
-248.8240213272636083
 21
48.5665587808999106
 31
-0.0000000000000108
210
0.0
220
1.0
230
-0.0000000000000002
  0
LINE
  5
4267
  8
0
  6
CONTINUOUS
 62
     3
 10
152.5
 20
48.6450627152643307
 30
-0.0000000000000108
 11
152.5
 21
50.1430070173961866
 31
-0.0000000000000111
210
0.0
220
1.0
230
-0.0000000000000002
  0
LINE
  5
4268
  8
0
  6
CONTINUOUS
 62
     3
 10
152.5
 20
50.1430070173961866
 30
-0.0000000000000111
 11
147.5
 21
50.1430070173961866
 31
-0.0000000000000111
210
0.0
220
1.0
230
-0.0000000000000002
  0
LINE
  5
4269
  8
0
  6
CONTINUOUS
 62
     3
 10
147.5
 20
48.6450627152643307
 30
-0.0000000000000108
 11
147.5
 21
50.1430070173961866
 31
-0.0000000000000111
210
0.0
220
1.0
230
-0.0000000000000002
  0
LINE
  5
426A
  8
0
  6
CONTINUOUS
 62
     3
 10
147.5
 20
50.0645030830317808
 30
-0.0000000000000111
 11
147.2499999999998863
 21
50.0645030830317808
 31
-0.0000000000000111
210
0.0
220
1.0
230
-0.0000000000000002
  0
LINE
  5
426B
  8
0
  6
CONTINUOUS
 62
     3
 10
2.7499999999999711
 20
50.0645030830317808
 30
-0.0000000000000111
 11
2.5
 21
50.0645030830317808
 31
-0.0000000000000111
210
0.0
220
1.0
230
-0.0000000000000002
  0
LINE
  5
426C
  8
0
  6
CONTINUOUS
 62
     3
 10
2.5
 20
48.6450627152643307
 30
-0.0000000000000108
 11
2.5
 21
50.1430070173961866
 31
-0.0000000000000111
210
0.0
220
1.0
230
-0.0000000000000002
  0
LINE
  5
426D
  8
0
  6
CONTINUOUS
 62
     3
 10
2.5
 20
50.1430070173961866
 30
-0.0000000000000111
 11
-2.5
 21
50.1430070173961866
 31
-0.0000000000000111
210
0.0
220
1.0
230
-0.0000000000000002
  0
LINE
  5
426E
  8
0
  6
CONTINUOUS
 62
     3
 10
-2.5
 20
48.6450627152643307
 30
-0.0000000000000108
 11
-2.5
 21
50.1430070173961866
 31
-0.0000000000000111
210
0.0
220
1.0
230
-0.0000000000000002
  0
LINE
  5
426F
  8
0
  6
CONTINUOUS
 62
     3
 10
-2.5
 20
50.0645030830317666
 30
-0.0000000000000111
 11
-2.7500000000000209
 21
50.0645030830317666
 31
-0.0000000000000111
210
0.0
220
1.0
230
-0.0000000000000002
  0
LINE
  5
4270
  8
0
  6
CONTINUOUS
 62
     3
 10
-147.2499999999998863
 20
50.0645030830317666
 30
-0.0000000000000111
 11
-147.5
 21
50.0645030830317666
 31
-0.0000000000000111
210
0.0
220
1.0
230
-0.0000000000000002
  0
LINE
  5
4271
  8
0
  6
CONTINUOUS
 62
     3
 10
-147.5
 20
48.6450627152643307
 30
-0.0000000000000108
 11
-147.5
 21
50.1430070173961866
 31
-0.0000000000000111
210
0.0
220
1.0
230
-0.0000000000000002
  0
LINE
  5
4272
  8
0
  6
CONTINUOUS
 62
     3
 10
-147.5
 20
50.1430070173961866
 30
-0.0000000000000111
 11
-152.5
 21
50.1430070173961866
 31
-0.0000000000000111
210
0.0
220
1.0
230
-0.0000000000000002
  0
LINE
  5
4273
  8
0
  6
CONTINUOUS
 62
     3
 10
-152.5
 20
48.6450627152643307
 30
-0.0000000000000108
 11
-152.5
 21
50.1430070173961866
 31
-0.0000000000000111
210
0.0
220
1.0
230
-0.0000000000000002
  0
LINE
  5
4274
  8
0
  6
CONTINUOUS
 62
     3
 10
-152.5
 20
50.0645030830317808
 30
-0.0000000000000111
 11
-152.75
 21
50.0645030830317808
 31
-0.0000000000000111
210
0.0
220
1.0
230
-0.0000000000000002
  0
LINE
  5
4275
  8
0
  6
CONTINUOUS
 62
     3
 10
-152.4999999999998863
 20
-50.0162813436523308
 30
0.0000000000000111
 11
-152.4999999999998863
 21
-50.0686172998952799
 31
0.0000000000000111
210
0.0
220
1.0
230
-0.0000000000000002
  0
LINE
  5
4276
  8
0
  6
CONTINUOUS
 62
     3
 10
-152.4999999999998863
 20
-50.0162813436523308
 30
0.0000000000000111
 11
-152.4999999999998863
 21
-48.5183370415204678
 31
0.0000000000000108
210
0.0
220
1.0
230
-0.0000000000000002
  0
LINE
  5
4277
  8
0
  6
CONTINUOUS
 62
     3
 10
-147.4999999999998863
 20
-48.518337041520482
 30
0.0000000000000108
 11
-152.4999999999998863
 21
-48.518337041520482
 31
0.0000000000000108
210
0.0
220
1.0
230
-0.0000000000000002
  0
LINE
  5
4278
  8
0
  6
CONTINUOUS
 62
     3
 10
-147.4999999999998863
 20
-50.0162813436523308
 30
0.0000000000000111
 11
-152.4999999999998863
 21
-50.0162813436523308
 31
0.0000000000000111
210
0.0
220
1.0
230
-0.0000000000000002
  0
LINE
  5
4279
  8
0
  6
CONTINUOUS
 62
     3
 10
-147.4999999999998863
 20
-50.0162813436523308
 30
0.0000000000000111
 11
-147.4999999999998863
 21
-48.5183370415204678
 31
0.0000000000000108
210
0.0
220
1.0
230
-0.0000000000000002
  0
LINE
  5
427A
  8
0
  6
CONTINUOUS
 62
     3
 10
-147.4999999999998863
 20
-50.068617299895287
 30
0.0000000000000111
 11
-147.4999999999998863
 21
-50.0162813436523379
 31
0.0000000000000111
210
0.0
220
1.0
230
-0.0000000000000002
  0
LINE
  5
427B
  8
0
  6
CONTINUOUS
 62
     3
 10
147.5
 20
-50.0162813436523308
 30
0.0000000000000111
 11
147.5
 21
-50.0686172998952799
 31
0.0000000000000111
210
0.0
220
1.0
230
-0.0000000000000002
  0
LINE
  5
427C
  8
0
  6
CONTINUOUS
 62
     3
 10
147.5
 20
-50.0162813436523308
 30
0.0000000000000111
 11
147.5
 21
-48.5183370415204678
 31
0.0000000000000108
210
0.0
220
1.0
230
-0.0000000000000002
  0
LINE
  5
427D
  8
0
  6
CONTINUOUS
 62
     3
 10
152.5
 20
-50.0162813436523308
 30
0.0000000000000111
 11
152.5
 21
-48.5183370415204678
 31
0.0000000000000108
210
0.0
220
1.0
230
-0.0000000000000002
  0
LINE
  5
427E
  8
0
  6
CONTINUOUS
 62
     3
 10
152.5
 20
-50.068617299895287
 30
0.0000000000000111
 11
152.5
 21
-50.0162813436523379
 31
0.0000000000000111
210
0.0
220
1.0
230
-0.0000000000000002
  0
LINE
  5
427F
  8
0
  6
CONTINUOUS
 62
     3
 10
152.5
 20
-48.518337041520482
 30
0.0000000000000108
 11
147.5
 21
-48.518337041520482
 31
0.0000000000000108
210
0.0
220
1.0
230
-0.0000000000000002
  0
LINE
  5
4280
  8
0
  6
CONTINUOUS
 62
     3
 10
152.5
 20
-50.0162813436523308
 30
0.0000000000000111
 11
147.5
 21
-50.0162813436523308
 31
0.0000000000000111
210
0.0
220
1.0
230
-0.0000000000000002
  0
LINE
  5
4281
  8
0
  6
CONTINUOUS
 62
     3
 10
-2.500000000000143
 20
-49.9901133655308669
 30
0.0000000000000111
 11
-2.5000000000001439
 21
-50.068617299895287
 31
0.0000000000000111
210
0.0
220
1.0
230
-0.0000000000000002
  0
LINE
  5
4282
  8
0
  6
CONTINUOUS
 62
     3
 10
-2.500000000000143
 20
-49.9901133655308669
 30
0.0000000000000111
 11
-2.500000000000143
 21
-48.492169063399011
 31
0.0000000000000108
210
0.0
220
1.0
230
-0.0000000000000002
  0
LINE
  5
4283
  8
0
  6
CONTINUOUS
 62
     3
 10
2.4999999999998561
 20
-48.492169063399011
 30
0.0000000000000108
 11
-2.500000000000143
 21
-48.492169063399011
 31
0.0000000000000108
210
0.0
220
1.0
230
-0.0000000000000002
  0
LINE
  5
4284
  8
0
  6
CONTINUOUS
 62
     3
 10
2.4999999999998561
 20
-49.9901133655308669
 30
0.0000000000000111
 11
-2.500000000000143
 21
-49.9901133655308669
 31
0.0000000000000111
210
0.0
220
1.0
230
-0.0000000000000002
  0
LINE
  5
4285
  8
0
  6
CONTINUOUS
 62
     3
 10
2.4999999999998561
 20
-49.9901133655308669
 30
0.0000000000000111
 11
2.4999999999998561
 21
-48.492169063399011
 31
0.0000000000000108
210
0.0
220
1.0
230
-0.0000000000000002
  0
LINE
  5
4286
  8
0
  6
CONTINUOUS
 62
     3
 10
2.4999999999998561
 20
-50.068617299895287
 30
0.0000000000000111
 11
2.4999999999998561
 21
-49.9901133655308669
 31
0.0000000000000111
210
0.0
220
1.0
230
-0.0000000000000002
  0
LINE
  5
4287
  8
0
  6
CONTINUOUS
 62
     3
 10
2.4999999999998561
 20
-48.5665587808983972
 30
0.0000000000000108
 11
147.5
 21
-48.5665587808983972
 31
0.0000000000000108
210
0.0
220
1.0
230
-0.0000000000000002
  0
LINE
  5
4288
  8
0
  6
CONTINUOUS
 62
     3
 10
147.5
 20
-50.068617299895287
 30
0.0000000000000111
 11
147.25
 21
-50.068617299895287
 31
0.0000000000000111
210
0.0
220
1.0
230
-0.0000000000000002
  0
LINE
  5
4289
  8
0
  6
CONTINUOUS
 62
     3
 10
2.75
 20
-50.068617299895287
 30
0.0000000000000111
 11
2.4999999999998561
 21
-50.068617299895287
 31
0.0000000000000111
210
0.0
220
1.0
230
-0.0000000000000002
  0
LINE
  5
428A
  8
0
  6
CONTINUOUS
 62
     3
 10
152.75
 20
-50.068617299895287
 30
0.0000000000000111
 11
152.5000000000001137
 21
-50.068617299895287
 31
0.0000000000000111
210
0.0
220
1.0
230
-0.0000000000000002
  0
LINE
  5
428B
  8
0
  6
CONTINUOUS
 62
     3
 10
250.0000000000003126
 20
-2.4999999999984941
 30
0.0000000000000006
 11
250.0000000000003126
 21
-2.7499999999998539
 31
0.0000000000000006
210
0.0
220
1.0
230
-0.0000000000000002
  0
LINE
  5
428C
  8
0
  6
CONTINUOUS
 62
     3
 10
248.5000000000001137
 20
-47.06450026190155
 30
0.0000000000000105
 11
248.5000000000003126
 21
-2.4999999999984941
 31
0.0000000000000006
210
0.0
220
1.0
230
-0.0000000000000002
  0
POLYLINE
  5
428D
  8
0
  6
CONTINUOUS
 62
     3
 10
247.0000000000000568
 20
-48.5665587808983972
 30
0.0000000000000108
 66
     1
 70
     8
  0
VERTEX
  8
0
  5
45EE
 10
247.000
 20
-48.5666
 30
1.08000e-14
  70
    32
  0
VERTEX
  8
0
  5
45EF
 10
247.018
 20
-48.5664
 30
1.08000e-14
  70
    32
  0
VERTEX
  8
0
  5
45F0
 10
247.037
 20
-48.5661
 30
1.07999e-14
  70
    32
  0
VERTEX
  8
0
  5
45F1
 10
247.055
 20
-48.5655
 30
1.07998e-14
  70
    32
  0
VERTEX
  8
0
  5
45F2
 10
247.074
 20
-48.5647
 30
1.07996e-14
  70
    32
  0
VERTEX
  8
0
  5
45F3
 10
247.092
 20
-48.5637
 30
1.07994e-14
  70
    32
  0
VERTEX
  8
0
  5
45F4
 10
247.110
 20
-48.5625
 30
1.07992e-14
  70
    32
  0
VERTEX
  8
0
  5
45F5
 10
247.129
 20
-48.5610
 30
1.07989e-14
  70
    32
  0
VERTEX
  8
0
  5
45F6
 10
247.147
 20
-48.5593
 30
1.07986e-14
  70
    32
  0
VERTEX
  8
0
  5
45F7
 10
247.165
 20
-48.5574
 30
1.07982e-14
  70
    32
  0
VERTEX
  8
0
  5
45F8
 10
247.184
 20
-48.5553
 30
1.07977e-14
  70
    32
  0
VERTEX
  8
0
  5
45F9
 10
247.202
 20
-48.5529
 30
1.07973e-14
  70
    32
  0
VERTEX
  8
0
  5
45FA
 10
247.220
 20
-48.5503
 30
1.07968e-14
  70
    32
  0
VERTEX
  8
0
  5
45FB
 10
247.238
 20
-48.5475
 30
1.07962e-14
  70
    32
  0
VERTEX
  8
0
  5
45FC
 10
247.256
 20
-48.5444
 30
1.07956e-14
  70
    32
  0
VERTEX
  8
0
  5
45FD
 10
247.275
 20
-48.5412
 30
1.07949e-14
  70
    32
  0
VERTEX
  8
0
  5
45FE
 10
247.293
 20
-48.5377
 30
1.07942e-14
  70
    32
  0
VERTEX
  8
0
  5
45FF
 10
247.311
 20
-48.5340
 30
1.07935e-14
  70
    32
  0
VERTEX
  8
0
  5
4600
 10
247.329
 20
-48.5301
 30
1.07927e-14
  70
    32
  0
VERTEX
  8
0
  5
4601
 10
247.347
 20
-48.5259
 30
1.07919e-14
  70
    32
  0
VERTEX
  8
0
  5
4602
 10
247.364
 20
-48.5215
 30
1.07910e-14
  70
    32
  0
VERTEX
  8
0
  5
4603
 10
247.382
 20
-48.5170
 30
1.07901e-14
  70
    32
  0
VERTEX
  8
0
  5
4604
 10
247.400
 20
-48.5121
 30
1.07891e-14
  70
    32
  0
VERTEX
  8
0
  5
4605
 10
247.418
 20
-48.5071
 30
1.07881e-14
  70
    32
  0
VERTEX
  8
0
  5
4606
 10
247.435
 20
-48.5019
 30
1.07871e-14
  70
    32
  0
VERTEX
  8
0
  5
4607
 10
247.453
 20
-48.4964
 30
1.07860e-14
  70
    32
  0
VERTEX
  8
0
  5
4608
 10
247.471
 20
-48.4907
 30
1.07849e-14
  70
    32
  0
VERTEX
  8
0
  5
4609
 10
247.488
 20
-48.4849
 30
1.07837e-14
  70
    32
  0
VERTEX
  8
0
  5
460A
 10
247.505
 20
-48.4788
 30
1.07825e-14
  70
    32
  0
VERTEX
  8
0
  5
460B
 10
247.523
 20
-48.4724
 30
1.07812e-14
  70
    32
  0
VERTEX
  8
0
  5
460C
 10
247.540
 20
-48.4659
 30
1.07799e-14
  70
    32
  0
VERTEX
  8
0
  5
460D
 10
247.557
 20
-48.4592
 30
1.07786e-14
  70
    32
  0
VERTEX
  8
0
  5
460E
 10
247.574
 20
-48.4522
 30
1.07772e-14
  70
    32
  0
VERTEX
  8
0
  5
460F
 10
247.591
 20
-48.4451
 30
1.07757e-14
  70
    32
  0
VERTEX
  8
0
  5
4610
 10
247.608
 20
-48.4377
 30
1.07743e-14
  70
    32
  0
VERTEX
  8
0
  5
4611
 10
247.625
 20
-48.4301
 30
1.07728e-14
  70
    32
  0
VERTEX
  8
0
  5
4612
 10
247.641
 20
-48.4223
 30
1.07712e-14
  70
    32
  0
VERTEX
  8
0
  5
4613
 10
247.658
 20
-48.4144
 30
1.07696e-14
  70
    32
  0
VERTEX
  8
0
  5
4614
 10
247.674
 20
-48.4062
 30
1.07680e-14
  70
    32
  0
VERTEX
  8
0
  5
4615
 10
247.691
 20
-48.3978
 30
1.07663e-14
  70
    32
  0
VERTEX
  8
0
  5
4616
 10
247.707
 20
-48.3892
 30
1.07646e-14
  70
    32
  0
VERTEX
  8
0
  5
4617
 10
247.723
 20
-48.3804
 30
1.07628e-14
  70
    32
  0
VERTEX
  8
0
  5
4618
 10
247.739
 20
-48.3714
 30
1.07610e-14
  70
    32
  0
VERTEX
  8
0
  5
4619
 10
247.755
 20
-48.3622
 30
1.07592e-14
  70
    32
  0
VERTEX
  8
0
  5
461A
 10
247.771
 20
-48.3529
 30
1.07573e-14
  70
    32
  0
VERTEX
  8
0
  5
461B
 10
247.787
 20
-48.3433
 30
1.07554e-14
  70
    32
  0
VERTEX
  8
0
  5
461C
 10
247.802
 20
-48.3335
 30
1.07535e-14
  70
    32
  0
VERTEX
  8
0
  5
461D
 10
247.818
 20
-48.3236
 30
1.07515e-14
  70
    32
  0
VERTEX
  8
0
  5
461E
 10
247.833
 20
-48.3134
 30
1.07494e-14
  70
    32
  0
VERTEX
  8
0
  5
461F
 10
247.849
 20
-48.3031
 30
1.07474e-14
  70
    32
  0
VERTEX
  8
0
  5
4620
 10
247.864
 20
-48.2926
 30
1.07453e-14
  70
    32
  0
VERTEX
  8
0
  5
4621
 10
247.879
 20
-48.2819
 30
1.07431e-14
  70
    32
  0
VERTEX
  8
0
  5
4622
 10
247.894
 20
-48.2710
 30
1.07410e-14
  70
    32
  0
VERTEX
  8
0
  5
4623
 10
247.908
 20
-48.2599
 30
1.07388e-14
  70
    32
  0
VERTEX
  8
0
  5
4624
 10
247.923
 20
-48.2486
 30
1.07365e-14
  70
    32
  0
VERTEX
  8
0
  5
4625
 10
247.937
 20
-48.2372
 30
1.07342e-14
  70
    32
  0
VERTEX
  8
0
  5
4626
 10
247.952
 20
-48.2256
 30
1.07319e-14
  70
    32
  0
VERTEX
  8
0
  5
4627
 10
247.966
 20
-48.2138
 30
1.07296e-14
  70
    32
  0
VERTEX
  8
0
  5
4628
 10
247.980
 20
-48.2019
 30
1.07272e-14
  70
    32
  0
VERTEX
  8
0
  5
4629
 10
247.994
 20
-48.1897
 30
1.07247e-14
  70
    32
  0
VERTEX
  8
0
  5
462A
 10
248.007
 20
-48.1775
 30
1.07223e-14
  70
    32
  0
VERTEX
  8
0
  5
462B
 10
248.021
 20
-48.1650
 30
1.07198e-14
  70
    32
  0
VERTEX
  8
0
  5
462C
 10
248.034
 20
-48.1524
 30
1.07173e-14
  70
    32
  0
VERTEX
  8
0
  5
462D
 10
248.048
 20
-48.1396
 30
1.07147e-14
  70
    32
  0
VERTEX
  8
0
  5
462E
 10
248.061
 20
-48.1266
 30
1.07121e-14
  70
    32
  0
VERTEX
  8
0
  5
462F
 10
248.074
 20
-48.1135
 30
1.07095e-14
  70
    32
  0
VERTEX
  8
0
  5
4630
 10
248.086
 20
-48.1002
 30
1.07069e-14
  70
    32
  0
VERTEX
  8
0
  5
4631
 10
248.099
 20
-48.0868
 30
1.07042e-14
  70
    32
  0
VERTEX
  8
0
  5
4632
 10
248.111
 20
-48.0732
 30
1.07015e-14
  70
    32
  0
VERTEX
  8
0
  5
4633
 10
248.124
 20
-48.0595
 30
1.06987e-14
  70
    32
  0
VERTEX
  8
0
  5
4634
 10
248.136
 20
-48.0456
 30
1.06960e-14
  70
    32
  0
VERTEX
  8
0
  5
4635
 10
248.148
 20
-48.0316
 30
1.06931e-14
  70
    32
  0
VERTEX
  8
0
  5
4636
 10
248.160
 20
-48.0174
 30
1.06903e-14
  70
    32
  0
VERTEX
  8
0
  5
4637
 10
248.171
 20
-48.0031
 30
1.06875e-14
  70
    32
  0
VERTEX
  8
0
  5
4638
 10
248.183
 20
-47.9886
 30
1.06846e-14
  70
    32
  0
VERTEX
  8
0
  5
4639
 10
248.194
 20
-47.9740
 30
1.06817e-14
  70
    32
  0
VERTEX
  8
0
  5
463A
 10
248.205
 20
-47.9593
 30
1.06787e-14
  70
    32
  0
VERTEX
  8
0
  5
463B
 10
248.216
 20
-47.9444
 30
1.06757e-14
  70
    32
  0
VERTEX
  8
0
  5
463C
 10
248.226
 20
-47.9294
 30
1.06727e-14
  70
    32
  0
VERTEX
  8
0
  5
463D
 10
248.237
 20
-47.9143
 30
1.06697e-14
  70
    32
  0
VERTEX
  8
0
  5
463E
 10
248.247
 20
-47.8990
 30
1.06667e-14
  70
    32
  0
VERTEX
  8
0
  5
463F
 10
248.257
 20
-47.8836
 30
1.06636e-14
  70
    32
  0
VERTEX
  8
0
  5
4640
 10
248.267
 20
-47.8681
 30
1.06605e-14
  70
    32
  0
VERTEX
  8
0
  5
4641
 10
248.277
 20
-47.8525
 30
1.06574e-14
  70
    32
  0
VERTEX
  8
0
  5
4642
 10
248.287
 20
-47.8367
 30
1.06542e-14
  70
    32
  0
VERTEX
  8
0
  5
4643
 10
248.296
 20
-47.8208
 30
1.06511e-14
  70
    32
  0
VERTEX
  8
0
  5
4644
 10
248.305
 20
-47.8049
 30
1.06479e-14
  70
    32
  0
VERTEX
  8
0
  5
4645
 10
248.314
 20
-47.7888
 30
1.06447e-14
  70
    32
  0
VERTEX
  8
0
  5
4646
 10
248.323
 20
-47.7726
 30
1.06414e-14
  70
    32
  0
VERTEX
  8
0
  5
4647
 10
248.331
 20
-47.7563
 30
1.06382e-14
  70
    32
  0
VERTEX
  8
0
  5
4648
 10
248.340
 20
-47.7398
 30
1.06349e-14
  70
    32
  0
VERTEX
  8
0
  5
4649
 10
248.348
 20
-47.7233
 30
1.06316e-14
  70
    32
  0
VERTEX
  8
0
  5
464A
 10
248.356
 20
-47.7067
 30
1.06283e-14
  70
    32
  0
VERTEX
  8
0
  5
464B
 10
248.364
 20
-47.6900
 30
1.06249e-14
  70
    32
  0
VERTEX
  8
0
  5
464C
 10
248.371
 20
-47.6732
 30
1.06216e-14
  70
    32
  0
VERTEX
  8
0
  5
464D
 10
248.379
 20
-47.6563
 30
1.06182e-14
  70
    32
  0
VERTEX
  8
0
  5
464E
 10
248.386
 20
-47.6393
 30
1.06148e-14
  70
    32
  0
VERTEX
  8
0
  5
464F
 10
248.393
 20
-47.6222
 30
1.06114e-14
  70
    32
  0
VERTEX
  8
0
  5
4650
 10
248.399
 20
-47.6051
 30
1.06080e-14
  70
    32
  0
VERTEX
  8
0
  5
4651
 10
248.406
 20
-47.5878
 30
1.06045e-14
  70
    32
  0
VERTEX
  8
0
  5
4652
 10
248.412
 20
-47.5705
 30
1.06011e-14
  70
    32
  0
VERTEX
  8
0
  5
4653
 10
248.418
 20
-47.5531
 30
1.05976e-14
  70
    32
  0
VERTEX
  8
0
  5
4654
 10
248.424
 20
-47.5357
 30
1.05941e-14
  70
    32
  0
VERTEX
  8
0
  5
4655
 10
248.430
 20
-47.5181
 30
1.05906e-14
  70
    32
  0
VERTEX
  8
0
  5
4656
 10
248.435
 20
-47.5005
 30
1.05871e-14
  70
    32
  0
VERTEX
  8
0
  5
4657
 10
248.441
 20
-47.4829
 30
1.05836e-14
  70
    32
  0
VERTEX
  8
0
  5
4658
 10
248.446
 20
-47.4651
 30
1.05800e-14
  70
    32
  0
VERTEX
  8
0
  5
4659
 10
248.450
 20
-47.4473
 30
1.05765e-14
  70
    32
  0
VERTEX
  8
0
  5
465A
 10
248.455
 20
-47.4295
 30
1.05729e-14
  70
    32
  0
VERTEX
  8
0
  5
465B
 10
248.459
 20
-47.4116
 30
1.05693e-14
  70
    32
  0
VERTEX
  8
0
  5
465C
 10
248.464
 20
-47.3936
 30
1.05657e-14
  70
    32
  0
VERTEX
  8
0
  5
465D
 10
248.467
 20
-47.3756
 30
1.05621e-14
  70
    32
  0
VERTEX
  8
0
  5
465E
 10
248.471
 20
-47.3575
 30
1.05585e-14
  70
    32
  0
VERTEX
  8
0
  5
465F
 10
248.475
 20
-47.3394
 30
1.05549e-14
  70
    32
  0
VERTEX
  8
0
  5
4660
 10
248.478
 20
-47.3213
 30
1.05513e-14
  70
    32
  0
VERTEX
  8
0
  5
4661
 10
248.481
 20
-47.3031
 30
1.05477e-14
  70
    32
  0
VERTEX
  8
0
  5
4662
 10
248.484
 20
-47.2849
 30
1.05440e-14
  70
    32
  0
VERTEX
  8
0
  5
4663
 10
248.486
 20
-47.2666
 30
1.05404e-14
  70
    32
  0
VERTEX
  8
0
  5
4664
 10
248.489
 20
-47.2484
 30
1.05367e-14
  70
    32
  0
VERTEX
  8
0
  5
4665
 10
248.491
 20
-47.2301
 30
1.05331e-14
  70
    32
  0
VERTEX
  8
0
  5
4666
 10
248.493
 20
-47.2117
 30
1.05294e-14
  70
    32
  0
VERTEX
  8
0
  5
4667
 10
248.494
 20
-47.1934
 30
1.05257e-14
  70
    32
  0
VERTEX
  8
0
  5
4668
 10
248.496
 20
-47.1750
 30
1.05221e-14
  70
    32
  0
VERTEX
  8
0
  5
4669
 10
248.497
 20
-47.1566
 30
1.05184e-14
  70
    32
  0
VERTEX
  8
0
  5
466A
 10
248.498
 20
-47.1382
 30
1.05147e-14
  70
    32
  0
VERTEX
  8
0
  5
466B
 10
248.499
 20
-47.1198
 30
1.05110e-14
  70
    32
  0
VERTEX
  8
0
  5
466C
 10
248.500
 20
-47.1014
 30
1.05074e-14
  70
    32
  0
VERTEX
  8
0
  5
466D
 10
248.500
 20
-47.0829
 30
1.05037e-14
  70
    32
  0
VERTEX
  8
0
  5
466E
 10
248.500
 20
-47.0645
 30
1.05000e-14
  70
    32
  0
SEQEND
  8
0
  5
466F
  0
LINE
  5
428E
  8
0
  6
CONTINUOUS
 62
     3
 10
152.5000000000001137
 20
-48.5665587808983972
 30
0.0000000000000108
 11
247.0000000000001137
 21
-48.5665587808983972
 31
0.0000000000000108
210
0.0
220
1.0
230
-0.0000000000000002
  0
LINE
  5
428F
  8
0
  6
CONTINUOUS
 62
     3
 10
-247.0
 20
-48.5665587808983972
 30
0.0000000000000108
 11
-152.4999999999998863
 21
-48.5665587808983972
 31
0.0000000000000108
210
0.0
220
1.0
230
-0.0000000000000002
  0
POLYLINE
  5
4290
  8
0
  6
CONTINUOUS
 62
     3
 10
-248.5
 20
-47.06450026190155
 30
0.0000000000000105
 66
     1
 70
     8
  0
VERTEX
  8
0
  5
4670
 10
-248.500
 20
-47.0645
 30
1.05000e-14
  70
    32
  0
VERTEX
  8
0
  5
4671
 10
-248.500
 20
-47.0829
 30
1.05037e-14
  70
    32
  0
VERTEX
  8
0
  5
4672
 10
-248.500
 20
-47.1014
 30
1.05074e-14
  70
    32
  0
VERTEX
  8
0
  5
4673
 10
-248.499
 20
-47.1198
 30
1.05110e-14
  70
    32
  0
VERTEX
  8
0
  5
4674
 10
-248.498
 20
-47.1382
 30
1.05147e-14
  70
    32
  0
VERTEX
  8
0
  5
4675
 10
-248.497
 20
-47.1566
 30
1.05184e-14
  70
    32
  0
VERTEX
  8
0
  5
4676
 10
-248.496
 20
-47.1750
 30
1.05221e-14
  70
    32
  0
VERTEX
  8
0
  5
4677
 10
-248.494
 20
-47.1934
 30
1.05257e-14
  70
    32
  0
VERTEX
  8
0
  5
4678
 10
-248.493
 20
-47.2117
 30
1.05294e-14
  70
    32
  0
VERTEX
  8
0
  5
4679
 10
-248.491
 20
-47.2301
 30
1.05331e-14
  70
    32
  0
VERTEX
  8
0
  5
467A
 10
-248.489
 20
-47.2484
 30
1.05367e-14
  70
    32
  0
VERTEX
  8
0
  5
467B
 10
-248.486
 20
-47.2666
 30
1.05404e-14
  70
    32
  0
VERTEX
  8
0
  5
467C
 10
-248.484
 20
-47.2849
 30
1.05440e-14
  70
    32
  0
VERTEX
  8
0
  5
467D
 10
-248.481
 20
-47.3031
 30
1.05477e-14
  70
    32
  0
VERTEX
  8
0
  5
467E
 10
-248.478
 20
-47.3213
 30
1.05513e-14
  70
    32
  0
VERTEX
  8
0
  5
467F
 10
-248.475
 20
-47.3394
 30
1.05549e-14
  70
    32
  0
VERTEX
  8
0
  5
4680
 10
-248.471
 20
-47.3575
 30
1.05585e-14
  70
    32
  0
VERTEX
  8
0
  5
4681
 10
-248.467
 20
-47.3756
 30
1.05621e-14
  70
    32
  0
VERTEX
  8
0
  5
4682
 10
-248.464
 20
-47.3936
 30
1.05657e-14
  70
    32
  0
VERTEX
  8
0
  5
4683
 10
-248.459
 20
-47.4116
 30
1.05693e-14
  70
    32
  0
VERTEX
  8
0
  5
4684
 10
-248.455
 20
-47.4295
 30
1.05729e-14
  70
    32
  0
VERTEX
  8
0
  5
4685
 10
-248.450
 20
-47.4473
 30
1.05765e-14
  70
    32
  0
VERTEX
  8
0
  5
4686
 10
-248.446
 20
-47.4651
 30
1.05800e-14
  70
    32
  0
VERTEX
  8
0
  5
4687
 10
-248.441
 20
-47.4829
 30
1.05836e-14
  70
    32
  0
VERTEX
  8
0
  5
4688
 10
-248.435
 20
-47.5005
 30
1.05871e-14
  70
    32
  0
VERTEX
  8
0
  5
4689
 10
-248.430
 20
-47.5181
 30
1.05906e-14
  70
    32
  0
VERTEX
  8
0
  5
468A
 10
-248.424
 20
-47.5357
 30
1.05941e-14
  70
    32
  0
VERTEX
  8
0
  5
468B
 10
-248.418
 20
-47.5531
 30
1.05976e-14
  70
    32
  0
VERTEX
  8
0
  5
468C
 10
-248.412
 20
-47.5705
 30
1.06011e-14
  70
    32
  0
VERTEX
  8
0
  5
468D
 10
-248.406
 20
-47.5878
 30
1.06045e-14
  70
    32
  0
VERTEX
  8
0
  5
468E
 10
-248.399
 20
-47.6051
 30
1.06080e-14
  70
    32
  0
VERTEX
  8
0
  5
468F
 10
-248.393
 20
-47.6222
 30
1.06114e-14
  70
    32
  0
VERTEX
  8
0
  5
4690
 10
-248.386
 20
-47.6393
 30
1.06148e-14
  70
    32
  0
VERTEX
  8
0
  5
4691
 10
-248.379
 20
-47.6563
 30
1.06182e-14
  70
    32
  0
VERTEX
  8
0
  5
4692
 10
-248.371
 20
-47.6732
 30
1.06216e-14
  70
    32
  0
VERTEX
  8
0
  5
4693
 10
-248.364
 20
-47.6900
 30
1.06249e-14
  70
    32
  0
VERTEX
  8
0
  5
4694
 10
-248.356
 20
-47.7067
 30
1.06283e-14
  70
    32
  0
VERTEX
  8
0
  5
4695
 10
-248.348
 20
-47.7233
 30
1.06316e-14
  70
    32
  0
VERTEX
  8
0
  5
4696
 10
-248.340
 20
-47.7398
 30
1.06349e-14
  70
    32
  0
VERTEX
  8
0
  5
4697
 10
-248.331
 20
-47.7563
 30
1.06382e-14
  70
    32
  0
VERTEX
  8
0
  5
4698
 10
-248.323
 20
-47.7726
 30
1.06414e-14
  70
    32
  0
VERTEX
  8
0
  5
4699
 10
-248.314
 20
-47.7888
 30
1.06447e-14
  70
    32
  0
VERTEX
  8
0
  5
469A
 10
-248.305
 20
-47.8049
 30
1.06479e-14
  70
    32
  0
VERTEX
  8
0
  5
469B
 10
-248.296
 20
-47.8208
 30
1.06511e-14
  70
    32
  0
VERTEX
  8
0
  5
469C
 10
-248.287
 20
-47.8367
 30
1.06542e-14
  70
    32
  0
VERTEX
  8
0
  5
469D
 10
-248.277
 20
-47.8525
 30
1.06574e-14
  70
    32
  0
VERTEX
  8
0
  5
469E
 10
-248.267
 20
-47.8681
 30
1.06605e-14
  70
    32
  0
VERTEX
  8
0
  5
469F
 10
-248.257
 20
-47.8836
 30
1.06636e-14
  70
    32
  0
VERTEX
  8
0
  5
46A0
 10
-248.247
 20
-47.8990
 30
1.06667e-14
  70
    32
  0
VERTEX
  8
0
  5
46A1
 10
-248.237
 20
-47.9143
 30
1.06697e-14
  70
    32
  0
VERTEX
  8
0
  5
46A2
 10
-248.226
 20
-47.9294
 30
1.06727e-14
  70
    32
  0
VERTEX
  8
0
  5
46A3
 10
-248.216
 20
-47.9444
 30
1.06757e-14
  70
    32
  0
VERTEX
  8
0
  5
46A4
 10
-248.205
 20
-47.9593
 30
1.06787e-14
  70
    32
  0
VERTEX
  8
0
  5
46A5
 10
-248.194
 20
-47.9740
 30
1.06817e-14
  70
    32
  0
VERTEX
  8
0
  5
46A6
 10
-248.183
 20
-47.9886
 30
1.06846e-14
  70
    32
  0
VERTEX
  8
0
  5
46A7
 10
-248.171
 20
-48.0031
 30
1.06875e-14
  70
    32
  0
VERTEX
  8
0
  5
46A8
 10
-248.160
 20
-48.0174
 30
1.06903e-14
  70
    32
  0
VERTEX
  8
0
  5
46A9
 10
-248.148
 20
-48.0316
 30
1.06931e-14
  70
    32
  0
VERTEX
  8
0
  5
46AA
 10
-248.136
 20
-48.0456
 30
1.06960e-14
  70
    32
  0
VERTEX
  8
0
  5
46AB
 10
-248.124
 20
-48.0595
 30
1.06987e-14
  70
    32
  0
VERTEX
  8
0
  5
46AC
 10
-248.111
 20
-48.0732
 30
1.07015e-14
  70
    32
  0
VERTEX
  8
0
  5
46AD
 10
-248.099
 20
-48.0868
 30
1.07042e-14
  70
    32
  0
VERTEX
  8
0
  5
46AE
 10
-248.086
 20
-48.1002
 30
1.07069e-14
  70
    32
  0
VERTEX
  8
0
  5
46AF
 10
-248.074
 20
-48.1135
 30
1.07095e-14
  70
    32
  0
VERTEX
  8
0
  5
46B0
 10
-248.061
 20
-48.1266
 30
1.07121e-14
  70
    32
  0
VERTEX
  8
0
  5
46B1
 10
-248.048
 20
-48.1396
 30
1.07147e-14
  70
    32
  0
VERTEX
  8
0
  5
46B2
 10
-248.034
 20
-48.1524
 30
1.07173e-14
  70
    32
  0
VERTEX
  8
0
  5
46B3
 10
-248.021
 20
-48.1650
 30
1.07198e-14
  70
    32
  0
VERTEX
  8
0
  5
46B4
 10
-248.007
 20
-48.1775
 30
1.07223e-14
  70
    32
  0
VERTEX
  8
0
  5
46B5
 10
-247.994
 20
-48.1897
 30
1.07247e-14
  70
    32
  0
VERTEX
  8
0
  5
46B6
 10
-247.980
 20
-48.2019
 30
1.07272e-14
  70
    32
  0
VERTEX
  8
0
  5
46B7
 10
-247.966
 20
-48.2138
 30
1.07296e-14
  70
    32
  0
VERTEX
  8
0
  5
46B8
 10
-247.952
 20
-48.2256
 30
1.07319e-14
  70
    32
  0
VERTEX
  8
0
  5
46B9
 10
-247.937
 20
-48.2372
 30
1.07342e-14
  70
    32
  0
VERTEX
  8
0
  5
46BA
 10
-247.923
 20
-48.2486
 30
1.07365e-14
  70
    32
  0
VERTEX
  8
0
  5
46BB
 10
-247.908
 20
-48.2599
 30
1.07388e-14
  70
    32
  0
VERTEX
  8
0
  5
46BC
 10
-247.894
 20
-48.2710
 30
1.07410e-14
  70
    32
  0
VERTEX
  8
0
  5
46BD
 10
-247.879
 20
-48.2819
 30
1.07431e-14
  70
    32
  0
VERTEX
  8
0
  5
46BE
 10
-247.864
 20
-48.2926
 30
1.07453e-14
  70
    32
  0
VERTEX
  8
0
  5
46BF
 10
-247.849
 20
-48.3031
 30
1.07474e-14
  70
    32
  0
VERTEX
  8
0
  5
46C0
 10
-247.833
 20
-48.3134
 30
1.07494e-14
  70
    32
  0
VERTEX
  8
0
  5
46C1
 10
-247.818
 20
-48.3236
 30
1.07515e-14
  70
    32
  0
VERTEX
  8
0
  5
46C2
 10
-247.802
 20
-48.3335
 30
1.07535e-14
  70
    32
  0
VERTEX
  8
0
  5
46C3
 10
-247.787
 20
-48.3433
 30
1.07554e-14
  70
    32
  0
VERTEX
  8
0
  5
46C4
 10
-247.771
 20
-48.3529
 30
1.07573e-14
  70
    32
  0
VERTEX
  8
0
  5
46C5
 10
-247.755
 20
-48.3622
 30
1.07592e-14
  70
    32
  0
VERTEX
  8
0
  5
46C6
 10
-247.739
 20
-48.3714
 30
1.07610e-14
  70
    32
  0
VERTEX
  8
0
  5
46C7
 10
-247.723
 20
-48.3804
 30
1.07628e-14
  70
    32
  0
VERTEX
  8
0
  5
46C8
 10
-247.707
 20
-48.3892
 30
1.07646e-14
  70
    32
  0
VERTEX
  8
0
  5
46C9
 10
-247.691
 20
-48.3978
 30
1.07663e-14
  70
    32
  0
VERTEX
  8
0
  5
46CA
 10
-247.674
 20
-48.4062
 30
1.07680e-14
  70
    32
  0
VERTEX
  8
0
  5
46CB
 10
-247.658
 20
-48.4144
 30
1.07696e-14
  70
    32
  0
VERTEX
  8
0
  5
46CC
 10
-247.641
 20
-48.4223
 30
1.07712e-14
  70
    32
  0
VERTEX
  8
0
  5
46CD
 10
-247.625
 20
-48.4301
 30
1.07728e-14
  70
    32
  0
VERTEX
  8
0
  5
46CE
 10
-247.608
 20
-48.4377
 30
1.07743e-14
  70
    32
  0
VERTEX
  8
0
  5
46CF
 10
-247.591
 20
-48.4451
 30
1.07757e-14
  70
    32
  0
VERTEX
  8
0
  5
46D0
 10
-247.574
 20
-48.4522
 30
1.07772e-14
  70
    32
  0
VERTEX
  8
0
  5
46D1
 10
-247.557
 20
-48.4592
 30
1.07786e-14
  70
    32
  0
VERTEX
  8
0
  5
46D2
 10
-247.540
 20
-48.4659
 30
1.07799e-14
  70
    32
  0
VERTEX
  8
0
  5
46D3
 10
-247.523
 20
-48.4724
 30
1.07812e-14
  70
    32
  0
VERTEX
  8
0
  5
46D4
 10
-247.505
 20
-48.4788
 30
1.07825e-14
  70
    32
  0
VERTEX
  8
0
  5
46D5
 10
-247.488
 20
-48.4849
 30
1.07837e-14
  70
    32
  0
VERTEX
  8
0
  5
46D6
 10
-247.471
 20
-48.4907
 30
1.07849e-14
  70
    32
  0
VERTEX
  8
0
  5
46D7
 10
-247.453
 20
-48.4964
 30
1.07860e-14
  70
    32
  0
VERTEX
  8
0
  5
46D8
 10
-247.435
 20
-48.5019
 30
1.07871e-14
  70
    32
  0
VERTEX
  8
0
  5
46D9
 10
-247.418
 20
-48.5071
 30
1.07881e-14
  70
    32
  0
VERTEX
  8
0
  5
46DA
 10
-247.400
 20
-48.5121
 30
1.07891e-14
  70
    32
  0
VERTEX
  8
0
  5
46DB
 10
-247.382
 20
-48.5170
 30
1.07901e-14
  70
    32
  0
VERTEX
  8
0
  5
46DC
 10
-247.364
 20
-48.5215
 30
1.07910e-14
  70
    32
  0
VERTEX
  8
0
  5
46DD
 10
-247.347
 20
-48.5259
 30
1.07919e-14
  70
    32
  0
VERTEX
  8
0
  5
46DE
 10
-247.329
 20
-48.5301
 30
1.07927e-14
  70
    32
  0
VERTEX
  8
0
  5
46DF
 10
-247.311
 20
-48.5340
 30
1.07935e-14
  70
    32
  0
VERTEX
  8
0
  5
46E0
 10
-247.293
 20
-48.5377
 30
1.07942e-14
  70
    32
  0
VERTEX
  8
0
  5
46E1
 10
-247.275
 20
-48.5412
 30
1.07949e-14
  70
    32
  0
VERTEX
  8
0
  5
46E2
 10
-247.256
 20
-48.5444
 30
1.07956e-14
  70
    32
  0
VERTEX
  8
0
  5
46E3
 10
-247.238
 20
-48.5475
 30
1.07962e-14
  70
    32
  0
VERTEX
  8
0
  5
46E4
 10
-247.220
 20
-48.5503
 30
1.07968e-14
  70
    32
  0
VERTEX
  8
0
  5
46E5
 10
-247.202
 20
-48.5529
 30
1.07973e-14
  70
    32
  0
VERTEX
  8
0
  5
46E6
 10
-247.184
 20
-48.5553
 30
1.07977e-14
  70
    32
  0
VERTEX
  8
0
  5
46E7
 10
-247.165
 20
-48.5574
 30
1.07982e-14
  70
    32
  0
VERTEX
  8
0
  5
46E8
 10
-247.147
 20
-48.5593
 30
1.07986e-14
  70
    32
  0
VERTEX
  8
0
  5
46E9
 10
-247.129
 20
-48.5610
 30
1.07989e-14
  70
    32
  0
VERTEX
  8
0
  5
46EA
 10
-247.110
 20
-48.5625
 30
1.07992e-14
  70
    32
  0
VERTEX
  8
0
  5
46EB
 10
-247.092
 20
-48.5637
 30
1.07994e-14
  70
    32
  0
VERTEX
  8
0
  5
46EC
 10
-247.074
 20
-48.5647
 30
1.07996e-14
  70
    32
  0
VERTEX
  8
0
  5
46ED
 10
-247.055
 20
-48.5655
 30
1.07998e-14
  70
    32
  0
VERTEX
  8
0
  5
46EE
 10
-247.037
 20
-48.5661
 30
1.07999e-14
  70
    32
  0
VERTEX
  8
0
  5
46EF
 10
-247.018
 20
-48.5664
 30
1.08000e-14
  70
    32
  0
VERTEX
  8
0
  5
46F0
 10
-247.000
 20
-48.5666
 30
1.08000e-14
  70
    32
  0
SEQEND
  8
0
  5
46F1
  0
LINE
  5
4291
  8
0
  6
CONTINUOUS
 62
     3
 10
-248.500000000000199
 20
-2.4999999999984901
 30
0.0000000000000006
 11
-248.5
 21
-47.06450026190155
 31
0.0000000000000105
210
0.0
220
1.0
230
-0.0000000000000002
  0
LINE
  5
4292
  8
0
  6
CONTINUOUS
 62
     3
 10
-250.000000000000199
 20
-2.7499999999999152
 30
0.0000000000000006
 11
-250.000000000000199
 21
-2.499999999998483
 31
0.0000000000000006
210
0.0
220
1.0
230
-0.0000000000000002
  0
LINE
  5
4293
  8
0
  6
CONTINUOUS
 62
     3
 10
-152.4999999999998863
 20
-50.068617299895287
 30
0.0000000000000111
 11
-152.75
 21
-50.068617299895287
 31
0.0000000000000111
210
0.0
220
1.0
230
-0.0000000000000002
  0
LINE
  5
4294
  8
0
  6
CONTINUOUS
 62
     3
 10
-2.5000000000001439
 20
-50.068617299895287
 30
0.0000000000000111
 11
-2.749999999999996
 21
-50.068617299895287
 31
0.0000000000000111
210
0.0
220
1.0
230
-0.0000000000000002
  0
LINE
  5
4295
  8
0
  6
CONTINUOUS
 62
     3
 10
-147.2499999999998863
 20
-50.068617299895287
 30
0.0000000000000111
 11
-147.4999999999998863
 21
-50.068617299895287
 31
0.0000000000000111
210
0.0
220
1.0
230
-0.0000000000000002
  0
LINE
  5
4296
  8
0
  6
CONTINUOUS
 62
     3
 10
-147.4999999999998863
 20
-48.5665587808983972
 30
0.0000000000000108
 11
-2.5000000000001421
 21
-48.5665587808983972
 31
0.0000000000000108
210
0.0
220
1.0
230
-0.0000000000000002
  0
LINE
  5
4297
  8
0
  6
CONTINUOUS
 62
     3
 10
248.5000000000005969
 20
48.5665587808999106
 30
-0.0000000000000108
 11
248.8240213272636083
 21
48.5665587808999106
 31
-0.0000000000000108
210
0.0
220
1.0
230
-0.0000000000000002
  0
LINE
  5
4298
  8
0
  6
CONTINUOUS
 62
     3
 10
248.5000000000003126
 20
2.5000000000015059
 30
-0.0000000000000006
 11
248.5000000000005969
 21
48.5665587808999177
 31
-0.0000000000000108
210
0.0
220
1.0
230
-0.0000000000000002
  0
LINE
  5
4299
  8
0
  6
CONTINUOUS
 62
     3
 10
250.0000000000003126
 20
2.7500000000001421
 30
-0.0000000000000006
 11
250.0000000000003126
 21
2.500000000001513
 31
-0.0000000000000006
210
0.0
220
1.0
230
-0.0000000000000002
  0
LINE
  5
429A
  8
0
  6
CONTINUOUS
 62
     3
 10
248.5000000000003126
 20
2.500000000000782
 30
-0.0000000000000006
 11
250.0000000000003126
 21
2.500000000000782
 31
-0.0000000000000006
210
0.0
220
1.0
230
-0.0000000000000002
  0
LINE
  5
429B
  8
0
  6
CONTINUOUS
 62
     3
 10
248.5000000000003126
 20
-2.499999999999202
 30
0.0000000000000006
 11
248.5000000000003126
 21
2.50000000000079
 31
-0.0000000000000006
210
0.0
220
1.0
230
-0.0000000000000002
  0
LINE
  5
429C
  8
0
  6
CONTINUOUS
 62
     3
 10
248.5000000000003126
 20
-2.4999999999992042
 30
0.0000000000000006
 11
250.0000000000003126
 21
-2.4999999999992042
 31
0.0000000000000006
210
0.0
220
1.0
230
-0.0000000000000002
  0
LINE
  5
429D
  8
0
  6
CONTINUOUS
 62
     3
 10
250.0000000000003126
 20
2.500000000000782
 30
-0.0000000000000006
 11
250.0000000000003126
 21
-2.4999999999992109
 31
0.0000000000000006
210
0.0
220
1.0
230
-0.0000000000000002
  0
LINE
  5
429E
  8
0
  6
CONTINUOUS
 62
     3
 10
-248.8240213272636083
 20
48.5665587808999106
 30
-0.0000000000000108
 11
-248.5000000000005969
 21
48.5665587808999106
 31
-0.0000000000000108
210
0.0
220
1.0
230
-0.0000000000000002
  0
LINE
  5
429F
  8
0
  6
CONTINUOUS
 62
     3
 10
-248.5000000000005116
 20
48.5665587808999319
 30
-0.0000000000000108
 11
-248.500000000000199
 21
2.500000000001513
 31
-0.0000000000000006
210
0.0
220
1.0
230
-0.0000000000000002
  0
LINE
  5
42A0
  8
0
  6
CONTINUOUS
 62
     3
 10
-250.0000000000003126
 20
2.5000000000015148
 30
-0.0000000000000006
 11
-250.0000000000003126
 21
2.750000000000083
 31
-0.0000000000000006
210
0.0
220
1.0
230
-0.0000000000000002
  0
LINE
  5
42A1
  8
0
  6
CONTINUOUS
 62
     3
 10
-250.000000000000199
 20
2.500000000000782
 30
-0.0000000000000006
 11
-248.500000000000199
 21
2.500000000000782
 31
-0.0000000000000006
210
0.0
220
1.0
230
-0.0000000000000002
  0
LINE
  5
42A2
  8
0
  6
CONTINUOUS
 62
     3
 10
-248.500000000000199
 20
2.5000000000007918
 30
-0.0000000000000006
 11
-248.500000000000199
 21
-2.4999999999992002
 31
0.0000000000000006
210
0.0
220
1.0
230
-0.0000000000000002
  0
LINE
  5
42A3
  8
0
  6
CONTINUOUS
 62
     3
 10
-250.000000000000199
 20
-2.4999999999992002
 30
0.0000000000000006
 11
-250.000000000000199
 21
2.5000000000007918
 31
-0.0000000000000006
210
0.0
220
1.0
230
-0.0000000000000002
  0
LINE
  5
42A4
  8
0
  6
CONTINUOUS
 62
     3
 10
-250.000000000000199
 20
-2.4999999999992042
 30
0.0000000000000006
 11
-248.500000000000199
 21
-2.4999999999992042
 31
0.0000000000000006
210
0.0
220
1.0
230
-0.0000000000000002
  0
LINE
  5
42A5
  8
0
  6
VERDECKT
 62
     1
 10
249.25
 20
23.5368877077122107
 30
-0.0000000000000052
 11
249.25
 21
23.2490399483760086
 31
-0.0000000000000052
210
0.0
220
1.0
230
-0.0000000000000002
  0
LINE
  5
42A6
  8
0
  6
VERDECKT
 62
     1
 10
249.25
 20
23.2490399483760086
 30
-0.0000000000000052
 11
249.25
 21
22.0067936909935113
 31
-0.0000000000000049
210
0.0
220
1.0
230
-0.0000000000000002
  0
LINE
  5
42A7
  8
0
  6
VERDECKT
 62
     1
 10
249.25
 20
50.0645030830317808
 30
-0.0000000000000111
 11
249.25
 21
48.5665587808999106
 31
-0.0000000000000108
210
0.0
220
1.0
230
-0.0000000000000002
  0
LINE
  5
42A8
  8
0
  6
VERDECKT
 62
     1
 10
249.25
 20
48.5665587808999106
 30
-0.0000000000000108
 11
249.25
 21
47.6114275794661879
 31
-0.0000000000000106
210
0.0
220
1.0
230
-0.0000000000000002
  0
LINE
  5
42A9
  8
0
  6
VERDECKT
 62
     1
 10
249.25
 20
47.6114275794661879
 30
-0.0000000000000106
 11
249.25
 21
47.32357982013
 31
-0.0000000000000105
210
0.0
220
1.0
230
-0.0000000000000002
  0
LINE
  5
42AA
  8
0
  6
VERDECKT
 62
     1
 10
249.25
 20
47.32357982013
 30
-0.0000000000000105
 11
249.25
 21
41.5927926115276918
 31
-0.0000000000000092
210
0.0
220
1.0
230
-0.0000000000000002
  0
LINE
  5
42AB
  8
0
  6
VERDECKT
 62
     1
 10
249.25
 20
41.5927926115276918
 30
-0.0000000000000092
 11
249.25
 21
41.3049448521914968
 31
-0.0000000000000092
210
0.0
220
1.0
230
-0.0000000000000002
  0
LINE
  5
42AC
  8
0
  6
VERDECKT
 62
     1
 10
249.25
 20
41.3049448521914968
 30
-0.0000000000000092
 11
249.25
 21
35.5741576435892028
 31
-0.0000000000000079
210
0.0
220
1.0
230
-0.0000000000000002
  0
LINE
  5
42AD
  8
0
  6
VERDECKT
 62
     1
 10
249.25
 20
35.5741576435892028
 30
-0.0000000000000079
 11
249.25
 21
35.2863098842530079
 31
-0.0000000000000078
210
0.0
220
1.0
230
-0.0000000000000002
  0
LINE
  5
42AE
  8
0
  6
VERDECKT
 62
     1
 10
249.25
 20
35.2863098842530079
 30
-0.0000000000000078
 11
249.25
 21
29.5555226756506997
 31
-0.0000000000000066
210
0.0
220
1.0
230
-0.0000000000000002
  0
LINE
  5
42AF
  8
0
  6
VERDECKT
 62
     1
 10
249.25
 20
29.5555226756506997
 30
-0.0000000000000066
 11
249.25
 21
29.2676749163145082
 31
-0.0000000000000065
210
0.0
220
1.0
230
-0.0000000000000002
  0
LINE
  5
42B0
  8
0
  6
VERDECKT
 62
     1
 10
249.25
 20
29.2676749163145082
 30
-0.0000000000000065
 11
249.25
 21
23.5368877077122001
 31
-0.0000000000000052
210
0.0
220
1.0
230
-0.0000000000000002
  0
LINE
  5
42B1
  8
0
  6
VERDECKT
 62
     1
 10
249.25
 20
30.7656192184463713
 30
-0.0000000000000068
 11
248.5
 21
30.7656192184463713
 31
-0.0000000000000068
210
0.0
220
1.0
230
-0.0000000000000002
  0
LINE
  5
42B2
  8
0
  6
VERDECKT
 62
     1
 10
249.25
 20
29.2676749163145082
 30
-0.0000000000000065
 11
248.5
 21
29.2676749163145082
 31
-0.0000000000000065
210
0.0
220
1.0
230
-0.0000000000000002
  0
LINE
  5
42B3
  8
0
  6
VERDECKT
 62
     1
 10
249.25
 20
36.7842541863848709
 30
-0.0000000000000082
 11
248.4999999999998863
 21
36.7842541863848709
 31
-0.0000000000000082
210
0.0
220
1.0
230
-0.0000000000000002
  0
LINE
  5
42B4
  8
0
  6
VERDECKT
 62
     1
 10
249.25
 20
35.2863098842530079
 30
-0.0000000000000078
 11
248.4999999999998863
 21
35.2863098842530079
 31
-0.0000000000000078
210
0.0
220
1.0
230
-0.0000000000000002
  0
LINE
  5
42B5
  8
0
  6
VERDECKT
 62
     1
 10
249.25
 20
42.8028891543233598
 30
-0.0000000000000095
 11
248.5
 21
42.8028891543233598
 31
-0.0000000000000095
210
0.0
220
1.0
230
-0.0000000000000002
  0
LINE
  5
42B6
  8
0
  6
VERDECKT
 62
     1
 10
249.25
 20
41.3049448521914968
 30
-0.0000000000000092
 11
248.5
 21
41.3049448521914968
 31
-0.0000000000000092
210
0.0
220
1.0
230
-0.0000000000000002
  0
LINE
  5
42B7
  8
0
  6
VERDECKT
 62
     1
 10
249.25
 20
48.8215241222618701
 30
-0.0000000000000108
 11
248.5
 21
48.8215241222618701
 31
-0.0000000000000108
210
0.0
220
1.0
230
-0.0000000000000002
  0
LINE
  5
42B8
  8
0
  6
VERDECKT
 62
     1
 10
249.25
 20
47.32357982013
 30
-0.0000000000000105
 11
248.5
 21
47.32357982013
 31
-0.0000000000000105
210
0.0
220
1.0
230
-0.0000000000000002
  0
LINE
  5
42B9
  8
0
  6
VERDECKT
 62
     1
 10
249.25
 20
50.0645030830317808
 30
-0.0000000000000111
 11
152.75
 21
50.0645030830317808
 31
-0.0000000000000111
210
0.0
220
1.0
230
-0.0000000000000002
  0
LINE
  5
42BA
  8
0
  6
VERDECKT
 62
     1
 10
249.25
 20
48.5665587808999106
 30
-0.0000000000000108
 11
248.8240213272636083
 21
48.5665587808999106
 31
-0.0000000000000108
210
0.0
220
1.0
230
-0.0000000000000002
  0
LINE
  5
42BB
  8
0
  6
VERDECKT
 62
     1
 10
-249.2499999999998863
 20
47.6114275794661879
 30
-0.0000000000000106
 11
-249.2499999999998863
 21
48.5665587808999106
 31
-0.0000000000000108
210
0.0
220
1.0
230
-0.0000000000000002
  0
LINE
  5
42BC
  8
0
  6
VERDECKT
 62
     1
 10
-249.2499999999998863
 20
47.6114275794661808
 30
-0.0000000000000106
 11
-248.5
 21
47.6114275794661808
 31
-0.0000000000000106
210
0.0
220
1.0
230
-0.0000000000000002
  0
LINE
  5
42BD
  8
0
  6
VERDECKT
 62
     1
 10
-248.5
 20
47.32357982013
 30
-0.0000000000000105
 11
-249.2499999999998863
 21
47.32357982013
 31
-0.0000000000000105
210
0.0
220
1.0
230
-0.0000000000000002
  0
LINE
  5
42BE
  8
0
  6
VERDECKT
 62
     1
 10
-249.2499999999998863
 20
41.5927926115276989
 30
-0.0000000000000092
 11
-249.2499999999998863
 21
47.3235798201300071
 31
-0.0000000000000105
210
0.0
220
1.0
230
-0.0000000000000002
  0
LINE
  5
42BF
  8
0
  6
VERDECKT
 62
     1
 10
-249.2499999999998863
 20
41.5927926115276918
 30
-0.0000000000000092
 11
-248.5
 21
41.5927926115276918
 31
-0.0000000000000092
210
0.0
220
1.0
230
-0.0000000000000002
  0
LINE
  5
42C0
  8
0
  6
VERDECKT
 62
     1
 10
-248.5
 20
41.3049448521914968
 30
-0.0000000000000092
 11
-249.2499999999998863
 21
41.3049448521914968
 31
-0.0000000000000092
210
0.0
220
1.0
230
-0.0000000000000002
  0
LINE
  5
42C1
  8
0
  6
VERDECKT
 62
     1
 10
-249.2499999999998863
 20
35.5741576435892028
 30
-0.0000000000000079
 11
-249.2499999999998863
 21
41.3049448521914968
 31
-0.0000000000000092
210
0.0
220
1.0
230
-0.0000000000000002
  0
LINE
  5
42C2
  8
0
  6
VERDECKT
 62
     1
 10
-249.2499999999998863
 20
35.5741576435892028
 30
-0.0000000000000079
 11
-248.4999999999998863
 21
35.5741576435892028
 31
-0.0000000000000079
210
0.0
220
1.0
230
-0.0000000000000002
  0
LINE
  5
42C3
  8
0
  6
VERDECKT
 62
     1
 10
-248.4999999999998863
 20
35.2863098842530079
 30
-0.0000000000000078
 11
-249.2499999999998863
 21
35.2863098842530079
 31
-0.0000000000000078
210
0.0
220
1.0
230
-0.0000000000000002
  0
LINE
  5
42C4
  8
0
  6
VERDECKT
 62
     1
 10
-249.2499999999998863
 20
29.5555226756506997
 30
-0.0000000000000066
 11
-249.2499999999998863
 21
35.2863098842530079
 31
-0.0000000000000078
210
0.0
220
1.0
230
-0.0000000000000002
  0
LINE
  5
42C5
  8
0
  6
VERDECKT
 62
     1
 10
-249.2499999999998863
 20
29.5555226756506997
 30
-0.0000000000000066
 11
-248.5
 21
29.5555226756506997
 31
-0.0000000000000066
210
0.0
220
1.0
230
-0.0000000000000002
  0
LINE
  5
42C6
  8
0
  6
VERDECKT
 62
     1
 10
-248.5
 20
29.2676749163145082
 30
-0.0000000000000065
 11
-249.2499999999998863
 21
29.2676749163145082
 31
-0.0000000000000065
210
0.0
220
1.0
230
-0.0000000000000002
  0
LINE
  5
42C7
  8
0
  6
VERDECKT
 62
     1
 10
-249.2499999999998863
 20
23.5368877077122107
 30
-0.0000000000000052
 11
-249.2499999999998863
 21
29.2676749163145082
 31
-0.0000000000000065
210
0.0
220
1.0
230
-0.0000000000000002
  0
LINE
  5
42C8
  8
0
  6
VERDECKT
 62
     1
 10
-249.2499999999998863
 20
23.5368877077122107
 30
-0.0000000000000052
 11
-248.4999999999998863
 21
23.5368877077122001
 31
-0.0000000000000052
210
0.0
220
1.0
230
-0.0000000000000002
  0
LINE
  5
42C9
  8
0
  6
VERDECKT
 62
     1
 10
-248.4999999999998863
 20
23.2490399483760086
 30
-0.0000000000000052
 11
-249.2499999999998863
 21
23.2490399483760086
 31
-0.0000000000000052
210
0.0
220
1.0
230
-0.0000000000000002
  0
LINE
  5
42CA
  8
0
  6
VERDECKT
 62
     1
 10
-249.2499999999998863
 20
22.0067936909935113
 30
-0.0000000000000049
 11
-249.2499999999998863
 21
23.2490399483760086
 31
-0.0000000000000052
210
0.0
220
1.0
230
-0.0000000000000002
  0
LINE
  5
42CB
  8
0
  6
VERDECKT
 62
     1
 10
-249.2499999999998863
 20
22.0067936909935113
 30
-0.0000000000000049
 11
-248.5000000000003979
 21
22.0067936909935113
 31
-0.0000000000000049
210
0.0
220
1.0
230
-0.0000000000000002
  0
LINE
  5
42CC
  8
0
  6
VERDECKT
 62
     1
 10
248.5000000000003979
 20
22.0067936909935113
 30
-0.0000000000000049
 11
249.2500000000001137
 21
22.0067936909935113
 31
-0.0000000000000049
210
0.0
220
1.0
230
-0.0000000000000002
  0
LINE
  5
42CD
  8
0
  6
VERDECKT
 62
     1
 10
249.25
 20
23.2490399483760086
 30
-0.0000000000000052
 11
248.4999999999998863
 21
23.2490399483760086
 31
-0.0000000000000052
210
0.0
220
1.0
230
-0.0000000000000002
  0
LINE
  5
42CE
  8
0
  6
VERDECKT
 62
     1
 10
248.4999999999998863
 20
23.5368877077122107
 30
-0.0000000000000052
 11
249.25
 21
23.5368877077122107
 31
-0.0000000000000052
210
0.0
220
1.0
230
-0.0000000000000002
  0
LINE
  5
42CF
  8
0
  6
VERDECKT
 62
     1
 10
248.5
 20
29.5555226756506997
 30
-0.0000000000000066
 11
249.25
 21
29.5555226756506997
 31
-0.0000000000000066
210
0.0
220
1.0
230
-0.0000000000000002
  0
LINE
  5
42D0
  8
0
  6
VERDECKT
 62
     1
 10
248.4999999999998863
 20
35.5741576435892028
 30
-0.0000000000000079
 11
249.25
 21
35.5741576435892028
 31
-0.0000000000000079
210
0.0
220
1.0
230
-0.0000000000000002
  0
LINE
  5
42D1
  8
0
  6
VERDECKT
 62
     1
 10
248.5
 20
41.5927926115276918
 30
-0.0000000000000092
 11
249.25
 21
41.5927926115276918
 31
-0.0000000000000092
210
0.0
220
1.0
230
-0.0000000000000002
  0
LINE
  5
42D2
  8
0
  6
VERDECKT
 62
     1
 10
248.5
 20
47.6114275794661879
 30
-0.0000000000000106
 11
249.25
 21
47.6114275794661879
 31
-0.0000000000000106
210
0.0
220
1.0
230
-0.0000000000000002
  0
LINE
  5
42D3
  8
0
  6
VERDECKT
 62
     1
 10
-248.8240213272636083
 20
48.5665587808999106
 30
-0.0000000000000108
 11
-249.2499999999998863
 21
48.5665587808999106
 31
-0.0000000000000108
210
0.0
220
1.0
230
-0.0000000000000002
  0
LINE
  5
42D4
  8
0
  6
VERDECKT
 62
     1
 10
249.25
 20
24.7469842505078788
 30
-0.0000000000000055
 11
248.4999999999998863
 21
24.7469842505078788
 31
-0.0000000000000055
210
0.0
220
1.0
230
-0.0000000000000002
  0
LINE
  5
42D5
  8
0
  6
VERDECKT
 62
     1
 10
248.4999999999998863
 20
25.0348320098440702
 30
-0.0000000000000056
 11
249.25
 21
25.0348320098440702
 31
-0.0000000000000056
210
0.0
220
1.0
230
-0.0000000000000002
  0
LINE
  5
42D6
  8
0
  6
VERDECKT
 62
     1
 10
248.5
 20
31.0534669777825592
 30
-0.0000000000000069
 11
249.25
 21
31.0534669777825592
 31
-0.0000000000000069
210
0.0
220
1.0
230
-0.0000000000000002
  0
LINE
  5
42D7
  8
0
  6
VERDECKT
 62
     1
 10
248.4999999999998863
 20
37.0721019457210588
 30
-0.0000000000000082
 11
249.25
 21
37.0721019457210588
 31
-0.0000000000000082
210
0.0
220
1.0
230
-0.0000000000000002
  0
LINE
  5
42D8
  8
0
  6
VERDECKT
 62
     1
 10
248.5
 20
43.0907369136595477
 30
-0.0000000000000096
 11
249.25
 21
43.0907369136595477
 31
-0.0000000000000096
210
0.0
220
1.0
230
-0.0000000000000002
  0
LINE
  5
42D9
  8
0
  6
VERDECKT
 62
     1
 10
248.5
 20
48.5665587808999106
 30
-0.0000000000000108
 11
248.5
 21
49.109371881598058
 31
-0.0000000000000109
210
0.0
220
1.0
230
-0.0000000000000002
  0
LINE
  5
42DA
  8
0
  6
VERDECKT
 62
     1
 10
248.5
 20
49.109371881598058
 30
-0.0000000000000109
 11
249.25
 21
49.109371881598058
 31
-0.0000000000000109
210
0.0
220
1.0
230
-0.0000000000000002
  0
LINE
  5
42DB
  8
0
  6
VERDECKT
 62
     1
 10
147.2499999999998863
 20
50.0645030830317808
 30
-0.0000000000000111
 11
2.7499999999999711
 21
50.0645030830317808
 31
-0.0000000000000111
210
0.0
220
1.0
230
-0.0000000000000002
  0
LINE
  5
42DC
  8
0
  6
VERDECKT
 62
     1
 10
-2.7500000000000209
 20
50.0645030830317666
 30
-0.0000000000000111
 11
-147.2499999999998863
 21
50.0645030830317666
 31
-0.0000000000000111
210
0.0
220
1.0
230
-0.0000000000000002
  0
LINE
  5
42DD
  8
0
  6
VERDECKT
 62
     1
 10
-249.2499999999998863
 20
48.5665587808999106
 30
-0.0000000000000108
 11
-249.2499999999998863
 21
50.0645030830317808
 31
-0.0000000000000111
210
0.0
220
1.0
230
-0.0000000000000002
  0
LINE
  5
42DE
  8
0
  6
VERDECKT
 62
     1
 10
-152.75
 20
50.0645030830317808
 30
-0.0000000000000111
 11
-249.2499999999998863
 21
50.0645030830317808
 31
-0.0000000000000111
210
0.0
220
1.0
230
-0.0000000000000002
  0
LINE
  5
42DF
  8
0
  6
VERDECKT
 62
     1
 10
-248.5
 20
48.5665587808999106
 30
-0.0000000000000108
 11
-248.5
 21
49.109371881598058
 31
-0.0000000000000109
210
0.0
220
1.0
230
-0.0000000000000002
  0
LINE
  5
42E0
  8
0
  6
VERDECKT
 62
     1
 10
-249.2499999999998863
 20
47.32357982013
 30
-0.0000000000000105
 11
-249.2499999999998863
 21
47.6114275794661808
 31
-0.0000000000000106
210
0.0
220
1.0
230
-0.0000000000000002
  0
LINE
  5
42E1
  8
0
  6
VERDECKT
 62
     1
 10
-248.5
 20
48.8215241222618701
 30
-0.0000000000000108
 11
-249.2499999999998863
 21
48.8215241222618701
 31
-0.0000000000000108
210
0.0
220
1.0
230
-0.0000000000000002
  0
LINE
  5
42E2
  8
0
  6
VERDECKT
 62
     1
 10
-249.2499999999998863
 20
41.3049448521914968
 30
-0.0000000000000092
 11
-249.2499999999998863
 21
41.5927926115276918
 31
-0.0000000000000092
210
0.0
220
1.0
230
-0.0000000000000002
  0
LINE
  5
42E3
  8
0
  6
VERDECKT
 62
     1
 10
-248.5
 20
42.8028891543233598
 30
-0.0000000000000095
 11
-249.2499999999998863
 21
42.8028891543233598
 31
-0.0000000000000095
210
0.0
220
1.0
230
-0.0000000000000002
  0
LINE
  5
42E4
  8
0
  6
VERDECKT
 62
     1
 10
-249.2499999999998863
 20
35.2863098842530079
 30
-0.0000000000000078
 11
-249.2499999999998863
 21
35.5741576435892028
 31
-0.0000000000000079
210
0.0
220
1.0
230
-0.0000000000000002
  0
LINE
  5
42E5
  8
0
  6
VERDECKT
 62
     1
 10
-248.4999999999998863
 20
36.7842541863848709
 30
-0.0000000000000082
 11
-249.2499999999998863
 21
36.7842541863848709
 31
-0.0000000000000082
210
0.0
220
1.0
230
-0.0000000000000002
  0
LINE
  5
42E6
  8
0
  6
VERDECKT
 62
     1
 10
-249.2499999999998863
 20
29.2676749163145082
 30
-0.0000000000000065
 11
-249.2499999999998863
 21
29.5555226756506997
 31
-0.0000000000000066
210
0.0
220
1.0
230
-0.0000000000000002
  0
LINE
  5
42E7
  8
0
  6
VERDECKT
 62
     1
 10
-248.5
 20
30.7656192184463713
 30
-0.0000000000000068
 11
-249.2499999999998863
 21
30.7656192184463713
 31
-0.0000000000000068
210
0.0
220
1.0
230
-0.0000000000000002
  0
LINE
  5
42E8
  8
0
  6
VERDECKT
 62
     1
 10
-249.2499999999998863
 20
23.2490399483760086
 30
-0.0000000000000052
 11
-249.2499999999998863
 21
23.5368877077122107
 31
-0.0000000000000052
210
0.0
220
1.0
230
-0.0000000000000002
  0
LINE
  5
42E9
  8
0
  6
VERDECKT
 62
     1
 10
-248.4999999999998863
 20
24.7469842505078788
 30
-0.0000000000000055
 11
-249.2499999999998863
 21
24.7469842505078788
 31
-0.0000000000000055
210
0.0
220
1.0
230
-0.0000000000000002
  0
LINE
  5
42EA
  8
0
  6
VERDECKT
 62
     1
 10
-249.2499999999998863
 20
23.5047379931253708
 30
-0.0000000000000052
 11
249.2500000000001137
 21
23.5047379931253708
 31
-0.0000000000000052
210
0.0
220
1.0
230
-0.0000000000000002
  0
LINE
  5
42EB
  8
0
  6
VERDECKT
 62
     1
 10
-249.2499999999998863
 20
25.0348320098440702
 30
-0.0000000000000056
 11
-248.4999999999998863
 21
25.0348320098440702
 31
-0.0000000000000056
210
0.0
220
1.0
230
-0.0000000000000002
  0
LINE
  5
42EC
  8
0
  6
VERDECKT
 62
     1
 10
-249.2499999999998863
 20
31.0534669777825592
 30
-0.0000000000000069
 11
-248.5
 21
31.0534669777825592
 31
-0.0000000000000069
210
0.0
220
1.0
230
-0.0000000000000002
  0
LINE
  5
42ED
  8
0
  6
VERDECKT
 62
     1
 10
-249.2499999999998863
 20
37.0721019457210588
 30
-0.0000000000000082
 11
-248.4999999999998863
 21
37.0721019457210588
 31
-0.0000000000000082
210
0.0
220
1.0
230
-0.0000000000000002
  0
LINE
  5
42EE
  8
0
  6
VERDECKT
 62
     1
 10
-249.2499999999998863
 20
43.0907369136595477
 30
-0.0000000000000096
 11
-248.5
 21
43.0907369136595477
 31
-0.0000000000000096
210
0.0
220
1.0
230
-0.0000000000000002
  0
LINE
  5
42EF
  8
0
  6
VERDECKT
 62
     1
 10
-249.2499999999998863
 20
49.109371881598058
 30
-0.0000000000000109
 11
-248.5
 21
49.109371881598058
 31
-0.0000000000000109
210
0.0
220
1.0
230
-0.0000000000000002
  0
LINE
  5
42F0
  8
0
  6
VERDECKT
 62
     1
 10
147.25
 20
-50.068617299895287
 30
0.0000000000000111
 11
2.75
 21
-50.068617299895287
 31
0.0000000000000111
210
0.0
220
1.0
230
-0.0000000000000002
  0
LINE
  5
42F1
  8
0
  6
VERDECKT
 62
     1
 10
247.0000000000001137
 20
-50.068617299895287
 30
0.0000000000000111
 11
152.75
 21
-50.068617299895287
 31
0.0000000000000111
210
0.0
220
1.0
230
-0.0000000000000002
  0
POLYLINE
  5
42F2
  8
0
  6
VERDECKT
 62
     1
 10
250.0000000000001137
 20
-47.0645002619015145
 30
0.0000000000000105
 66
     1
 70
     8
  0
VERTEX
  8
0
  5
46F2
 10
250.000
 20
-47.0645
 30
1.05000e-14
  70
    32
  0
VERTEX
  8
0
  5
46F3
 10
250.000
 20
-47.1014
 30
1.05086e-14
  70
    32
  0
VERTEX
  8
0
  5
46F4
 10
249.999
 20
-47.1382
 30
1.05172e-14
  70
    32
  0
VERTEX
  8
0
  5
46F5
 10
249.998
 20
-47.1751
 30
1.05258e-14
  70
    32
  0
VERTEX
  8
0
  5
46F6
 10
249.996
 20
-47.2119
 30
1.05343e-14
  70
    32
  0
VERTEX
  8
0
  5
46F7
 10
249.994
 20
-47.2487
 30
1.05429e-14
  70
    32
  0
VERTEX
  8
0
  5
46F8
 10
249.992
 20
-47.2855
 30
1.05515e-14
  70
    32
  0
VERTEX
  8
0
  5
46F9
 10
249.989
 20
-47.3222
 30
1.05601e-14
  70
    32
  0
VERTEX
  8
0
  5
46FA
 10
249.986
 20
-47.3590
 30
1.05686e-14
  70
    32
  0
VERTEX
  8
0
  5
46FB
 10
249.982
 20
-47.3956
 30
1.05772e-14
  70
    32
  0
VERTEX
  8
0
  5
46FC
 10
249.977
 20
-47.4322
 30
1.05857e-14
  70
    32
  0
VERTEX
  8
0
  5
46FD
 10
249.973
 20
-47.4688
 30
1.05942e-14
  70
    32
  0
VERTEX
  8
0
  5
46FE
 10
249.968
 20
-47.5053
 30
1.06027e-14
  70
    32
  0
VERTEX
  8
0
  5
46FF
 10
249.962
 20
-47.5417
 30
1.06112e-14
  70
    32
  0
VERTEX
  8
0
  5
4700
 10
249.956
 20
-47.5781
 30
1.06197e-14
  70
    32
  0
VERTEX
  8
0
  5
4701
 10
249.949
 20
-47.6144
 30
1.06281e-14
  70
    32
  0
VERTEX
  8
0
  5
4702
 10
249.942
 20
-47.6506
 30
1.06366e-14
  70
    32
  0
VERTEX
  8
0
  5
4703
 10
249.935
 20
-47.6867
 30
1.06450e-14
  70
    32
  0
VERTEX
  8
0
  5
4704
 10
249.927
 20
-47.7227
 30
1.06534e-14
  70
    32
  0
VERTEX
  8
0
  5
4705
 10
249.919
 20
-47.7586
 30
1.06617e-14
  70
    32
  0
VERTEX
  8
0
  5
4706
 10
249.910
 20
-47.7944
 30
1.06701e-14
  70
    32
  0
VERTEX
  8
0
  5
4707
 10
249.901
 20
-47.8301
 30
1.06784e-14
  70
    32
  0
VERTEX
  8
0
  5
4708
 10
249.891
 20
-47.8657
 30
1.06867e-14
  70
    32
  0
VERTEX
  8
0
  5
4709
 10
249.881
 20
-47.9012
 30
1.06950e-14
  70
    32
  0
VERTEX
  8
0
  5
470A
 10
249.871
 20
-47.9365
 30
1.07032e-14
  70
    32
  0
VERTEX
  8
0
  5
470B
 10
249.860
 20
-47.9718
 30
1.07114e-14
  70
    32
  0
VERTEX
  8
0
  5
470C
 10
249.849
 20
-48.0068
 30
1.07196e-14
  70
    32
  0
VERTEX
  8
0
  5
470D
 10
249.837
 20
-48.0418
 30
1.07277e-14
  70
    32
  0
VERTEX
  8
0
  5
470E
 10
249.825
 20
-48.0766
 30
1.07358e-14
  70
    32
  0
VERTEX
  8
0
  5
470F
 10
249.812
 20
-48.1112
 30
1.07439e-14
  70
    32
  0
VERTEX
  8
0
  5
4710
 10
249.799
 20
-48.1457
 30
1.07519e-14
  70
    32
  0
VERTEX
  8
0
  5
4711
 10
249.786
 20
-48.1800
 30
1.07599e-14
  70
    32
  0
VERTEX
  8
0
  5
4712
 10
249.772
 20
-48.2141
 30
1.07679e-14
  70
    32
  0
VERTEX
  8
0
  5
4713
 10
249.757
 20
-48.2481
 30
1.07758e-14
  70
    32
  0
VERTEX
  8
0
  5
4714
 10
249.743
 20
-48.2819
 30
1.07837e-14
  70
    32
  0
VERTEX
  8
0
  5
4715
 10
249.728
 20
-48.3155
 30
1.07915e-14
  70
    32
  0
VERTEX
  8
0
  5
4716
 10
249.712
 20
-48.3489
 30
1.07993e-14
  70
    32
  0
VERTEX
  8
0
  5
4717
 10
249.696
 20
-48.3822
 30
1.08070e-14
  70
    32
  0
VERTEX
  8
0
  5
4718
 10
249.680
 20
-48.4152
 30
1.08147e-14
  70
    32
  0
VERTEX
  8
0
  5
4719
 10
249.663
 20
-48.4480
 30
1.08224e-14
  70
    32
  0
VERTEX
  8
0
  5
471A
 10
249.646
 20
-48.4806
 30
1.08300e-14
  70
    32
  0
VERTEX
  8
0
  5
471B
 10
249.628
 20
-48.5130
 30
1.08375e-14
  70
    32
  0
VERTEX
  8
0
  5
471C
 10
249.610
 20
-48.5452
 30
1.08450e-14
  70
    32
  0
VERTEX
  8
0
  5
471D
 10
249.592
 20
-48.5772
 30
1.08525e-14
  70
    32
  0
VERTEX
  8
0
  5
471E
 10
249.573
 20
-48.6089
 30
1.08599e-14
  70
    32
  0
VERTEX
  8
0
  5
471F
 10
249.554
 20
-48.6404
 30
1.08672e-14
  70
    32
  0
VERTEX
  8
0
  5
4720
 10
249.535
 20
-48.6717
 30
1.08745e-14
  70
    32
  0
VERTEX
  8
0
  5
4721
 10
249.515
 20
-48.7027
 30
1.08817e-14
  70
    32
  0
VERTEX
  8
0
  5
4722
 10
249.494
 20
-48.7335
 30
1.08889e-14
  70
    32
  0
VERTEX
  8
0
  5
4723
 10
249.474
 20
-48.7640
 30
1.08960e-14
  70
    32
  0
VERTEX
  8
0
  5
4724
 10
249.453
 20
-48.7943
 30
1.09031e-14
  70
    32
  0
VERTEX
  8
0
  5
4725
 10
249.431
 20
-48.8243
 30
1.09101e-14
  70
    32
  0
VERTEX
  8
0
  5
4726
 10
249.410
 20
-48.8541
 30
1.09170e-14
  70
    32
  0
VERTEX
  8
0
  5
4727
 10
249.388
 20
-48.8835
 30
1.09239e-14
  70
    32
  0
VERTEX
  8
0
  5
4728
 10
249.365
 20
-48.9127
 30
1.09307e-14
  70
    32
  0
VERTEX
  8
0
  5
4729
 10
249.342
 20
-48.9417
 30
1.09374e-14
  70
    32
  0
VERTEX
  8
0
  5
472A
 10
249.319
 20
-48.9703
 30
1.09441e-14
  70
    32
  0
VERTEX
  8
0
  5
472B
 10
249.296
 20
-48.9986
 30
1.09507e-14
  70
    32
  0
VERTEX
  8
0
  5
472C
 10
249.272
 20
-49.0267
 30
1.09572e-14
  70
    32
  0
VERTEX
  8
0
  5
472D
 10
249.247
 20
-49.0545
 30
1.09637e-14
  70
    32
  0
VERTEX
  8
0
  5
472E
 10
249.223
 20
-49.0819
 30
1.09701e-14
  70
    32
  0
VERTEX
  8
0
  5
472F
 10
249.198
 20
-49.1091
 30
1.09764e-14
  70
    32
  0
VERTEX
  8
0
  5
4730
 10
249.173
 20
-49.1360
 30
1.09827e-14
  70
    32
  0
VERTEX
  8
0
  5
4731
 10
249.147
 20
-49.1625
 30
1.09889e-14
  70
    32
  0
VERTEX
  8
0
  5
4732
 10
249.121
 20
-49.1887
 30
1.09950e-14
  70
    32
  0
VERTEX
  8
0
  5
4733
 10
249.095
 20
-49.2146
 30
1.10010e-14
  70
    32
  0
VERTEX
  8
0
  5
4734
 10
249.069
 20
-49.2402
 30
1.10070e-14
  70
    32
  0
VERTEX
  8
0
  5
4735
 10
249.042
 20
-49.2655
 30
1.10129e-14
  70
    32
  0
VERTEX
  8
0
  5
4736
 10
249.015
 20
-49.2904
 30
1.10187e-14
  70
    32
  0
VERTEX
  8
0
  5
4737
 10
248.987
 20
-49.3150
 30
1.10244e-14
  70
    32
  0
VERTEX
  8
0
  5
4738
 10
248.960
 20
-49.3392
 30
1.10300e-14
  70
    32
  0
VERTEX
  8
0
  5
4739
 10
248.931
 20
-49.3632
 30
1.10356e-14
  70
    32
  0
VERTEX
  8
0
  5
473A
 10
248.903
 20
-49.3867
 30
1.10411e-14
  70
    32
  0
VERTEX
  8
0
  5
473B
 10
248.875
 20
-49.4099
 30
1.10465e-14
  70
    32
  0
VERTEX
  8
0
  5
473C
 10
248.846
 20
-49.4328
 30
1.10518e-14
  70
    32
  0
VERTEX
  8
0
  5
473D
 10
248.817
 20
-49.4553
 30
1.10571e-14
  70
    32
  0
VERTEX
  8
0
  5
473E
 10
248.787
 20
-49.4774
 30
1.10622e-14
  70
    32
  0
VERTEX
  8
0
  5
473F
 10
248.757
 20
-49.4992
 30
1.10673e-14
  70
    32
  0
VERTEX
  8
0
  5
4740
 10
248.727
 20
-49.5206
 30
1.10723e-14
  70
    32
  0
VERTEX
  8
0
  5
4741
 10
248.697
 20
-49.5417
 30
1.10772e-14
  70
    32
  0
VERTEX
  8
0
  5
4742
 10
248.667
 20
-49.5623
 30
1.10820e-14
  70
    32
  0
VERTEX
  8
0
  5
4743
 10
248.636
 20
-49.5826
 30
1.10868e-14
  70
    32
  0
VERTEX
  8
0
  5
4744
 10
248.605
 20
-49.6025
 30
1.10914e-14
  70
    32
  0
VERTEX
  8
0
  5
4745
 10
248.574
 20
-49.6221
 30
1.10959e-14
  70
    32
  0
VERTEX
  8
0
  5
4746
 10
248.542
 20
-49.6412
 30
1.11004e-14
  70
    32
  0
VERTEX
  8
0
  5
4747
 10
248.511
 20
-49.6600
 30
1.11048e-14
  70
    32
  0
VERTEX
  8
0
  5
4748
 10
248.479
 20
-49.6783
 30
1.11091e-14
  70
    32
  0
VERTEX
  8
0
  5
4749
 10
248.447
 20
-49.6963
 30
1.11132e-14
  70
    32
  0
VERTEX
  8
0
  5
474A
 10
248.414
 20
-49.7139
 30
1.11173e-14
  70
    32
  0
VERTEX
  8
0
  5
474B
 10
248.382
 20
-49.7311
 30
1.11213e-14
  70
    32
  0
VERTEX
  8
0
  5
474C
 10
248.349
 20
-49.7479
 30
1.11253e-14
  70
    32
  0
VERTEX
  8
0
  5
474D
 10
248.316
 20
-49.7642
 30
1.11291e-14
  70
    32
  0
VERTEX
  8
0
  5
474E
 10
248.283
 20
-49.7802
 30
1.11328e-14
  70
    32
  0
VERTEX
  8
0
  5
474F
 10
248.249
 20
-49.7957
 30
1.11364e-14
  70
    32
  0
VERTEX
  8
0
  5
4750
 10
248.216
 20
-49.8109
 30
1.11399e-14
  70
    32
  0
VERTEX
  8
0
  5
4751
 10
248.182
 20
-49.8256
 30
1.11434e-14
  70
    32
  0
VERTEX
  8
0
  5
4752
 10
248.148
 20
-49.8399
 30
1.11467e-14
  70
    32
  0
VERTEX
  8
0
  5
4753
 10
248.114
 20
-49.8538
 30
1.11500e-14
  70
    32
  0
VERTEX
  8
0
  5
4754
 10
248.080
 20
-49.8673
 30
1.11531e-14
  70
    32
  0
VERTEX
  8
0
  5
4755
 10
248.045
 20
-49.8804
 30
1.11561e-14
  70
    32
  0
VERTEX
  8
0
  5
4756
 10
248.011
 20
-49.8930
 30
1.11591e-14
  70
    32
  0
VERTEX
  8
0
  5
4757
 10
247.976
 20
-49.9052
 30
1.11619e-14
  70
    32
  0
VERTEX
  8
0
  5
4758
 10
247.941
 20
-49.9170
 30
1.11647e-14
  70
    32
  0
VERTEX
  8
0
  5
4759
 10
247.906
 20
-49.9283
 30
1.11673e-14
  70
    32
  0
VERTEX
  8
0
  5
475A
 10
247.871
 20
-49.9393
 30
1.11699e-14
  70
    32
  0
VERTEX
  8
0
  5
475B
 10
247.836
 20
-49.9497
 30
1.11723e-14
  70
    32
  0
VERTEX
  8
0
  5
475C
 10
247.800
 20
-49.9598
 30
1.11746e-14
  70
    32
  0
VERTEX
  8
0
  5
475D
 10
247.765
 20
-49.9694
 30
1.11769e-14
  70
    32
  0
VERTEX
  8
0
  5
475E
 10
247.729
 20
-49.9786
 30
1.11790e-14
  70
    32
  0
VERTEX
  8
0
  5
475F
 10
247.693
 20
-49.9873
 30
1.11811e-14
  70
    32
  0
VERTEX
  8
0
  5
4760
 10
247.657
 20
-49.9956
 30
1.11830e-14
  70
    32
  0
VERTEX
  8
0
  5
4761
 10
247.621
 20
-50.0035
 30
1.11848e-14
  70
    32
  0
VERTEX
  8
0
  5
4762
 10
247.585
 20
-50.0109
 30
1.11865e-14
  70
    32
  0
VERTEX
  8
0
  5
4763
 10
247.549
 20
-50.0179
 30
1.11882e-14
  70
    32
  0
VERTEX
  8
0
  5
4764
 10
247.513
 20
-50.0244
 30
1.11897e-14
  70
    32
  0
VERTEX
  8
0
  5
4765
 10
247.477
 20
-50.0305
 30
1.11911e-14
  70
    32
  0
VERTEX
  8
0
  5
4766
 10
247.440
 20
-50.0361
 30
1.11924e-14
  70
    32
  0
VERTEX
  8
0
  5
4767
 10
247.404
 20
-50.0413
 30
1.11936e-14
  70
    32
  0
VERTEX
  8
0
  5
4768
 10
247.367
 20
-50.0460
 30
1.11947e-14
  70
    32
  0
VERTEX
  8
0
  5
4769
 10
247.331
 20
-50.0503
 30
1.11957e-14
  70
    32
  0
VERTEX
  8
0
  5
476A
 10
247.294
 20
-50.0542
 30
1.11966e-14
  70
    32
  0
VERTEX
  8
0
  5
476B
 10
247.257
 20
-50.0575
 30
1.11974e-14
  70
    32
  0
VERTEX
  8
0
  5
476C
 10
247.221
 20
-50.0605
 30
1.11981e-14
  70
    32
  0
VERTEX
  8
0
  5
476D
 10
247.184
 20
-50.0630
 30
1.11987e-14
  70
    32
  0
VERTEX
  8
0
  5
476E
 10
247.147
 20
-50.0650
 30
1.11992e-14
  70
    32
  0
VERTEX
  8
0
  5
476F
 10
247.110
 20
-50.0666
 30
1.11995e-14
  70
    32
  0
VERTEX
  8
0
  5
4770
 10
247.074
 20
-50.0677
 30
1.11998e-14
  70
    32
  0
VERTEX
  8
0
  5
4771
 10
247.037
 20
-50.0684
 30
1.11999e-14
  70
    32
  0
VERTEX
  8
0
  5
4772
 10
247.000
 20
-50.0686
 30
1.12000e-14
  70
    32
  0
SEQEND
  8
0
  5
4773
  0
LINE
  5
42F3
  8
0
  6
VERDECKT
 62
     1
 10
250.0000000000003126
 20
-2.7499999999998539
 30
0.0000000000000006
 11
250.0
 21
-47.0645002619015216
 31
0.0000000000000105
210
0.0
220
1.0
230
-0.0000000000000002
  0
LINE
  5
42F4
  8
0
  6
VERDECKT
 62
     1
 10
-250.0
 20
-47.06450026190155
 30
0.0000000000000105
 11
-250.000000000000199
 21
-2.7499999999999152
 31
0.0000000000000006
210
0.0
220
1.0
230
-0.0000000000000002
  0
POLYLINE
  5
42F5
  8
0
  6
VERDECKT
 62
     1
 10
-247.0
 20
-50.068617299895287
 30
0.0000000000000112
 66
     1
 70
     8
  0
VERTEX
  8
0
  5
4774
 10
-247.000
 20
-50.0686
 30
1.12000e-14
  70
    32
  0
VERTEX
  8
0
  5
4775
 10
-247.037
 20
-50.0684
 30
1.11999e-14
  70
    32
  0
VERTEX
  8
0
  5
4776
 10
-247.074
 20
-50.0677
 30
1.11998e-14
  70
    32
  0
VERTEX
  8
0
  5
4777
 10
-247.110
 20
-50.0666
 30
1.11995e-14
  70
    32
  0
VERTEX
  8
0
  5
4778
 10
-247.147
 20
-50.0650
 30
1.11992e-14
  70
    32
  0
VERTEX
  8
0
  5
4779
 10
-247.184
 20
-50.0630
 30
1.11987e-14
  70
    32
  0
VERTEX
  8
0
  5
477A
 10
-247.221
 20
-50.0605
 30
1.11981e-14
  70
    32
  0
VERTEX
  8
0
  5
477B
 10
-247.257
 20
-50.0575
 30
1.11974e-14
  70
    32
  0
VERTEX
  8
0
  5
477C
 10
-247.294
 20
-50.0542
 30
1.11966e-14
  70
    32
  0
VERTEX
  8
0
  5
477D
 10
-247.331
 20
-50.0503
 30
1.11957e-14
  70
    32
  0
VERTEX
  8
0
  5
477E
 10
-247.367
 20
-50.0460
 30
1.11947e-14
  70
    32
  0
VERTEX
  8
0
  5
477F
 10
-247.404
 20
-50.0413
 30
1.11936e-14
  70
    32
  0
VERTEX
  8
0
  5
4780
 10
-247.440
 20
-50.0361
 30
1.11924e-14
  70
    32
  0
VERTEX
  8
0
  5
4781
 10
-247.477
 20
-50.0305
 30
1.11911e-14
  70
    32
  0
VERTEX
  8
0
  5
4782
 10
-247.513
 20
-50.0244
 30
1.11897e-14
  70
    32
  0
VERTEX
  8
0
  5
4783
 10
-247.549
 20
-50.0179
 30
1.11882e-14
  70
    32
  0
VERTEX
  8
0
  5
4784
 10
-247.585
 20
-50.0109
 30
1.11865e-14
  70
    32
  0
VERTEX
  8
0
  5
4785
 10
-247.621
 20
-50.0035
 30
1.11848e-14
  70
    32
  0
VERTEX
  8
0
  5
4786
 10
-247.657
 20
-49.9956
 30
1.11830e-14
  70
    32
  0
VERTEX
  8
0
  5
4787
 10
-247.693
 20
-49.9873
 30
1.11811e-14
  70
    32
  0
VERTEX
  8
0
  5
4788
 10
-247.729
 20
-49.9786
 30
1.11790e-14
  70
    32
  0
VERTEX
  8
0
  5
4789
 10
-247.765
 20
-49.9694
 30
1.11769e-14
  70
    32
  0
VERTEX
  8
0
  5
478A
 10
-247.800
 20
-49.9598
 30
1.11746e-14
  70
    32
  0
VERTEX
  8
0
  5
478B
 10
-247.836
 20
-49.9497
 30
1.11723e-14
  70
    32
  0
VERTEX
  8
0
  5
478C
 10
-247.871
 20
-49.9393
 30
1.11699e-14
  70
    32
  0
VERTEX
  8
0
  5
478D
 10
-247.906
 20
-49.9283
 30
1.11673e-14
  70
    32
  0
VERTEX
  8
0
  5
478E
 10
-247.941
 20
-49.9170
 30
1.11647e-14
  70
    32
  0
VERTEX
  8
0
  5
478F
 10
-247.976
 20
-49.9052
 30
1.11619e-14
  70
    32
  0
VERTEX
  8
0
  5
4790
 10
-248.011
 20
-49.8930
 30
1.11591e-14
  70
    32
  0
VERTEX
  8
0
  5
4791
 10
-248.045
 20
-49.8804
 30
1.11561e-14
  70
    32
  0
VERTEX
  8
0
  5
4792
 10
-248.080
 20
-49.8673
 30
1.11531e-14
  70
    32
  0
VERTEX
  8
0
  5
4793
 10
-248.114
 20
-49.8538
 30
1.11500e-14
  70
    32
  0
VERTEX
  8
0
  5
4794
 10
-248.148
 20
-49.8399
 30
1.11467e-14
  70
    32
  0
VERTEX
  8
0
  5
4795
 10
-248.182
 20
-49.8256
 30
1.11434e-14
  70
    32
  0
VERTEX
  8
0
  5
4796
 10
-248.216
 20
-49.8109
 30
1.11399e-14
  70
    32
  0
VERTEX
  8
0
  5
4797
 10
-248.249
 20
-49.7957
 30
1.11364e-14
  70
    32
  0
VERTEX
  8
0
  5
4798
 10
-248.283
 20
-49.7802
 30
1.11328e-14
  70
    32
  0
VERTEX
  8
0
  5
4799
 10
-248.316
 20
-49.7642
 30
1.11291e-14
  70
    32
  0
VERTEX
  8
0
  5
479A
 10
-248.349
 20
-49.7479
 30
1.11253e-14
  70
    32
  0
VERTEX
  8
0
  5
479B
 10
-248.382
 20
-49.7311
 30
1.11213e-14
  70
    32
  0
VERTEX
  8
0
  5
479C
 10
-248.414
 20
-49.7139
 30
1.11173e-14
  70
    32
  0
VERTEX
  8
0
  5
479D
 10
-248.447
 20
-49.6963
 30
1.11132e-14
  70
    32
  0
VERTEX
  8
0
  5
479E
 10
-248.479
 20
-49.6783
 30
1.11091e-14
  70
    32
  0
VERTEX
  8
0
  5
479F
 10
-248.511
 20
-49.6600
 30
1.11048e-14
  70
    32
  0
VERTEX
  8
0
  5
47A0
 10
-248.542
 20
-49.6412
 30
1.11004e-14
  70
    32
  0
VERTEX
  8
0
  5
47A1
 10
-248.574
 20
-49.6221
 30
1.10959e-14
  70
    32
  0
VERTEX
  8
0
  5
47A2
 10
-248.605
 20
-49.6025
 30
1.10914e-14
  70
    32
  0
VERTEX
  8
0
  5
47A3
 10
-248.636
 20
-49.5826
 30
1.10868e-14
  70
    32
  0
VERTEX
  8
0
  5
47A4
 10
-248.667
 20
-49.5623
 30
1.10820e-14
  70
    32
  0
VERTEX
  8
0
  5
47A5
 10
-248.697
 20
-49.5417
 30
1.10772e-14
  70
    32
  0
VERTEX
  8
0
  5
47A6
 10
-248.727
 20
-49.5206
 30
1.10723e-14
  70
    32
  0
VERTEX
  8
0
  5
47A7
 10
-248.757
 20
-49.4992
 30
1.10673e-14
  70
    32
  0
VERTEX
  8
0
  5
47A8
 10
-248.787
 20
-49.4774
 30
1.10622e-14
  70
    32
  0
VERTEX
  8
0
  5
47A9
 10
-248.817
 20
-49.4553
 30
1.10571e-14
  70
    32
  0
VERTEX
  8
0
  5
47AA
 10
-248.846
 20
-49.4328
 30
1.10518e-14
  70
    32
  0
VERTEX
  8
0
  5
47AB
 10
-248.875
 20
-49.4099
 30
1.10465e-14
  70
    32
  0
VERTEX
  8
0
  5
47AC
 10
-248.903
 20
-49.3867
 30
1.10411e-14
  70
    32
  0
VERTEX
  8
0
  5
47AD
 10
-248.931
 20
-49.3632
 30
1.10356e-14
  70
    32
  0
VERTEX
  8
0
  5
47AE
 10
-248.960
 20
-49.3392
 30
1.10300e-14
  70
    32
  0
VERTEX
  8
0
  5
47AF
 10
-248.987
 20
-49.3150
 30
1.10244e-14
  70
    32
  0
VERTEX
  8
0
  5
47B0
 10
-249.015
 20
-49.2904
 30
1.10187e-14
  70
    32
  0
VERTEX
  8
0
  5
47B1
 10
-249.042
 20
-49.2655
 30
1.10129e-14
  70
    32
  0
VERTEX
  8
0
  5
47B2
 10
-249.069
 20
-49.2402
 30
1.10070e-14
  70
    32
  0
VERTEX
  8
0
  5
47B3
 10
-249.095
 20
-49.2146
 30
1.10010e-14
  70
    32
  0
VERTEX
  8
0
  5
47B4
 10
-249.121
 20
-49.1887
 30
1.09950e-14
  70
    32
  0
VERTEX
  8
0
  5
47B5
 10
-249.147
 20
-49.1625
 30
1.09889e-14
  70
    32
  0
VERTEX
  8
0
  5
47B6
 10
-249.173
 20
-49.1360
 30
1.09827e-14
  70
    32
  0
VERTEX
  8
0
  5
47B7
 10
-249.198
 20
-49.1091
 30
1.09764e-14
  70
    32
  0
VERTEX
  8
0
  5
47B8
 10
-249.223
 20
-49.0819
 30
1.09701e-14
  70
    32
  0
VERTEX
  8
0
  5
47B9
 10
-249.247
 20
-49.0545
 30
1.09637e-14
  70
    32
  0
VERTEX
  8
0
  5
47BA
 10
-249.272
 20
-49.0267
 30
1.09572e-14
  70
    32
  0
VERTEX
  8
0
  5
47BB
 10
-249.296
 20
-48.9986
 30
1.09507e-14
  70
    32
  0
VERTEX
  8
0
  5
47BC
 10
-249.319
 20
-48.9703
 30
1.09441e-14
  70
    32
  0
VERTEX
  8
0
  5
47BD
 10
-249.342
 20
-48.9417
 30
1.09374e-14
  70
    32
  0
VERTEX
  8
0
  5
47BE
 10
-249.365
 20
-48.9127
 30
1.09307e-14
  70
    32
  0
VERTEX
  8
0
  5
47BF
 10
-249.388
 20
-48.8835
 30
1.09239e-14
  70
    32
  0
VERTEX
  8
0
  5
47C0
 10
-249.410
 20
-48.8541
 30
1.09170e-14
  70
    32
  0
VERTEX
  8
0
  5
47C1
 10
-249.431
 20
-48.8243
 30
1.09101e-14
  70
    32
  0
VERTEX
  8
0
  5
47C2
 10
-249.453
 20
-48.7943
 30
1.09031e-14
  70
    32
  0
VERTEX
  8
0
  5
47C3
 10
-249.474
 20
-48.7640
 30
1.08960e-14
  70
    32
  0
VERTEX
  8
0
  5
47C4
 10
-249.494
 20
-48.7335
 30
1.08889e-14
  70
    32
  0
VERTEX
  8
0
  5
47C5
 10
-249.515
 20
-48.7027
 30
1.08817e-14
  70
    32
  0
VERTEX
  8
0
  5
47C6
 10
-249.535
 20
-48.6717
 30
1.08745e-14
  70
    32
  0
VERTEX
  8
0
  5
47C7
 10
-249.554
 20
-48.6404
 30
1.08672e-14
  70
    32
  0
VERTEX
  8
0
  5
47C8
 10
-249.573
 20
-48.6089
 30
1.08599e-14
  70
    32
  0
VERTEX
  8
0
  5
47C9
 10
-249.592
 20
-48.5772
 30
1.08525e-14
  70
    32
  0
VERTEX
  8
0
  5
47CA
 10
-249.610
 20
-48.5452
 30
1.08450e-14
  70
    32
  0
VERTEX
  8
0
  5
47CB
 10
-249.628
 20
-48.5130
 30
1.08375e-14
  70
    32
  0
VERTEX
  8
0
  5
47CC
 10
-249.646
 20
-48.4806
 30
1.08300e-14
  70
    32
  0
VERTEX
  8
0
  5
47CD
 10
-249.663
 20
-48.4480
 30
1.08224e-14
  70
    32
  0
VERTEX
  8
0
  5
47CE
 10
-249.680
 20
-48.4152
 30
1.08147e-14
  70
    32
  0
VERTEX
  8
0
  5
47CF
 10
-249.696
 20
-48.3822
 30
1.08070e-14
  70
    32
  0
VERTEX
  8
0
  5
47D0
 10
-249.712
 20
-48.3489
 30
1.07993e-14
  70
    32
  0
VERTEX
  8
0
  5
47D1
 10
-249.728
 20
-48.3155
 30
1.07915e-14
  70
    32
  0
VERTEX
  8
0
  5
47D2
 10
-249.743
 20
-48.2819
 30
1.07837e-14
  70
    32
  0
VERTEX
  8
0
  5
47D3
 10
-249.757
 20
-48.2481
 30
1.07758e-14
  70
    32
  0
VERTEX
  8
0
  5
47D4
 10
-249.772
 20
-48.2141
 30
1.07679e-14
  70
    32
  0
VERTEX
  8
0
  5
47D5
 10
-249.786
 20
-48.1800
 30
1.07599e-14
  70
    32
  0
VERTEX
  8
0
  5
47D6
 10
-249.799
 20
-48.1457
 30
1.07519e-14
  70
    32
  0
VERTEX
  8
0
  5
47D7
 10
-249.812
 20
-48.1112
 30
1.07439e-14
  70
    32
  0
VERTEX
  8
0
  5
47D8
 10
-249.825
 20
-48.0766
 30
1.07358e-14
  70
    32
  0
VERTEX
  8
0
  5
47D9
 10
-249.837
 20
-48.0418
 30
1.07277e-14
  70
    32
  0
VERTEX
  8
0
  5
47DA
 10
-249.849
 20
-48.0068
 30
1.07196e-14
  70
    32
  0
VERTEX
  8
0
  5
47DB
 10
-249.860
 20
-47.9718
 30
1.07114e-14
  70
    32
  0
VERTEX
  8
0
  5
47DC
 10
-249.871
 20
-47.9365
 30
1.07032e-14
  70
    32
  0
VERTEX
  8
0
  5
47DD
 10
-249.881
 20
-47.9012
 30
1.06950e-14
  70
    32
  0
VERTEX
  8
0
  5
47DE
 10
-249.891
 20
-47.8657
 30
1.06867e-14
  70
    32
  0
VERTEX
  8
0
  5
47DF
 10
-249.901
 20
-47.8301
 30
1.06784e-14
  70
    32
  0
VERTEX
  8
0
  5
47E0
 10
-249.910
 20
-47.7944
 30
1.06701e-14
  70
    32
  0
VERTEX
  8
0
  5
47E1
 10
-249.919
 20
-47.7586
 30
1.06617e-14
  70
    32
  0
VERTEX
  8
0
  5
47E2
 10
-249.927
 20
-47.7227
 30
1.06534e-14
  70
    32
  0
VERTEX
  8
0
  5
47E3
 10
-249.935
 20
-47.6867
 30
1.06450e-14
  70
    32
  0
VERTEX
  8
0
  5
47E4
 10
-249.942
 20
-47.6506
 30
1.06366e-14
  70
    32
  0
VERTEX
  8
0
  5
47E5
 10
-249.949
 20
-47.6144
 30
1.06281e-14
  70
    32
  0
VERTEX
  8
0
  5
47E6
 10
-249.956
 20
-47.5781
 30
1.06197e-14
  70
    32
  0
VERTEX
  8
0
  5
47E7
 10
-249.962
 20
-47.5417
 30
1.06112e-14
  70
    32
  0
VERTEX
  8
0
  5
47E8
 10
-249.968
 20
-47.5053
 30
1.06027e-14
  70
    32
  0
VERTEX
  8
0
  5
47E9
 10
-249.973
 20
-47.4688
 30
1.05942e-14
  70
    32
  0
VERTEX
  8
0
  5
47EA
 10
-249.977
 20
-47.4322
 30
1.05857e-14
  70
    32
  0
VERTEX
  8
0
  5
47EB
 10
-249.982
 20
-47.3956
 30
1.05772e-14
  70
    32
  0
VERTEX
  8
0
  5
47EC
 10
-249.986
 20
-47.3590
 30
1.05686e-14
  70
    32
  0
VERTEX
  8
0
  5
47ED
 10
-249.989
 20
-47.3222
 30
1.05601e-14
  70
    32
  0
VERTEX
  8
0
  5
47EE
 10
-249.992
 20
-47.2855
 30
1.05515e-14
  70
    32
  0
VERTEX
  8
0
  5
47EF
 10
-249.994
 20
-47.2487
 30
1.05429e-14
  70
    32
  0
VERTEX
  8
0
  5
47F0
 10
-249.996
 20
-47.2119
 30
1.05343e-14
  70
    32
  0
VERTEX
  8
0
  5
47F1
 10
-249.998
 20
-47.1751
 30
1.05258e-14
  70
    32
  0
VERTEX
  8
0
  5
47F2
 10
-249.999
 20
-47.1382
 30
1.05172e-14
  70
    32
  0
VERTEX
  8
0
  5
47F3
 10
-250.000
 20
-47.1014
 30
1.05086e-14
  70
    32
  0
VERTEX
  8
0
  5
47F4
 10
-250.000
 20
-47.0645
 30
1.05000e-14
  70
    32
  0
SEQEND
  8
0
  5
47F5
  0
LINE
  5
42F6
  8
0
  6
VERDECKT
 62
     1
 10
-152.75
 20
-50.068617299895287
 30
0.0000000000000111
 11
-247.0
 21
-50.068617299895287
 31
0.0000000000000111
210
0.0
220
1.0
230
-0.0000000000000002
  0
LINE
  5
42F7
  8
0
  6
VERDECKT
 62
     1
 10
-2.749999999999996
 20
-50.068617299895287
 30
0.0000000000000111
 11
-147.2499999999998863
 21
-50.068617299895287
 31
0.0000000000000111
210
0.0
220
1.0
230
-0.0000000000000002
  0
LINE
  5
42F8
  8
0
  6
VERDECKT
 62
     1
 10
250.0000000000007105
 20
36.7973381754455318
 30
-0.0000000000000082
 11
248.5000000000005969
 21
36.7973381754455389
 31
-0.0000000000000082
210
0.0
220
1.0
230
-0.0000000000000002
  0
LINE
  5
42F9
  8
0
  6
VERDECKT
 62
     1
 10
248.5000000000005969
 20
35.2993938733137327
 30
-0.0000000000000078
 11
250.0000000000005969
 21
35.2993938733137327
 31
-0.0000000000000078
210
0.0
220
1.0
230
-0.0000000000000002
  0
LINE
  5
42FA
  8
0
  6
VERDECKT
 62
     1
 10
-250.0000000000005116
 20
35.2993938733137327
 30
-0.0000000000000078
 11
-248.5000000000005969
 21
35.2993938733137327
 31
-0.0000000000000078
210
0.0
220
1.0
230
-0.0000000000000002
  0
LINE
  5
42FB
  8
0
  6
VERDECKT
 62
     1
 10
-248.5000000000005969
 20
36.7973381754456028
 30
-0.0000000000000082
 11
-250.0000000000005969
 21
36.7973381754455886
 31
-0.0000000000000082
210
0.0
220
1.0
230
-0.0000000000000002
  0
LINE
  5
42FC
  8
0
  6
VERDECKT
 62
     1
 10
250.0000000000005969
 20
29.5424386865899216
 30
-0.0000000000000066
 11
248.5000000000005969
 21
29.5424386865899216
 31
-0.0000000000000066
210
0.0
220
1.0
230
-0.0000000000000002
  0
LINE
  5
42FD
  8
0
  6
VERDECKT
 62
     1
 10
248.5000000000005969
 20
31.0403829887217491
 30
-0.0000000000000069
 11
250.0000000000007105
 21
31.0403829887217384
 31
-0.0000000000000069
210
0.0
220
1.0
230
-0.0000000000000002
  0
LINE
  5
42FE
  8
0
  6
VERDECKT
 62
     1
 10
-248.5000000000005969
 20
29.5424386865899216
 30
-0.0000000000000066
 11
-250.0000000000005116
 21
29.5424386865899216
 31
-0.0000000000000066
210
0.0
220
1.0
230
-0.0000000000000002
  0
LINE
  5
42FF
  8
0
  6
VERDECKT
 62
     1
 10
-250.0000000000005969
 20
31.0403829887218095
 30
-0.0000000000000069
 11
-248.5000000000005969
 21
31.0403829887218201
 31
-0.0000000000000069
210
0.0
220
1.0
230
-0.0000000000000002
  0
LINE
  5
4300
  8
0
  6
VERDECKT
 62
     1
 10
248.8240213272636083
 20
48.5665587808999106
 30
-0.0000000000000108
 11
250.0000000000005969
 21
48.5665587808999106
 31
-0.0000000000000108
210
0.0
220
1.0
230
-0.0000000000000002
  0
LINE
  5
4301
  8
0
  6
VERDECKT
 62
     1
 10
248.5000000000005969
 20
47.5983435904054488
 30
-0.0000000000000106
 11
250.0000000000005969
 21
47.5983435904054488
 31
-0.0000000000000106
210
0.0
220
1.0
230
-0.0000000000000002
  0
LINE
  5
4302
  8
0
  6
VERDECKT
 62
     1
 10
250.0000000000005969
 20
49.0962878925373403
 30
-0.0000000000000109
 11
250.0000000000005969
 21
48.5665587808999106
 31
-0.0000000000000108
210
0.0
220
1.0
230
-0.0000000000000002
  0
LINE
  5
4303
  8
0
  6
VERDECKT
 62
     1
 10
248.5000000000005969
 20
49.0962878925372692
 30
-0.0000000000000109
 11
250.0000000000005969
 21
49.0962878925372621
 31
-0.0000000000000109
210
0.0
220
1.0
230
-0.0000000000000002
  0
LINE
  5
4304
  8
0
  6
VERDECKT
 62
     1
 10
250.0000000000005969
 20
48.5665587808999319
 30
-0.0000000000000108
 11
250.0000000000003126
 21
2.7500000000001421
 31
-0.0000000000000006
210
0.0
220
1.0
230
-0.0000000000000002
  0
LINE
  5
4305
  8
0
  6
VERDECKT
 62
     1
 10
-250.0000000000005116
 20
49.0962878925373687
 30
-0.0000000000000109
 11
-248.5000000000005116
 21
49.0962878925373687
 31
-0.0000000000000109
210
0.0
220
1.0
230
-0.0000000000000002
  0
LINE
  5
4306
  8
0
  6
VERDECKT
 62
     1
 10
-250.0000000000005116
 20
48.5665587808999106
 30
-0.0000000000000108
 11
-250.0000000000005116
 21
49.096287892537319
 31
-0.0000000000000109
210
0.0
220
1.0
230
-0.0000000000000002
  0
LINE
  5
4307
  8
0
  6
VERDECKT
 62
     1
 10
-250.0000000000005116
 20
47.5983435904054488
 30
-0.0000000000000106
 11
-248.5000000000005969
 21
47.5983435904054488
 31
-0.0000000000000106
210
0.0
220
1.0
230
-0.0000000000000002
  0
LINE
  5
4308
  8
0
  6
VERDECKT
 62
     1
 10
-250.0000000000005116
 20
48.5665587808999106
 30
-0.0000000000000108
 11
-248.8240213272636083
 21
48.5665587808999106
 31
-0.0000000000000108
210
0.0
220
1.0
230
-0.0000000000000002
  0
LINE
  5
4309
  8
0
  6
VERDECKT
 62
     1
 10
-250.0000000000003126
 20
2.750000000000083
 30
-0.0000000000000006
 11
-250.0000000000005116
 21
48.5665587808999319
 31
-0.0000000000000108
210
0.0
220
1.0
230
-0.0000000000000002
  0
LINE
  5
430A
  8
0
  6
VERDECKT
 62
     1
 10
250.0000000000007105
 20
30.7787032075070108
 30
-0.0000000000000068
 11
248.5000000000005969
 21
30.7787032075070215
 31
-0.0000000000000068
210
0.0
220
1.0
230
-0.0000000000000002
  0
LINE
  5
430B
  8
0
  6
VERDECKT
 62
     1
 10
248.5000000000005969
 20
29.2807589053751904
 30
-0.0000000000000065
 11
250.0000000000005969
 21
29.2807589053751904
 31
-0.0000000000000065
210
0.0
220
1.0
230
-0.0000000000000002
  0
LINE
  5
430C
  8
0
  6
VERDECKT
 62
     1
 10
-250.0000000000005116
 20
29.2807589053751904
 30
-0.0000000000000065
 11
-248.5000000000005969
 21
29.2807589053751904
 31
-0.0000000000000065
210
0.0
220
1.0
230
-0.0000000000000002
  0
LINE
  5
430D
  8
0
  6
VERDECKT
 62
     1
 10
-248.5000000000005969
 20
30.778703207507089
 30
-0.0000000000000068
 11
-250.0000000000005969
 21
30.7787032075070783
 31
-0.0000000000000068
210
0.0
220
1.0
230
-0.0000000000000002
  0
LINE
  5
430E
  8
0
  6
VERDECKT
 62
     1
 10
250.0000000000005969
 20
23.5238037186514113
 30
-0.0000000000000052
 11
248.5000000000005969
 21
23.5238037186514113
 31
-0.0000000000000052
210
0.0
220
1.0
230
-0.0000000000000002
  0
LINE
  5
430F
  8
0
  6
VERDECKT
 62
     1
 10
248.5000000000005969
 20
25.0217480207832388
 30
-0.0000000000000056
 11
250.0000000000007105
 21
25.0217480207832317
 31
-0.0000000000000056
210
0.0
220
1.0
230
-0.0000000000000002
  0
LINE
  5
4310
  8
0
  6
VERDECKT
 62
     1
 10
-248.5000000000005969
 20
23.5238037186514113
 30
-0.0000000000000052
 11
-250.0000000000005969
 21
23.5238037186514113
 31
-0.0000000000000052
210
0.0
220
1.0
230
-0.0000000000000002
  0
LINE
  5
4311
  8
0
  6
VERDECKT
 62
     1
 10
-250.0000000000005969
 20
25.0217480207832708
 30
-0.0000000000000056
 11
-248.5000000000005969
 21
25.0217480207832885
 31
-0.0000000000000056
210
0.0
220
1.0
230
-0.0000000000000002
  0
LINE
  5
4312
  8
0
  6
VERDECKT
 62
     1
 10
250.0000000000005969
 20
42.8159731433840278
 30
-0.0000000000000095
 11
248.5000000000005969
 21
42.815973143384042
 31
-0.0000000000000095
210
0.0
220
1.0
230
-0.0000000000000002
  0
LINE
  5
4313
  8
0
  6
VERDECKT
 62
     1
 10
248.5000000000005969
 20
41.318028841252243
 30
-0.0000000000000092
 11
250.0000000000005969
 21
41.318028841252243
 31
-0.0000000000000092
210
0.0
220
1.0
230
-0.0000000000000002
  0
LINE
  5
4314
  8
0
  6
VERDECKT
 62
     1
 10
-250.0000000000005116
 20
41.318028841252243
 30
-0.0000000000000092
 11
-248.5000000000005969
 21
41.318028841252243
 31
-0.0000000000000092
210
0.0
220
1.0
230
-0.0000000000000002
  0
LINE
  5
4315
  8
0
  6
VERDECKT
 62
     1
 10
-248.5000000000005116
 20
42.8159731433841202
 30
-0.0000000000000095
 11
-250.0000000000005969
 21
42.8159731433841131
 31
-0.0000000000000095
210
0.0
220
1.0
230
-0.0000000000000002
  0
LINE
  5
4316
  8
0
  6
VERDECKT
 62
     1
 10
250.0000000000005969
 20
35.5610736545284496
 30
-0.0000000000000079
 11
248.5000000000005969
 21
35.5610736545284496
 31
-0.0000000000000079
210
0.0
220
1.0
230
-0.0000000000000002
  0
LINE
  5
4317
  8
0
  6
VERDECKT
 62
     1
 10
248.5000000000005969
 20
37.0590179566602629
 30
-0.0000000000000082
 11
250.0000000000007105
 21
37.0590179566602629
 31
-0.0000000000000082
210
0.0
220
1.0
230
-0.0000000000000002
  0
LINE
  5
4318
  8
0
  6
VERDECKT
 62
     1
 10
-248.5000000000005969
 20
35.5610736545284496
 30
-0.0000000000000079
 11
-250.0000000000005116
 21
35.5610736545284496
 31
-0.0000000000000079
210
0.0
220
1.0
230
-0.0000000000000002
  0
LINE
  5
4319
  8
0
  6
VERDECKT
 62
     1
 10
-250.0000000000005969
 20
37.0590179566603268
 30
-0.0000000000000082
 11
-248.5000000000005969
 21
37.0590179566603268
 31
-0.0000000000000082
210
0.0
220
1.0
230
-0.0000000000000002
  0
LINE
  5
431A
  8
0
  6
VERDECKT
 62
     1
 10
250.0000000000005969
 20
48.8346081113225523
 30
-0.0000000000000108
 11
248.5000000000005969
 21
48.8346081113225523
 31
-0.0000000000000108
210
0.0
220
1.0
230
-0.0000000000000002
  0
LINE
  5
431B
  8
0
  6
VERDECKT
 62
     1
 10
248.5000000000005969
 20
47.3366638091907674
 30
-0.0000000000000105
 11
250.0000000000005969
 21
47.3366638091907674
 31
-0.0000000000000105
210
0.0
220
1.0
230
-0.0000000000000002
  0
LINE
  5
431C
  8
0
  6
VERDECKT
 62
     1
 10
-250.0000000000005116
 20
47.3366638091907674
 30
-0.0000000000000105
 11
-248.5000000000005969
 21
47.3366638091907674
 31
-0.0000000000000105
210
0.0
220
1.0
230
-0.0000000000000002
  0
LINE
  5
431D
  8
0
  6
VERDECKT
 62
     1
 10
-248.5000000000005116
 20
48.8346081113226589
 30
-0.0000000000000108
 11
-250.0000000000005116
 21
48.8346081113226589
 31
-0.0000000000000108
210
0.0
220
1.0
230
-0.0000000000000002
  0
LINE
  5
431E
  8
0
  6
VERDECKT
 62
     1
 10
250.0000000000005969
 20
41.5797086224669386
 30
-0.0000000000000092
 11
248.5000000000005969
 21
41.5797086224669386
 31
-0.0000000000000092
210
0.0
220
1.0
230
-0.0000000000000002
  0
LINE
  5
431F
  8
0
  6
VERDECKT
 62
     1
 10
248.5000000000005969
 20
43.0776529245987518
 30
-0.0000000000000096
 11
250.0000000000005969
 21
43.0776529245987376
 31
-0.0000000000000096
210
0.0
220
1.0
230
-0.0000000000000002
  0
LINE
  5
4320
  8
0
  6
VERDECKT
 62
     1
 10
-248.5000000000005969
 20
41.5797086224669386
 30
-0.0000000000000092
 11
-250.0000000000005116
 21
41.5797086224669386
 31
-0.0000000000000092
210
0.0
220
1.0
230
-0.0000000000000002
  0
LINE
  5
4321
  8
0
  6
VERDECKT
 62
     1
 10
-250.0000000000005116
 20
43.0776529245988584
 30
-0.0000000000000096
 11
-248.5000000000005116
 21
43.0776529245988584
 31
-0.0000000000000096
210
0.0
220
1.0
230
-0.0000000000000002
  0
LINE
  5
4322
  8
0
  6
VERDECKT
 62
     1
 10
248.5000000000005969
 20
23.2621239374366908
 30
-0.0000000000000052
 11
250.0000000000005969
 21
23.2621239374366908
 31
-0.0000000000000052
210
0.0
220
1.0
230
-0.0000000000000002
  0
LINE
  5
4323
  8
0
  6
VERDECKT
 62
     1
 10
250.0000000000007105
 20
22.0068159935355787
 30
-0.0000000000000049
 11
248.5000000000005969
 21
22.0068159935355787
 31
-0.0000000000000049
210
0.0
220
1.0
230
-0.0000000000000002
  0
LINE
  5
4324
  8
0
  6
VERDECKT
 62
     1
 10
-248.5000000000005969
 20
22.0068159935355787
 30
-0.0000000000000049
 11
-250.0000000000005969
 21
22.0068159935355787
 31
-0.0000000000000049
210
0.0
220
1.0
230
-0.0000000000000002
  0
LINE
  5
4325
  8
0
  6
VERDECKT
 62
     1
 10
-250.0000000000005969
 20
23.2621239374366908
 30
-0.0000000000000052
 11
-248.5000000000005969
 21
23.2621239374366908
 31
-0.0000000000000052
210
0.0
220
1.0
230
-0.0000000000000002
  0
LINE
  5
4326
  8
0
  6
VERDECKT
 62
     1
 10
250.0000000000007105
 20
24.7600682395684899
 30
-0.0000000000000055
 11
248.5000000000005969
 21
24.7600682395685112
 31
-0.0000000000000055
210
0.0
220
1.0
230
-0.0000000000000002
  0
LINE
  5
4327
  8
0
  6
VERDECKT
 62
     1
 10
-248.5000000000005969
 20
24.760068239568561
 30
-0.0000000000000055
 11
-250.0000000000005969
 21
24.7600682395685503
 31
-0.0000000000000055
210
0.0
220
1.0
230
-0.0000000000000002
  0
POLYLINE
  5
4328
  8
0
  6
VERDECKT
 62
     1
 10
-247.0
 20
-79.9368366332236491
 30
0.0000000000000178
 66
     1
 70
     8
  0
VERTEX
  8
0
  5
47F6
 10
-247.000
 20
-79.9368
 30
1.78000e-14
  70
    32
  0
VERTEX
  8
0
  5
47F7
 10
-247.018
 20
-79.9367
 30
1.78000e-14
  70
    32
  0
VERTEX
  8
0
  5
47F8
 10
-247.037
 20
-79.9364
 30
1.77999e-14
  70
    32
  0
VERTEX
  8
0
  5
47F9
 10
-247.055
 20
-79.9358
 30
1.77997e-14
  70
    32
  0
VERTEX
  8
0
  5
47FA
 10
-247.074
 20
-79.9349
 30
1.77995e-14
  70
    32
  0
VERTEX
  8
0
  5
47FB
 10
-247.092
 20
-79.9339
 30
1.77992e-14
  70
    32
  0
VERTEX
  8
0
  5
47FC
 10
-247.110
 20
-79.9326
 30
1.77989e-14
  70
    32
  0
VERTEX
  8
0
  5
47FD
 10
-247.129
 20
-79.9310
 30
1.77985e-14
  70
    32
  0
VERTEX
  8
0
  5
47FE
 10
-247.147
 20
-79.9292
 30
1.77981e-14
  70
    32
  0
VERTEX
  8
0
  5
47FF
 10
-247.165
 20
-79.9272
 30
1.77976e-14
  70
    32
  0
VERTEX
  8
0
  5
4800
 10
-247.184
 20
-79.9250
 30
1.77970e-14
  70
    32
  0
VERTEX
  8
0
  5
4801
 10
-247.202
 20
-79.9225
 30
1.77964e-14
  70
    32
  0
VERTEX
  8
0
  5
4802
 10
-247.220
 20
-79.9198
 30
1.77957e-14
  70
    32
  0
VERTEX
  8
0
  5
4803
 10
-247.238
 20
-79.9168
 30
1.77949e-14
  70
    32
  0
VERTEX
  8
0
  5
4804
 10
-247.256
 20
-79.9136
 30
1.77941e-14
  70
    32
  0
VERTEX
  8
0
  5
4805
 10
-247.275
 20
-79.9102
 30
1.77932e-14
  70
    32
  0
VERTEX
  8
0
  5
4806
 10
-247.293
 20
-79.9065
 30
1.77923e-14
  70
    32
  0
VERTEX
  8
0
  5
4807
 10
-247.311
 20
-79.9027
 30
1.77913e-14
  70
    32
  0
VERTEX
  8
0
  5
4808
 10
-247.329
 20
-79.8985
 30
1.77903e-14
  70
    32
  0
VERTEX
  8
0
  5
4809
 10
-247.347
 20
-79.8942
 30
1.77892e-14
  70
    32
  0
VERTEX
  8
0
  5
480A
 10
-247.364
 20
-79.8896
 30
1.77880e-14
  70
    32
  0
VERTEX
  8
0
  5
480B
 10
-247.382
 20
-79.8848
 30
1.77868e-14
  70
    32
  0
VERTEX
  8
0
  5
480C
 10
-247.400
 20
-79.8797
 30
1.77855e-14
  70
    32
  0
VERTEX
  8
0
  5
480D
 10
-247.418
 20
-79.8745
 30
1.77842e-14
  70
    32
  0
VERTEX
  8
0
  5
480E
 10
-247.435
 20
-79.8690
 30
1.77828e-14
  70
    32
  0
VERTEX
  8
0
  5
480F
 10
-247.453
 20
-79.8632
 30
1.77813e-14
  70
    32
  0
VERTEX
  8
0
  5
4810
 10
-247.471
 20
-79.8573
 30
1.77798e-14
  70
    32
  0
VERTEX
  8
0
  5
4811
 10
-247.488
 20
-79.8511
 30
1.77782e-14
  70
    32
  0
VERTEX
  8
0
  5
4812
 10
-247.505
 20
-79.8447
 30
1.77766e-14
  70
    32
  0
VERTEX
  8
0
  5
4813
 10
-247.523
 20
-79.8381
 30
1.77749e-14
  70
    32
  0
VERTEX
  8
0
  5
4814
 10
-247.540
 20
-79.8312
 30
1.77732e-14
  70
    32
  0
VERTEX
  8
0
  5
4815
 10
-247.557
 20
-79.8241
 30
1.77714e-14
  70
    32
  0
VERTEX
  8
0
  5
4816
 10
-247.574
 20
-79.8168
 30
1.77696e-14
  70
    32
  0
VERTEX
  8
0
  5
4817
 10
-247.591
 20
-79.8093
 30
1.77676e-14
  70
    32
  0
VERTEX
  8
0
  5
4818
 10
-247.608
 20
-79.8016
 30
1.77657e-14
  70
    32
  0
VERTEX
  8
0
  5
4819
 10
-247.625
 20
-79.7936
 30
1.77637e-14
  70
    32
  0
VERTEX
  8
0
  5
481A
 10
-247.641
 20
-79.7855
 30
1.77616e-14
  70
    32
  0
VERTEX
  8
0
  5
481B
 10
-247.658
 20
-79.7771
 30
1.77595e-14
  70
    32
  0
VERTEX
  8
0
  5
481C
 10
-247.674
 20
-79.7685
 30
1.77573e-14
  70
    32
  0
VERTEX
  8
0
  5
481D
 10
-247.691
 20
-79.7597
 30
1.77551e-14
  70
    32
  0
VERTEX
  8
0
  5
481E
 10
-247.707
 20
-79.7507
 30
1.77528e-14
  70
    32
  0
VERTEX
  8
0
  5
481F
 10
-247.723
 20
-79.7415
 30
1.77504e-14
  70
    32
  0
VERTEX
  8
0
  5
4820
 10
-247.739
 20
-79.7320
 30
1.77480e-14
  70
    32
  0
VERTEX
  8
0
  5
4821
 10
-247.755
 20
-79.7224
 30
1.77456e-14
  70
    32
  0
VERTEX
  8
0
  5
4822
 10
-247.771
 20
-79.7126
 30
1.77431e-14
  70
    32
  0
VERTEX
  8
0
  5
4823
 10
-247.787
 20
-79.7025
 30
1.77405e-14
  70
    32
  0
VERTEX
  8
0
  5
4824
 10
-247.802
 20
-79.6923
 30
1.77379e-14
  70
    32
  0
VERTEX
  8
0
  5
4825
 10
-247.818
 20
-79.6818
 30
1.77353e-14
  70
    32
  0
VERTEX
  8
0
  5
4826
 10
-247.833
 20
-79.6712
 30
1.77326e-14
  70
    32
  0
VERTEX
  8
0
  5
4827
 10
-247.849
 20
-79.6603
 30
1.77298e-14
  70
    32
  0
VERTEX
  8
0
  5
4828
 10
-247.864
 20
-79.6493
 30
1.77270e-14
  70
    32
  0
VERTEX
  8
0
  5
4829
 10
-247.879
 20
-79.6380
 30
1.77242e-14
  70
    32
  0
VERTEX
  8
0
  5
482A
 10
-247.894
 20
-79.6266
 30
1.77213e-14
  70
    32
  0
VERTEX
  8
0
  5
482B
 10
-247.908
 20
-79.6150
 30
1.77183e-14
  70
    32
  0
VERTEX
  8
0
  5
482C
 10
-247.923
 20
-79.6032
 30
1.77153e-14
  70
    32
  0
VERTEX
  8
0
  5
482D
 10
-247.937
 20
-79.5912
 30
1.77123e-14
  70
    32
  0
VERTEX
  8
0
  5
482E
 10
-247.952
 20
-79.5790
 30
1.77092e-14
  70
    32
  0
VERTEX
  8
0
  5
482F
 10
-247.966
 20
-79.5666
 30
1.77061e-14
  70
    32
  0
VERTEX
  8
0
  5
4830
 10
-247.980
 20
-79.5541
 30
1.77029e-14
  70
    32
  0
VERTEX
  8
0
  5
4831
 10
-247.994
 20
-79.5414
 30
1.76997e-14
  70
    32
  0
VERTEX
  8
0
  5
4832
 10
-248.007
 20
-79.5285
 30
1.76964e-14
  70
    32
  0
VERTEX
  8
0
  5
4833
 10
-248.021
 20
-79.5154
 30
1.76931e-14
  70
    32
  0
VERTEX
  8
0
  5
4834
 10
-248.034
 20
-79.5021
 30
1.76897e-14
  70
    32
  0
VERTEX
  8
0
  5
4835
 10
-248.048
 20
-79.4887
 30
1.76863e-14
  70
    32
  0
VERTEX
  8
0
  5
4836
 10
-248.061
 20
-79.4751
 30
1.76828e-14
  70
    32
  0
VERTEX
  8
0
  5
4837
 10
-248.074
 20
-79.4613
 30
1.76794e-14
  70
    32
  0
VERTEX
  8
0
  5
4838
 10
-248.086
 20
-79.4474
 30
1.76758e-14
  70
    32
  0
VERTEX
  8
0
  5
4839
 10
-248.099
 20
-79.4333
 30
1.76722e-14
  70
    32
  0
VERTEX
  8
0
  5
483A
 10
-248.111
 20
-79.4191
 30
1.76686e-14
  70
    32
  0
VERTEX
  8
0
  5
483B
 10
-248.124
 20
-79.4047
 30
1.76650e-14
  70
    32
  0
VERTEX
  8
0
  5
483C
 10
-248.136
 20
-79.3901
 30
1.76613e-14
  70
    32
  0
VERTEX
  8
0
  5
483D
 10
-248.148
 20
-79.3754
 30
1.76575e-14
  70
    32
  0
VERTEX
  8
0
  5
483E
 10
-248.160
 20
-79.3605
 30
1.76538e-14
  70
    32
  0
VERTEX
  8
0
  5
483F
 10
-248.171
 20
-79.3454
 30
1.76499e-14
  70
    32
  0
VERTEX
  8
0
  5
4840
 10
-248.183
 20
-79.3303
 30
1.76461e-14
  70
    32
  0
VERTEX
  8
0
  5
4841
 10
-248.194
 20
-79.3149
 30
1.76422e-14
  70
    32
  0
VERTEX
  8
0
  5
4842
 10
-248.205
 20
-79.2995
 30
1.76383e-14
  70
    32
  0
VERTEX
  8
0
  5
4843
 10
-248.216
 20
-79.2839
 30
1.76343e-14
  70
    32
  0
VERTEX
  8
0
  5
4844
 10
-248.226
 20
-79.2681
 30
1.76303e-14
  70
    32
  0
VERTEX
  8
0
  5
4845
 10
-248.237
 20
-79.2522
 30
1.76263e-14
  70
    32
  0
VERTEX
  8
0
  5
4846
 10
-248.247
 20
-79.2362
 30
1.76222e-14
  70
    32
  0
VERTEX
  8
0
  5
4847
 10
-248.257
 20
-79.2201
 30
1.76181e-14
  70
    32
  0
VERTEX
  8
0
  5
4848
 10
-248.267
 20
-79.2038
 30
1.76140e-14
  70
    32
  0
VERTEX
  8
0
  5
4849
 10
-248.277
 20
-79.1874
 30
1.76098e-14
  70
    32
  0
VERTEX
  8
0
  5
484A
 10
-248.287
 20
-79.1708
 30
1.76056e-14
  70
    32
  0
VERTEX
  8
0
  5
484B
 10
-248.296
 20
-79.1542
 30
1.76014e-14
  70
    32
  0
VERTEX
  8
0
  5
484C
 10
-248.305
 20
-79.1374
 30
1.75972e-14
  70
    32
  0
VERTEX
  8
0
  5
484D
 10
-248.314
 20
-79.1205
 30
1.75929e-14
  70
    32
  0
VERTEX
  8
0
  5
484E
 10
-248.323
 20
-79.1035
 30
1.75886e-14
  70
    32
  0
VERTEX
  8
0
  5
484F
 10
-248.331
 20
-79.0864
 30
1.75842e-14
  70
    32
  0
VERTEX
  8
0
  5
4850
 10
-248.340
 20
-79.0692
 30
1.75798e-14
  70
    32
  0
VERTEX
  8
0
  5
4851
 10
-248.348
 20
-79.0518
 30
1.75754e-14
  70
    32
  0
VERTEX
  8
0
  5
4852
 10
-248.356
 20
-79.0344
 30
1.75710e-14
  70
    32
  0
VERTEX
  8
0
  5
4853
 10
-248.364
 20
-79.0169
 30
1.75666e-14
  70
    32
  0
VERTEX
  8
0
  5
4854
 10
-248.371
 20
-78.9992
 30
1.75621e-14
  70
    32
  0
VERTEX
  8
0
  5
4855
 10
-248.379
 20
-78.9815
 30
1.75576e-14
  70
    32
  0
VERTEX
  8
0
  5
4856
 10
-248.386
 20
-78.9637
 30
1.75531e-14
  70
    32
  0
VERTEX
  8
0
  5
4857
 10
-248.393
 20
-78.9458
 30
1.75485e-14
  70
    32
  0
VERTEX
  8
0
  5
4858
 10
-248.399
 20
-78.9277
 30
1.75440e-14
  70
    32
  0
VERTEX
  8
0
  5
4859
 10
-248.406
 20
-78.9097
 30
1.75394e-14
  70
    32
  0
VERTEX
  8
0
  5
485A
 10
-248.412
 20
-78.8915
 30
1.75348e-14
  70
    32
  0
VERTEX
  8
0
  5
485B
 10
-248.418
 20
-78.8732
 30
1.75301e-14
  70
    32
  0
VERTEX
  8
0
  5
485C
 10
-248.424
 20
-78.8549
 30
1.75255e-14
  70
    32
  0
VERTEX
  8
0
  5
485D
 10
-248.430
 20
-78.8365
 30
1.75208e-14
  70
    32
  0
VERTEX
  8
0
  5
485E
 10
-248.435
 20
-78.8180
 30
1.75161e-14
  70
    32
  0
VERTEX
  8
0
  5
485F
 10
-248.441
 20
-78.7995
 30
1.75114e-14
  70
    32
  0
VERTEX
  8
0
  5
4860
 10
-248.446
 20
-78.7808
 30
1.75067e-14
  70
    32
  0
VERTEX
  8
0
  5
4861
 10
-248.450
 20
-78.7622
 30
1.75019e-14
  70
    32
  0
VERTEX
  8
0
  5
4862
 10
-248.455
 20
-78.7434
 30
1.74972e-14
  70
    32
  0
VERTEX
  8
0
  5
4863
 10
-248.459
 20
-78.7246
 30
1.74924e-14
  70
    32
  0
VERTEX
  8
0
  5
4864
 10
-248.464
 20
-78.7058
 30
1.74876e-14
  70
    32
  0
VERTEX
  8
0
  5
4865
 10
-248.467
 20
-78.6869
 30
1.74828e-14
  70
    32
  0
VERTEX
  8
0
  5
4866
 10
-248.471
 20
-78.6679
 30
1.74780e-14
  70
    32
  0
VERTEX
  8
0
  5
4867
 10
-248.475
 20
-78.6489
 30
1.74732e-14
  70
    32
  0
VERTEX
  8
0
  5
4868
 10
-248.478
 20
-78.6299
 30
1.74684e-14
  70
    32
  0
VERTEX
  8
0
  5
4869
 10
-248.481
 20
-78.6108
 30
1.74635e-14
  70
    32
  0
VERTEX
  8
0
  5
486A
 10
-248.484
 20
-78.5917
 30
1.74587e-14
  70
    32
  0
VERTEX
  8
0
  5
486B
 10
-248.486
 20
-78.5725
 30
1.74538e-14
  70
    32
  0
VERTEX
  8
0
  5
486C
 10
-248.489
 20
-78.5534
 30
1.74490e-14
  70
    32
  0
VERTEX
  8
0
  5
486D
 10
-248.491
 20
-78.5341
 30
1.74441e-14
  70
    32
  0
VERTEX
  8
0
  5
486E
 10
-248.493
 20
-78.5149
 30
1.74392e-14
  70
    32
  0
VERTEX
  8
0
  5
486F
 10
-248.494
 20
-78.4956
 30
1.74343e-14
  70
    32
  0
VERTEX
  8
0
  5
4870
 10
-248.496
 20
-78.4764
 30
1.74294e-14
  70
    32
  0
VERTEX
  8
0
  5
4871
 10
-248.497
 20
-78.4571
 30
1.74245e-14
  70
    32
  0
VERTEX
  8
0
  5
4872
 10
-248.498
 20
-78.4377
 30
1.74196e-14
  70
    32
  0
VERTEX
  8
0
  5
4873
 10
-248.499
 20
-78.4184
 30
1.74147e-14
  70
    32
  0
VERTEX
  8
0
  5
4874
 10
-248.500
 20
-78.3991
 30
1.74098e-14
  70
    32
  0
VERTEX
  8
0
  5
4875
 10
-248.500
 20
-78.3797
 30
1.74049e-14
  70
    32
  0
VERTEX
  8
0
  5
4876
 10
-248.500
 20
-78.3604
 30
1.74000e-14
  70
    32
  0
SEQEND
  8
0
  5
4877
  0
LINE
  5
4329
  8
0
  6
VERDECKT
 62
     1
 10
247.0000000000001137
 20
-79.9368366332236775
 30
0.0000000000000177
 11
-247.0
 21
-79.9368366332236775
 31
0.0000000000000177
210
0.0
220
1.0
230
-0.0000000000000002
  0
POLYLINE
  5
432A
  8
0
  6
VERDECKT
 62
     1
 10
248.5000000000001137
 20
-78.3603883967274157
 30
0.0000000000000174
 66
     1
 70
     8
  0
VERTEX
  8
0
  5
4878
 10
248.500
 20
-78.3604
 30
1.74000e-14
  70
    32
  0
VERTEX
  8
0
  5
4879
 10
248.500
 20
-78.3797
 30
1.74049e-14
  70
    32
  0
VERTEX
  8
0
  5
487A
 10
248.500
 20
-78.3991
 30
1.74098e-14
  70
    32
  0
VERTEX
  8
0
  5
487B
 10
248.499
 20
-78.4184
 30
1.74147e-14
  70
    32
  0
VERTEX
  8
0
  5
487C
 10
248.498
 20
-78.4377
 30
1.74196e-14
  70
    32
  0
VERTEX
  8
0
  5
487D
 10
248.497
 20
-78.4571
 30
1.74245e-14
  70
    32
  0
VERTEX
  8
0
  5
487E
 10
248.496
 20
-78.4764
 30
1.74294e-14
  70
    32
  0
VERTEX
  8
0
  5
487F
 10
248.494
 20
-78.4956
 30
1.74343e-14
  70
    32
  0
VERTEX
  8
0
  5
4880
 10
248.493
 20
-78.5149
 30
1.74392e-14
  70
    32
  0
VERTEX
  8
0
  5
4881
 10
248.491
 20
-78.5341
 30
1.74441e-14
  70
    32
  0
VERTEX
  8
0
  5
4882
 10
248.489
 20
-78.5534
 30
1.74490e-14
  70
    32
  0
VERTEX
  8
0
  5
4883
 10
248.486
 20
-78.5725
 30
1.74538e-14
  70
    32
  0
VERTEX
  8
0
  5
4884
 10
248.484
 20
-78.5917
 30
1.74587e-14
  70
    32
  0
VERTEX
  8
0
  5
4885
 10
248.481
 20
-78.6108
 30
1.74635e-14
  70
    32
  0
VERTEX
  8
0
  5
4886
 10
248.478
 20
-78.6299
 30
1.74684e-14
  70
    32
  0
VERTEX
  8
0
  5
4887
 10
248.475
 20
-78.6489
 30
1.74732e-14
  70
    32
  0
VERTEX
  8
0
  5
4888
 10
248.471
 20
-78.6679
 30
1.74780e-14
  70
    32
  0
VERTEX
  8
0
  5
4889
 10
248.467
 20
-78.6869
 30
1.74828e-14
  70
    32
  0
VERTEX
  8
0
  5
488A
 10
248.464
 20
-78.7058
 30
1.74876e-14
  70
    32
  0
VERTEX
  8
0
  5
488B
 10
248.459
 20
-78.7246
 30
1.74924e-14
  70
    32
  0
VERTEX
  8
0
  5
488C
 10
248.455
 20
-78.7434
 30
1.74972e-14
  70
    32
  0
VERTEX
  8
0
  5
488D
 10
248.450
 20
-78.7622
 30
1.75019e-14
  70
    32
  0
VERTEX
  8
0
  5
488E
 10
248.446
 20
-78.7808
 30
1.75067e-14
  70
    32
  0
VERTEX
  8
0
  5
488F
 10
248.441
 20
-78.7995
 30
1.75114e-14
  70
    32
  0
VERTEX
  8
0
  5
4890
 10
248.435
 20
-78.8180
 30
1.75161e-14
  70
    32
  0
VERTEX
  8
0
  5
4891
 10
248.430
 20
-78.8365
 30
1.75208e-14
  70
    32
  0
VERTEX
  8
0
  5
4892
 10
248.424
 20
-78.8549
 30
1.75255e-14
  70
    32
  0
VERTEX
  8
0
  5
4893
 10
248.418
 20
-78.8732
 30
1.75301e-14
  70
    32
  0
VERTEX
  8
0
  5
4894
 10
248.412
 20
-78.8915
 30
1.75348e-14
  70
    32
  0
VERTEX
  8
0
  5
4895
 10
248.406
 20
-78.9097
 30
1.75394e-14
  70
    32
  0
VERTEX
  8
0
  5
4896
 10
248.399
 20
-78.9277
 30
1.75440e-14
  70
    32
  0
VERTEX
  8
0
  5
4897
 10
248.393
 20
-78.9458
 30
1.75485e-14
  70
    32
  0
VERTEX
  8
0
  5
4898
 10
248.386
 20
-78.9637
 30
1.75531e-14
  70
    32
  0
VERTEX
  8
0
  5
4899
 10
248.379
 20
-78.9815
 30
1.75576e-14
  70
    32
  0
VERTEX
  8
0
  5
489A
 10
248.371
 20
-78.9992
 30
1.75621e-14
  70
    32
  0
VERTEX
  8
0
  5
489B
 10
248.364
 20
-79.0169
 30
1.75666e-14
  70
    32
  0
VERTEX
  8
0
  5
489C
 10
248.356
 20
-79.0344
 30
1.75710e-14
  70
    32
  0
VERTEX
  8
0
  5
489D
 10
248.348
 20
-79.0518
 30
1.75754e-14
  70
    32
  0
VERTEX
  8
0
  5
489E
 10
248.340
 20
-79.0692
 30
1.75798e-14
  70
    32
  0
VERTEX
  8
0
  5
489F
 10
248.331
 20
-79.0864
 30
1.75842e-14
  70
    32
  0
VERTEX
  8
0
  5
48A0
 10
248.323
 20
-79.1035
 30
1.75886e-14
  70
    32
  0
VERTEX
  8
0
  5
48A1
 10
248.314
 20
-79.1205
 30
1.75929e-14
  70
    32
  0
VERTEX
  8
0
  5
48A2
 10
248.305
 20
-79.1374
 30
1.75972e-14
  70
    32
  0
VERTEX
  8
0
  5
48A3
 10
248.296
 20
-79.1542
 30
1.76014e-14
  70
    32
  0
VERTEX
  8
0
  5
48A4
 10
248.287
 20
-79.1708
 30
1.76056e-14
  70
    32
  0
VERTEX
  8
0
  5
48A5
 10
248.277
 20
-79.1874
 30
1.76098e-14
  70
    32
  0
VERTEX
  8
0
  5
48A6
 10
248.267
 20
-79.2038
 30
1.76140e-14
  70
    32
  0
VERTEX
  8
0
  5
48A7
 10
248.257
 20
-79.2201
 30
1.76181e-14
  70
    32
  0
VERTEX
  8
0
  5
48A8
 10
248.247
 20
-79.2362
 30
1.76222e-14
  70
    32
  0
VERTEX
  8
0
  5
48A9
 10
248.237
 20
-79.2522
 30
1.76263e-14
  70
    32
  0
VERTEX
  8
0
  5
48AA
 10
248.226
 20
-79.2681
 30
1.76303e-14
  70
    32
  0
VERTEX
  8
0
  5
48AB
 10
248.216
 20
-79.2839
 30
1.76343e-14
  70
    32
  0
VERTEX
  8
0
  5
48AC
 10
248.205
 20
-79.2995
 30
1.76383e-14
  70
    32
  0
VERTEX
  8
0
  5
48AD
 10
248.194
 20
-79.3149
 30
1.76422e-14
  70
    32
  0
VERTEX
  8
0
  5
48AE
 10
248.183
 20
-79.3303
 30
1.76461e-14
  70
    32
  0
VERTEX
  8
0
  5
48AF
 10
248.171
 20
-79.3454
 30
1.76499e-14
  70
    32
  0
VERTEX
  8
0
  5
48B0
 10
248.160
 20
-79.3605
 30
1.76538e-14
  70
    32
  0
VERTEX
  8
0
  5
48B1
 10
248.148
 20
-79.3754
 30
1.76575e-14
  70
    32
  0
VERTEX
  8
0
  5
48B2
 10
248.136
 20
-79.3901
 30
1.76613e-14
  70
    32
  0
VERTEX
  8
0
  5
48B3
 10
248.124
 20
-79.4047
 30
1.76650e-14
  70
    32
  0
VERTEX
  8
0
  5
48B4
 10
248.111
 20
-79.4191
 30
1.76686e-14
  70
    32
  0
VERTEX
  8
0
  5
48B5
 10
248.099
 20
-79.4333
 30
1.76722e-14
  70
    32
  0
VERTEX
  8
0
  5
48B6
 10
248.086
 20
-79.4474
 30
1.76758e-14
  70
    32
  0
VERTEX
  8
0
  5
48B7
 10
248.074
 20
-79.4613
 30
1.76794e-14
  70
    32
  0
VERTEX
  8
0
  5
48B8
 10
248.061
 20
-79.4751
 30
1.76828e-14
  70
    32
  0
VERTEX
  8
0
  5
48B9
 10
248.048
 20
-79.4887
 30
1.76863e-14
  70
    32
  0
VERTEX
  8
0
  5
48BA
 10
248.034
 20
-79.5021
 30
1.76897e-14
  70
    32
  0
VERTEX
  8
0
  5
48BB
 10
248.021
 20
-79.5154
 30
1.76931e-14
  70
    32
  0
VERTEX
  8
0
  5
48BC
 10
248.007
 20
-79.5285
 30
1.76964e-14
  70
    32
  0
VERTEX
  8
0
  5
48BD
 10
247.994
 20
-79.5414
 30
1.76997e-14
  70
    32
  0
VERTEX
  8
0
  5
48BE
 10
247.980
 20
-79.5541
 30
1.77029e-14
  70
    32
  0
VERTEX
  8
0
  5
48BF
 10
247.966
 20
-79.5666
 30
1.77061e-14
  70
    32
  0
VERTEX
  8
0
  5
48C0
 10
247.952
 20
-79.5790
 30
1.77092e-14
  70
    32
  0
VERTEX
  8
0
  5
48C1
 10
247.937
 20
-79.5912
 30
1.77123e-14
  70
    32
  0
VERTEX
  8
0
  5
48C2
 10
247.923
 20
-79.6032
 30
1.77153e-14
  70
    32
  0
VERTEX
  8
0
  5
48C3
 10
247.908
 20
-79.6150
 30
1.77183e-14
  70
    32
  0
VERTEX
  8
0
  5
48C4
 10
247.894
 20
-79.6266
 30
1.77213e-14
  70
    32
  0
VERTEX
  8
0
  5
48C5
 10
247.879
 20
-79.6380
 30
1.77242e-14
  70
    32
  0
VERTEX
  8
0
  5
48C6
 10
247.864
 20
-79.6493
 30
1.77270e-14
  70
    32
  0
VERTEX
  8
0
  5
48C7
 10
247.849
 20
-79.6603
 30
1.77298e-14
  70
    32
  0
VERTEX
  8
0
  5
48C8
 10
247.833
 20
-79.6712
 30
1.77326e-14
  70
    32
  0
VERTEX
  8
0
  5
48C9
 10
247.818
 20
-79.6818
 30
1.77353e-14
  70
    32
  0
VERTEX
  8
0
  5
48CA
 10
247.802
 20
-79.6923
 30
1.77379e-14
  70
    32
  0
VERTEX
  8
0
  5
48CB
 10
247.787
 20
-79.7025
 30
1.77405e-14
  70
    32
  0
VERTEX
  8
0
  5
48CC
 10
247.771
 20
-79.7126
 30
1.77431e-14
  70
    32
  0
VERTEX
  8
0
  5
48CD
 10
247.755
 20
-79.7224
 30
1.77456e-14
  70
    32
  0
VERTEX
  8
0
  5
48CE
 10
247.739
 20
-79.7320
 30
1.77480e-14
  70
    32
  0
VERTEX
  8
0
  5
48CF
 10
247.723
 20
-79.7415
 30
1.77504e-14
  70
    32
  0
VERTEX
  8
0
  5
48D0
 10
247.707
 20
-79.7507
 30
1.77528e-14
  70
    32
  0
VERTEX
  8
0
  5
48D1
 10
247.691
 20
-79.7597
 30
1.77551e-14
  70
    32
  0
VERTEX
  8
0
  5
48D2
 10
247.674
 20
-79.7685
 30
1.77573e-14
  70
    32
  0
VERTEX
  8
0
  5
48D3
 10
247.658
 20
-79.7771
 30
1.77595e-14
  70
    32
  0
VERTEX
  8
0
  5
48D4
 10
247.641
 20
-79.7855
 30
1.77616e-14
  70
    32
  0
VERTEX
  8
0
  5
48D5
 10
247.625
 20
-79.7936
 30
1.77637e-14
  70
    32
  0
VERTEX
  8
0
  5
48D6
 10
247.608
 20
-79.8016
 30
1.77657e-14
  70
    32
  0
VERTEX
  8
0
  5
48D7
 10
247.591
 20
-79.8093
 30
1.77676e-14
  70
    32
  0
VERTEX
  8
0
  5
48D8
 10
247.574
 20
-79.8168
 30
1.77696e-14
  70
    32
  0
VERTEX
  8
0
  5
48D9
 10
247.557
 20
-79.8241
 30
1.77714e-14
  70
    32
  0
VERTEX
  8
0
  5
48DA
 10
247.540
 20
-79.8312
 30
1.77732e-14
  70
    32
  0
VERTEX
  8
0
  5
48DB
 10
247.523
 20
-79.8381
 30
1.77749e-14
  70
    32
  0
VERTEX
  8
0
  5
48DC
 10
247.505
 20
-79.8447
 30
1.77766e-14
  70
    32
  0
VERTEX
  8
0
  5
48DD
 10
247.488
 20
-79.8511
 30
1.77782e-14
  70
    32
  0
VERTEX
  8
0
  5
48DE
 10
247.471
 20
-79.8573
 30
1.77798e-14
  70
    32
  0
VERTEX
  8
0
  5
48DF
 10
247.453
 20
-79.8632
 30
1.77813e-14
  70
    32
  0
VERTEX
  8
0
  5
48E0
 10
247.435
 20
-79.8690
 30
1.77828e-14
  70
    32
  0
VERTEX
  8
0
  5
48E1
 10
247.418
 20
-79.8745
 30
1.77842e-14
  70
    32
  0
VERTEX
  8
0
  5
48E2
 10
247.400
 20
-79.8797
 30
1.77855e-14
  70
    32
  0
VERTEX
  8
0
  5
48E3
 10
247.382
 20
-79.8848
 30
1.77868e-14
  70
    32
  0
VERTEX
  8
0
  5
48E4
 10
247.364
 20
-79.8896
 30
1.77880e-14
  70
    32
  0
VERTEX
  8
0
  5
48E5
 10
247.347
 20
-79.8942
 30
1.77892e-14
  70
    32
  0
VERTEX
  8
0
  5
48E6
 10
247.329
 20
-79.8985
 30
1.77903e-14
  70
    32
  0
VERTEX
  8
0
  5
48E7
 10
247.311
 20
-79.9027
 30
1.77913e-14
  70
    32
  0
VERTEX
  8
0
  5
48E8
 10
247.293
 20
-79.9065
 30
1.77923e-14
  70
    32
  0
VERTEX
  8
0
  5
48E9
 10
247.275
 20
-79.9102
 30
1.77932e-14
  70
    32
  0
VERTEX
  8
0
  5
48EA
 10
247.256
 20
-79.9136
 30
1.77941e-14
  70
    32
  0
VERTEX
  8
0
  5
48EB
 10
247.238
 20
-79.9168
 30
1.77949e-14
  70
    32
  0
VERTEX
  8
0
  5
48EC
 10
247.220
 20
-79.9198
 30
1.77957e-14
  70
    32
  0
VERTEX
  8
0
  5
48ED
 10
247.202
 20
-79.9225
 30
1.77964e-14
  70
    32
  0
VERTEX
  8
0
  5
48EE
 10
247.184
 20
-79.9250
 30
1.77970e-14
  70
    32
  0
VERTEX
  8
0
  5
48EF
 10
247.165
 20
-79.9272
 30
1.77976e-14
  70
    32
  0
VERTEX
  8
0
  5
48F0
 10
247.147
 20
-79.9292
 30
1.77981e-14
  70
    32
  0
VERTEX
  8
0
  5
48F1
 10
247.129
 20
-79.9310
 30
1.77985e-14
  70
    32
  0
VERTEX
  8
0
  5
48F2
 10
247.110
 20
-79.9326
 30
1.77989e-14
  70
    32
  0
VERTEX
  8
0
  5
48F3
 10
247.092
 20
-79.9339
 30
1.77992e-14
  70
    32
  0
VERTEX
  8
0
  5
48F4
 10
247.074
 20
-79.9349
 30
1.77995e-14
  70
    32
  0
VERTEX
  8
0
  5
48F5
 10
247.055
 20
-79.9358
 30
1.77997e-14
  70
    32
  0
VERTEX
  8
0
  5
48F6
 10
247.037
 20
-79.9364
 30
1.77999e-14
  70
    32
  0
VERTEX
  8
0
  5
48F7
 10
247.018
 20
-79.9367
 30
1.78000e-14
  70
    32
  0
VERTEX
  8
0
  5
48F8
 10
247.000
 20
-79.9368
 30
1.78000e-14
  70
    32
  0
SEQEND
  8
0
  5
48F9
  0
POLYLINE
  5
432B
  8
0
  6
VERDECKT
 62
     1
 10
247.0000000000001137
 20
-81.5132848697199108
 30
0.0000000000000181
 66
     1
 70
     8
  0
VERTEX
  8
0
  5
48FA
 10
247.000
 20
-81.5133
 30
1.81000e-14
  70
    32
  0
VERTEX
  8
0
  5
48FB
 10
247.037
 20
-81.5130
 30
1.80999e-14
  70
    32
  0
VERTEX
  8
0
  5
48FC
 10
247.074
 20
-81.5123
 30
1.80998e-14
  70
    32
  0
VERTEX
  8
0
  5
48FD
 10
247.110
 20
-81.5111
 30
1.80995e-14
  70
    32
  0
VERTEX
  8
0
  5
48FE
 10
247.147
 20
-81.5095
 30
1.80992e-14
  70
    32
  0
VERTEX
  8
0
  5
48FF
 10
247.184
 20
-81.5074
 30
1.80987e-14
  70
    32
  0
VERTEX
  8
0
  5
4900
 10
247.221
 20
-81.5047
 30
1.80981e-14
  70
    32
  0
VERTEX
  8
0
  5
4901
 10
247.257
 20
-81.5017
 30
1.80974e-14
  70
    32
  0
VERTEX
  8
0
  5
4902
 10
247.294
 20
-81.4981
 30
1.80966e-14
  70
    32
  0
VERTEX
  8
0
  5
4903
 10
247.331
 20
-81.4941
 30
1.80957e-14
  70
    32
  0
VERTEX
  8
0
  5
4904
 10
247.367
 20
-81.4896
 30
1.80947e-14
  70
    32
  0
VERTEX
  8
0
  5
4905
 10
247.404
 20
-81.4846
 30
1.80936e-14
  70
    32
  0
VERTEX
  8
0
  5
4906
 10
247.440
 20
-81.4792
 30
1.80924e-14
  70
    32
  0
VERTEX
  8
0
  5
4907
 10
247.477
 20
-81.4732
 30
1.80911e-14
  70
    32
  0
VERTEX
  8
0
  5
4908
 10
247.513
 20
-81.4669
 30
1.80897e-14
  70
    32
  0
VERTEX
  8
0
  5
4909
 10
247.549
 20
-81.4600
 30
1.80882e-14
  70
    32
  0
VERTEX
  8
0
  5
490A
 10
247.585
 20
-81.4527
 30
1.80865e-14
  70
    32
  0
VERTEX
  8
0
  5
490B
 10
247.621
 20
-81.4449
 30
1.80848e-14
  70
    32
  0
VERTEX
  8
0
  5
490C
 10
247.657
 20
-81.4367
 30
1.80830e-14
  70
    32
  0
VERTEX
  8
0
  5
490D
 10
247.693
 20
-81.4280
 30
1.80811e-14
  70
    32
  0
VERTEX
  8
0
  5
490E
 10
247.729
 20
-81.4188
 30
1.80790e-14
  70
    32
  0
VERTEX
  8
0
  5
490F
 10
247.765
 20
-81.4092
 30
1.80769e-14
  70
    32
  0
VERTEX
  8
0
  5
4910
 10
247.800
 20
-81.3991
 30
1.80746e-14
  70
    32
  0
VERTEX
  8
0
  5
4911
 10
247.836
 20
-81.3885
 30
1.80723e-14
  70
    32
  0
VERTEX
  8
0
  5
4912
 10
247.871
 20
-81.3775
 30
1.80699e-14
  70
    32
  0
VERTEX
  8
0
  5
4913
 10
247.906
 20
-81.3661
 30
1.80673e-14
  70
    32
  0
VERTEX
  8
0
  5
4914
 10
247.941
 20
-81.3542
 30
1.80647e-14
  70
    32
  0
VERTEX
  8
0
  5
4915
 10
247.976
 20
-81.3418
 30
1.80619e-14
  70
    32
  0
VERTEX
  8
0
  5
4916
 10
248.011
 20
-81.3290
 30
1.80591e-14
  70
    32
  0
VERTEX
  8
0
  5
4917
 10
248.045
 20
-81.3157
 30
1.80561e-14
  70
    32
  0
VERTEX
  8
0
  5
4918
 10
248.080
 20
-81.3020
 30
1.80531e-14
  70
    32
  0
VERTEX
  8
0
  5
4919
 10
248.114
 20
-81.2879
 30
1.80500e-14
  70
    32
  0
VERTEX
  8
0
  5
491A
 10
248.148
 20
-81.2733
 30
1.80467e-14
  70
    32
  0
VERTEX
  8
0
  5
491B
 10
248.182
 20
-81.2583
 30
1.80434e-14
  70
    32
  0
VERTEX
  8
0
  5
491C
 10
248.216
 20
-81.2428
 30
1.80399e-14
  70
    32
  0
VERTEX
  8
0
  5
491D
 10
248.249
 20
-81.2269
 30
1.80364e-14
  70
    32
  0
VERTEX
  8
0
  5
491E
 10
248.283
 20
-81.2106
 30
1.80328e-14
  70
    32
  0
VERTEX
  8
0
  5
491F
 10
248.316
 20
-81.1938
 30
1.80291e-14
  70
    32
  0
VERTEX
  8
0
  5
4920
 10
248.349
 20
-81.1766
 30
1.80253e-14
  70
    32
  0
VERTEX
  8
0
  5
4921
 10
248.382
 20
-81.1590
 30
1.80213e-14
  70
    32
  0
VERTEX
  8
0
  5
4922
 10
248.414
 20
-81.1410
 30
1.80173e-14
  70
    32
  0
VERTEX
  8
0
  5
4923
 10
248.447
 20
-81.1225
 30
1.80132e-14
  70
    32
  0
VERTEX
  8
0
  5
4924
 10
248.479
 20
-81.1037
 30
1.80091e-14
  70
    32
  0
VERTEX
  8
0
  5
4925
 10
248.511
 20
-81.0844
 30
1.80048e-14
  70
    32
  0
VERTEX
  8
0
  5
4926
 10
248.542
 20
-81.0647
 30
1.80004e-14
  70
    32
  0
VERTEX
  8
0
  5
4927
 10
248.574
 20
-81.0446
 30
1.79959e-14
  70
    32
  0
VERTEX
  8
0
  5
4928
 10
248.605
 20
-81.0241
 30
1.79914e-14
  70
    32
  0
VERTEX
  8
0
  5
4929
 10
248.636
 20
-81.0032
 30
1.79868e-14
  70
    32
  0
VERTEX
  8
0
  5
492A
 10
248.667
 20
-80.9819
 30
1.79820e-14
  70
    32
  0
VERTEX
  8
0
  5
492B
 10
248.697
 20
-80.9602
 30
1.79772e-14
  70
    32
  0
VERTEX
  8
0
  5
492C
 10
248.727
 20
-80.9381
 30
1.79723e-14
  70
    32
  0
VERTEX
  8
0
  5
492D
 10
248.757
 20
-80.9157
 30
1.79673e-14
  70
    32
  0
VERTEX
  8
0
  5
492E
 10
248.787
 20
-80.8928
 30
1.79622e-14
  70
    32
  0
VERTEX
  8
0
  5
492F
 10
248.817
 20
-80.8696
 30
1.79571e-14
  70
    32
  0
VERTEX
  8
0
  5
4930
 10
248.846
 20
-80.8460
 30
1.79518e-14
  70
    32
  0
VERTEX
  8
0
  5
4931
 10
248.875
 20
-80.8220
 30
1.79465e-14
  70
    32
  0
VERTEX
  8
0
  5
4932
 10
248.903
 20
-80.7976
 30
1.79411e-14
  70
    32
  0
VERTEX
  8
0
  5
4933
 10
248.931
 20
-80.7729
 30
1.79356e-14
  70
    32
  0
VERTEX
  8
0
  5
4934
 10
248.960
 20
-80.7478
 30
1.79300e-14
  70
    32
  0
VERTEX
  8
0
  5
4935
 10
248.987
 20
-80.7223
 30
1.79244e-14
  70
    32
  0
VERTEX
  8
0
  5
4936
 10
249.015
 20
-80.6965
 30
1.79187e-14
  70
    32
  0
VERTEX
  8
0
  5
4937
 10
249.042
 20
-80.6704
 30
1.79129e-14
  70
    32
  0
VERTEX
  8
0
  5
4938
 10
249.069
 20
-80.6439
 30
1.79070e-14
  70
    32
  0
VERTEX
  8
0
  5
4939
 10
249.095
 20
-80.6170
 30
1.79010e-14
  70
    32
  0
VERTEX
  8
0
  5
493A
 10
249.121
 20
-80.5898
 30
1.78950e-14
  70
    32
  0
VERTEX
  8
0
  5
493B
 10
249.147
 20
-80.5623
 30
1.78889e-14
  70
    32
  0
VERTEX
  8
0
  5
493C
 10
249.173
 20
-80.5344
 30
1.78827e-14
  70
    32
  0
VERTEX
  8
0
  5
493D
 10
249.198
 20
-80.5063
 30
1.78764e-14
  70
    32
  0
VERTEX
  8
0
  5
493E
 10
249.223
 20
-80.4777
 30
1.78701e-14
  70
    32
  0
VERTEX
  8
0
  5
493F
 10
249.247
 20
-80.4489
 30
1.78637e-14
  70
    32
  0
VERTEX
  8
0
  5
4940
 10
249.272
 20
-80.4198
 30
1.78572e-14
  70
    32
  0
VERTEX
  8
0
  5
4941
 10
249.296
 20
-80.3903
 30
1.78507e-14
  70
    32
  0
VERTEX
  8
0
  5
4942
 10
249.319
 20
-80.3606
 30
1.78441e-14
  70
    32
  0
VERTEX
  8
0
  5
4943
 10
249.342
 20
-80.3305
 30
1.78374e-14
  70
    32
  0
VERTEX
  8
0
  5
4944
 10
249.365
 20
-80.3001
 30
1.78307e-14
  70
    32
  0
VERTEX
  8
0
  5
4945
 10
249.388
 20
-80.2695
 30
1.78239e-14
  70
    32
  0
VERTEX
  8
0
  5
4946
 10
249.410
 20
-80.2386
 30
1.78170e-14
  70
    32
  0
VERTEX
  8
0
  5
4947
 10
249.431
 20
-80.2073
 30
1.78101e-14
  70
    32
  0
VERTEX
  8
0
  5
4948
 10
249.453
 20
-80.1759
 30
1.78031e-14
  70
    32
  0
VERTEX
  8
0
  5
4949
 10
249.474
 20
-80.1441
 30
1.77960e-14
  70
    32
  0
VERTEX
  8
0
  5
494A
 10
249.494
 20
-80.1120
 30
1.77889e-14
  70
    32
  0
VERTEX
  8
0
  5
494B
 10
249.515
 20
-80.0797
 30
1.77817e-14
  70
    32
  0
VERTEX
  8
0
  5
494C
 10
249.535
 20
-80.0472
 30
1.77745e-14
  70
    32
  0
VERTEX
  8
0
  5
494D
 10
249.554
 20
-80.0144
 30
1.77672e-14
  70
    32
  0
VERTEX
  8
0
  5
494E
 10
249.573
 20
-79.9813
 30
1.77599e-14
  70
    32
  0
VERTEX
  8
0
  5
494F
 10
249.592
 20
-79.9480
 30
1.77525e-14
  70
    32
  0
VERTEX
  8
0
  5
4950
 10
249.610
 20
-79.9144
 30
1.77450e-14
  70
    32
  0
VERTEX
  8
0
  5
4951
 10
249.628
 20
-79.8807
 30
1.77375e-14
  70
    32
  0
VERTEX
  8
0
  5
4952
 10
249.646
 20
-79.8467
 30
1.77300e-14
  70
    32
  0
VERTEX
  8
0
  5
4953
 10
249.663
 20
-79.8124
 30
1.77224e-14
  70
    32
  0
VERTEX
  8
0
  5
4954
 10
249.680
 20
-79.7780
 30
1.77147e-14
  70
    32
  0
VERTEX
  8
0
  5
4955
 10
249.696
 20
-79.7433
 30
1.77070e-14
  70
    32
  0
VERTEX
  8
0
  5
4956
 10
249.712
 20
-79.7084
 30
1.76993e-14
  70
    32
  0
VERTEX
  8
0
  5
4957
 10
249.728
 20
-79.6733
 30
1.76915e-14
  70
    32
  0
VERTEX
  8
0
  5
4958
 10
249.743
 20
-79.6381
 30
1.76837e-14
  70
    32
  0
VERTEX
  8
0
  5
4959
 10
249.757
 20
-79.6026
 30
1.76758e-14
  70
    32
  0
VERTEX
  8
0
  5
495A
 10
249.772
 20
-79.5669
 30
1.76679e-14
  70
    32
  0
VERTEX
  8
0
  5
495B
 10
249.786
 20
-79.5311
 30
1.76599e-14
  70
    32
  0
VERTEX
  8
0
  5
495C
 10
249.799
 20
-79.4951
 30
1.76519e-14
  70
    32
  0
VERTEX
  8
0
  5
495D
 10
249.812
 20
-79.4589
 30
1.76439e-14
  70
    32
  0
VERTEX
  8
0
  5
495E
 10
249.825
 20
-79.4226
 30
1.76358e-14
  70
    32
  0
VERTEX
  8
0
  5
495F
 10
249.837
 20
-79.3861
 30
1.76277e-14
  70
    32
  0
VERTEX
  8
0
  5
4960
 10
249.849
 20
-79.3494
 30
1.76196e-14
  70
    32
  0
VERTEX
  8
0
  5
4961
 10
249.860
 20
-79.3126
 30
1.76114e-14
  70
    32
  0
VERTEX
  8
0
  5
4962
 10
249.871
 20
-79.2756
 30
1.76032e-14
  70
    32
  0
VERTEX
  8
0
  5
4963
 10
249.881
 20
-79.2385
 30
1.75950e-14
  70
    32
  0
VERTEX
  8
0
  5
4964
 10
249.891
 20
-79.2013
 30
1.75867e-14
  70
    32
  0
VERTEX
  8
0
  5
4965
 10
249.901
 20
-79.1640
 30
1.75784e-14
  70
    32
  0
VERTEX
  8
0
  5
4966
 10
249.910
 20
-79.1265
 30
1.75701e-14
  70
    32
  0
VERTEX
  8
0
  5
4967
 10
249.919
 20
-79.0889
 30
1.75617e-14
  70
    32
  0
VERTEX
  8
0
  5
4968
 10
249.927
 20
-79.0512
 30
1.75534e-14
  70
    32
  0
VERTEX
  8
0
  5
4969
 10
249.935
 20
-79.0134
 30
1.75450e-14
  70
    32
  0
VERTEX
  8
0
  5
496A
 10
249.942
 20
-78.9755
 30
1.75366e-14
  70
    32
  0
VERTEX
  8
0
  5
496B
 10
249.949
 20
-78.9375
 30
1.75281e-14
  70
    32
  0
VERTEX
  8
0
  5
496C
 10
249.956
 20
-78.8994
 30
1.75197e-14
  70
    32
  0
VERTEX
  8
0
  5
496D
 10
249.962
 20
-78.8613
 30
1.75112e-14
  70
    32
  0
VERTEX
  8
0
  5
496E
 10
249.968
 20
-78.8230
 30
1.75027e-14
  70
    32
  0
VERTEX
  8
0
  5
496F
 10
249.973
 20
-78.7847
 30
1.74942e-14
  70
    32
  0
VERTEX
  8
0
  5
4970
 10
249.977
 20
-78.7463
 30
1.74857e-14
  70
    32
  0
VERTEX
  8
0
  5
4971
 10
249.982
 20
-78.7079
 30
1.74772e-14
  70
    32
  0
VERTEX
  8
0
  5
4972
 10
249.986
 20
-78.6694
 30
1.74686e-14
  70
    32
  0
VERTEX
  8
0
  5
4973
 10
249.989
 20
-78.6309
 30
1.74601e-14
  70
    32
  0
VERTEX
  8
0
  5
4974
 10
249.992
 20
-78.5923
 30
1.74515e-14
  70
    32
  0
VERTEX
  8
0
  5
4975
 10
249.994
 20
-78.5537
 30
1.74429e-14
  70
    32
  0
VERTEX
  8
0
  5
4976
 10
249.996
 20
-78.5151
 30
1.74343e-14
  70
    32
  0
VERTEX
  8
0
  5
4977
 10
249.998
 20
-78.4764
 30
1.74258e-14
  70
    32
  0
VERTEX
  8
0
  5
4978
 10
249.999
 20
-78.4378
 30
1.74172e-14
  70
    32
  0
VERTEX
  8
0
  5
4979
 10
250.000
 20
-78.3991
 30
1.74086e-14
  70
    32
  0
VERTEX
  8
0
  5
497A
 10
250.000
 20
-78.3604
 30
1.74000e-14
  70
    32
  0
SEQEND
  8
0
  5
497B
  0
LINE
  5
432C
  8
0
  6
VERDECKT
 62
     1
 10
-247.0
 20
-81.5132848697199535
 30
0.0000000000000181
 11
247.0000000000001137
 21
-81.5132848697199535
 31
0.0000000000000181
210
0.0
220
1.0
230
-0.0000000000000002
  0
POLYLINE
  5
432D
  8
0
  6
VERDECKT
 62
     1
 10
-250.0
 20
-78.3603883967273873
 30
0.0000000000000174
 66
     1
 70
     8
  0
VERTEX
  8
0
  5
497C
 10
-250.000
 20
-78.3604
 30
1.74000e-14
  70
    32
  0
VERTEX
  8
0
  5
497D
 10
-250.000
 20
-78.3991
 30
1.74086e-14
  70
    32
  0
VERTEX
  8
0
  5
497E
 10
-249.999
 20
-78.4378
 30
1.74172e-14
  70
    32
  0
VERTEX
  8
0
  5
497F
 10
-249.998
 20
-78.4764
 30
1.74258e-14
  70
    32
  0
VERTEX
  8
0
  5
4980
 10
-249.996
 20
-78.5151
 30
1.74343e-14
  70
    32
  0
VERTEX
  8
0
  5
4981
 10
-249.994
 20
-78.5537
 30
1.74429e-14
  70
    32
  0
VERTEX
  8
0
  5
4982
 10
-249.992
 20
-78.5923
 30
1.74515e-14
  70
    32
  0
VERTEX
  8
0
  5
4983
 10
-249.989
 20
-78.6309
 30
1.74601e-14
  70
    32
  0
VERTEX
  8
0
  5
4984
 10
-249.986
 20
-78.6694
 30
1.74686e-14
  70
    32
  0
VERTEX
  8
0
  5
4985
 10
-249.982
 20
-78.7079
 30
1.74772e-14
  70
    32
  0
VERTEX
  8
0
  5
4986
 10
-249.977
 20
-78.7463
 30
1.74857e-14
  70
    32
  0
VERTEX
  8
0
  5
4987
 10
-249.973
 20
-78.7847
 30
1.74942e-14
  70
    32
  0
VERTEX
  8
0
  5
4988
 10
-249.968
 20
-78.8230
 30
1.75027e-14
  70
    32
  0
VERTEX
  8
0
  5
4989
 10
-249.962
 20
-78.8613
 30
1.75112e-14
  70
    32
  0
VERTEX
  8
0
  5
498A
 10
-249.956
 20
-78.8994
 30
1.75197e-14
  70
    32
  0
VERTEX
  8
0
  5
498B
 10
-249.949
 20
-78.9375
 30
1.75281e-14
  70
    32
  0
VERTEX
  8
0
  5
498C
 10
-249.942
 20
-78.9755
 30
1.75366e-14
  70
    32
  0
VERTEX
  8
0
  5
498D
 10
-249.935
 20
-79.0134
 30
1.75450e-14
  70
    32
  0
VERTEX
  8
0
  5
498E
 10
-249.927
 20
-79.0512
 30
1.75534e-14
  70
    32
  0
VERTEX
  8
0
  5
498F
 10
-249.919
 20
-79.0889
 30
1.75617e-14
  70
    32
  0
VERTEX
  8
0
  5
4990
 10
-249.910
 20
-79.1265
 30
1.75701e-14
  70
    32
  0
VERTEX
  8
0
  5
4991
 10
-249.901
 20
-79.1640
 30
1.75784e-14
  70
    32
  0
VERTEX
  8
0
  5
4992
 10
-249.891
 20
-79.2013
 30
1.75867e-14
  70
    32
  0
VERTEX
  8
0
  5
4993
 10
-249.881
 20
-79.2385
 30
1.75950e-14
  70
    32
  0
VERTEX
  8
0
  5
4994
 10
-249.871
 20
-79.2756
 30
1.76032e-14
  70
    32
  0
VERTEX
  8
0
  5
4995
 10
-249.860
 20
-79.3126
 30
1.76114e-14
  70
    32
  0
VERTEX
  8
0
  5
4996
 10
-249.849
 20
-79.3494
 30
1.76196e-14
  70
    32
  0
VERTEX
  8
0
  5
4997
 10
-249.837
 20
-79.3861
 30
1.76277e-14
  70
    32
  0
VERTEX
  8
0
  5
4998
 10
-249.825
 20
-79.4226
 30
1.76358e-14
  70
    32
  0
VERTEX
  8
0
  5
4999
 10
-249.812
 20
-79.4589
 30
1.76439e-14
  70
    32
  0
VERTEX
  8
0
  5
499A
 10
-249.799
 20
-79.4951
 30
1.76519e-14
  70
    32
  0
VERTEX
  8
0
  5
499B
 10
-249.786
 20
-79.5311
 30
1.76599e-14
  70
    32
  0
VERTEX
  8
0
  5
499C
 10
-249.772
 20
-79.5669
 30
1.76679e-14
  70
    32
  0
VERTEX
  8
0
  5
499D
 10
-249.757
 20
-79.6026
 30
1.76758e-14
  70
    32
  0
VERTEX
  8
0
  5
499E
 10
-249.743
 20
-79.6381
 30
1.76837e-14
  70
    32
  0
VERTEX
  8
0
  5
499F
 10
-249.728
 20
-79.6733
 30
1.76915e-14
  70
    32
  0
VERTEX
  8
0
  5
49A0
 10
-249.712
 20
-79.7084
 30
1.76993e-14
  70
    32
  0
VERTEX
  8
0
  5
49A1
 10
-249.696
 20
-79.7433
 30
1.77070e-14
  70
    32
  0
VERTEX
  8
0
  5
49A2
 10
-249.680
 20
-79.7780
 30
1.77147e-14
  70
    32
  0
VERTEX
  8
0
  5
49A3
 10
-249.663
 20
-79.8124
 30
1.77224e-14
  70
    32
  0
VERTEX
  8
0
  5
49A4
 10
-249.646
 20
-79.8467
 30
1.77300e-14
  70
    32
  0
VERTEX
  8
0
  5
49A5
 10
-249.628
 20
-79.8807
 30
1.77375e-14
  70
    32
  0
VERTEX
  8
0
  5
49A6
 10
-249.610
 20
-79.9144
 30
1.77450e-14
  70
    32
  0
VERTEX
  8
0
  5
49A7
 10
-249.592
 20
-79.9480
 30
1.77525e-14
  70
    32
  0
VERTEX
  8
0
  5
49A8
 10
-249.573
 20
-79.9813
 30
1.77599e-14
  70
    32
  0
VERTEX
  8
0
  5
49A9
 10
-249.554
 20
-80.0144
 30
1.77672e-14
  70
    32
  0
VERTEX
  8
0
  5
49AA
 10
-249.535
 20
-80.0472
 30
1.77745e-14
  70
    32
  0
VERTEX
  8
0
  5
49AB
 10
-249.515
 20
-80.0797
 30
1.77817e-14
  70
    32
  0
VERTEX
  8
0
  5
49AC
 10
-249.494
 20
-80.1120
 30
1.77889e-14
  70
    32
  0
VERTEX
  8
0
  5
49AD
 10
-249.474
 20
-80.1441
 30
1.77960e-14
  70
    32
  0
VERTEX
  8
0
  5
49AE
 10
-249.453
 20
-80.1759
 30
1.78031e-14
  70
    32
  0
VERTEX
  8
0
  5
49AF
 10
-249.431
 20
-80.2073
 30
1.78101e-14
  70
    32
  0
VERTEX
  8
0
  5
49B0
 10
-249.410
 20
-80.2386
 30
1.78170e-14
  70
    32
  0
VERTEX
  8
0
  5
49B1
 10
-249.388
 20
-80.2695
 30
1.78239e-14
  70
    32
  0
VERTEX
  8
0
  5
49B2
 10
-249.365
 20
-80.3001
 30
1.78307e-14
  70
    32
  0
VERTEX
  8
0
  5
49B3
 10
-249.342
 20
-80.3305
 30
1.78374e-14
  70
    32
  0
VERTEX
  8
0
  5
49B4
 10
-249.319
 20
-80.3606
 30
1.78441e-14
  70
    32
  0
VERTEX
  8
0
  5
49B5
 10
-249.296
 20
-80.3903
 30
1.78507e-14
  70
    32
  0
VERTEX
  8
0
  5
49B6
 10
-249.272
 20
-80.4198
 30
1.78572e-14
  70
    32
  0
VERTEX
  8
0
  5
49B7
 10
-249.247
 20
-80.4489
 30
1.78637e-14
  70
    32
  0
VERTEX
  8
0
  5
49B8
 10
-249.223
 20
-80.4777
 30
1.78701e-14
  70
    32
  0
VERTEX
  8
0
  5
49B9
 10
-249.198
 20
-80.5063
 30
1.78764e-14
  70
    32
  0
VERTEX
  8
0
  5
49BA
 10
-249.173
 20
-80.5344
 30
1.78827e-14
  70
    32
  0
VERTEX
  8
0
  5
49BB
 10
-249.147
 20
-80.5623
 30
1.78889e-14
  70
    32
  0
VERTEX
  8
0
  5
49BC
 10
-249.121
 20
-80.5898
 30
1.78950e-14
  70
    32
  0
VERTEX
  8
0
  5
49BD
 10
-249.095
 20
-80.6170
 30
1.79010e-14
  70
    32
  0
VERTEX
  8
0
  5
49BE
 10
-249.069
 20
-80.6439
 30
1.79070e-14
  70
    32
  0
VERTEX
  8
0
  5
49BF
 10
-249.042
 20
-80.6704
 30
1.79129e-14
  70
    32
  0
VERTEX
  8
0
  5
49C0
 10
-249.015
 20
-80.6965
 30
1.79187e-14
  70
    32
  0
VERTEX
  8
0
  5
49C1
 10
-248.987
 20
-80.7223
 30
1.79244e-14
  70
    32
  0
VERTEX
  8
0
  5
49C2
 10
-248.960
 20
-80.7478
 30
1.79300e-14
  70
    32
  0
VERTEX
  8
0
  5
49C3
 10
-248.931
 20
-80.7729
 30
1.79356e-14
  70
    32
  0
VERTEX
  8
0
  5
49C4
 10
-248.903
 20
-80.7976
 30
1.79411e-14
  70
    32
  0
VERTEX
  8
0
  5
49C5
 10
-248.875
 20
-80.8220
 30
1.79465e-14
  70
    32
  0
VERTEX
  8
0
  5
49C6
 10
-248.846
 20
-80.8460
 30
1.79518e-14
  70
    32
  0
VERTEX
  8
0
  5
49C7
 10
-248.817
 20
-80.8696
 30
1.79571e-14
  70
    32
  0
VERTEX
  8
0
  5
49C8
 10
-248.787
 20
-80.8928
 30
1.79622e-14
  70
    32
  0
VERTEX
  8
0
  5
49C9
 10
-248.757
 20
-80.9157
 30
1.79673e-14
  70
    32
  0
VERTEX
  8
0
  5
49CA
 10
-248.727
 20
-80.9381
 30
1.79723e-14
  70
    32
  0
VERTEX
  8
0
  5
49CB
 10
-248.697
 20
-80.9602
 30
1.79772e-14
  70
    32
  0
VERTEX
  8
0
  5
49CC
 10
-248.667
 20
-80.9819
 30
1.79820e-14
  70
    32
  0
VERTEX
  8
0
  5
49CD
 10
-248.636
 20
-81.0032
 30
1.79868e-14
  70
    32
  0
VERTEX
  8
0
  5
49CE
 10
-248.605
 20
-81.0241
 30
1.79914e-14
  70
    32
  0
VERTEX
  8
0
  5
49CF
 10
-248.574
 20
-81.0446
 30
1.79959e-14
  70
    32
  0
VERTEX
  8
0
  5
49D0
 10
-248.542
 20
-81.0647
 30
1.80004e-14
  70
    32
  0
VERTEX
  8
0
  5
49D1
 10
-248.511
 20
-81.0844
 30
1.80048e-14
  70
    32
  0
VERTEX
  8
0
  5
49D2
 10
-248.479
 20
-81.1037
 30
1.80091e-14
  70
    32
  0
VERTEX
  8
0
  5
49D3
 10
-248.447
 20
-81.1225
 30
1.80132e-14
  70
    32
  0
VERTEX
  8
0
  5
49D4
 10
-248.414
 20
-81.1410
 30
1.80173e-14
  70
    32
  0
VERTEX
  8
0
  5
49D5
 10
-248.382
 20
-81.1590
 30
1.80213e-14
  70
    32
  0
VERTEX
  8
0
  5
49D6
 10
-248.349
 20
-81.1766
 30
1.80253e-14
  70
    32
  0
VERTEX
  8
0
  5
49D7
 10
-248.316
 20
-81.1938
 30
1.80291e-14
  70
    32
  0
VERTEX
  8
0
  5
49D8
 10
-248.283
 20
-81.2106
 30
1.80328e-14
  70
    32
  0
VERTEX
  8
0
  5
49D9
 10
-248.249
 20
-81.2269
 30
1.80364e-14
  70
    32
  0
VERTEX
  8
0
  5
49DA
 10
-248.216
 20
-81.2428
 30
1.80399e-14
  70
    32
  0
VERTEX
  8
0
  5
49DB
 10
-248.182
 20
-81.2583
 30
1.80434e-14
  70
    32
  0
VERTEX
  8
0
  5
49DC
 10
-248.148
 20
-81.2733
 30
1.80467e-14
  70
    32
  0
VERTEX
  8
0
  5
49DD
 10
-248.114
 20
-81.2879
 30
1.80500e-14
  70
    32
  0
VERTEX
  8
0
  5
49DE
 10
-248.080
 20
-81.3020
 30
1.80531e-14
  70
    32
  0
VERTEX
  8
0
  5
49DF
 10
-248.045
 20
-81.3157
 30
1.80561e-14
  70
    32
  0
VERTEX
  8
0
  5
49E0
 10
-248.011
 20
-81.3290
 30
1.80591e-14
  70
    32
  0
VERTEX
  8
0
  5
49E1
 10
-247.976
 20
-81.3418
 30
1.80619e-14
  70
    32
  0
VERTEX
  8
0
  5
49E2
 10
-247.941
 20
-81.3542
 30
1.80647e-14
  70
    32
  0
VERTEX
  8
0
  5
49E3
 10
-247.906
 20
-81.3661
 30
1.80673e-14
  70
    32
  0
VERTEX
  8
0
  5
49E4
 10
-247.871
 20
-81.3775
 30
1.80699e-14
  70
    32
  0
VERTEX
  8
0
  5
49E5
 10
-247.836
 20
-81.3885
 30
1.80723e-14
  70
    32
  0
VERTEX
  8
0
  5
49E6
 10
-247.800
 20
-81.3991
 30
1.80746e-14
  70
    32
  0
VERTEX
  8
0
  5
49E7
 10
-247.765
 20
-81.4092
 30
1.80769e-14
  70
    32
  0
VERTEX
  8
0
  5
49E8
 10
-247.729
 20
-81.4188
 30
1.80790e-14
  70
    32
  0
VERTEX
  8
0
  5
49E9
 10
-247.693
 20
-81.4280
 30
1.80811e-14
  70
    32
  0
VERTEX
  8
0
  5
49EA
 10
-247.657
 20
-81.4367
 30
1.80830e-14
  70
    32
  0
VERTEX
  8
0
  5
49EB
 10
-247.621
 20
-81.4449
 30
1.80848e-14
  70
    32
  0
VERTEX
  8
0
  5
49EC
 10
-247.585
 20
-81.4527
 30
1.80865e-14
  70
    32
  0
VERTEX
  8
0
  5
49ED
 10
-247.549
 20
-81.4600
 30
1.80882e-14
  70
    32
  0
VERTEX
  8
0
  5
49EE
 10
-247.513
 20
-81.4669
 30
1.80897e-14
  70
    32
  0
VERTEX
  8
0
  5
49EF
 10
-247.477
 20
-81.4732
 30
1.80911e-14
  70
    32
  0
VERTEX
  8
0
  5
49F0
 10
-247.440
 20
-81.4792
 30
1.80924e-14
  70
    32
  0
VERTEX
  8
0
  5
49F1
 10
-247.404
 20
-81.4846
 30
1.80936e-14
  70
    32
  0
VERTEX
  8
0
  5
49F2
 10
-247.367
 20
-81.4896
 30
1.80947e-14
  70
    32
  0
VERTEX
  8
0
  5
49F3
 10
-247.331
 20
-81.4941
 30
1.80957e-14
  70
    32
  0
VERTEX
  8
0
  5
49F4
 10
-247.294
 20
-81.4981
 30
1.80966e-14
  70
    32
  0
VERTEX
  8
0
  5
49F5
 10
-247.257
 20
-81.5017
 30
1.80974e-14
  70
    32
  0
VERTEX
  8
0
  5
49F6
 10
-247.221
 20
-81.5047
 30
1.80981e-14
  70
    32
  0
VERTEX
  8
0
  5
49F7
 10
-247.184
 20
-81.5074
 30
1.80987e-14
  70
    32
  0
VERTEX
  8
0
  5
49F8
 10
-247.147
 20
-81.5095
 30
1.80992e-14
  70
    32
  0
VERTEX
  8
0
  5
49F9
 10
-247.110
 20
-81.5111
 30
1.80995e-14
  70
    32
  0
VERTEX
  8
0
  5
49FA
 10
-247.074
 20
-81.5123
 30
1.80998e-14
  70
    32
  0
VERTEX
  8
0
  5
49FB
 10
-247.037
 20
-81.5130
 30
1.80999e-14
  70
    32
  0
VERTEX
  8
0
  5
49FC
 10
-247.000
 20
-81.5133
 30
1.81000e-14
  70
    32
  0
SEQEND
  8
0
  5
49FD
  0
LINE
  5
432E
  8
0
  6
VERDECKT
 62
     1
 10
-248.5
 20
-47.06450026190155
 30
0.0000000000000105
 11
-248.5
 21
-78.3603883967274015
 31
0.0000000000000174
210
0.0
220
1.0
230
-0.0000000000000002
  0
LINE
  5
432F
  8
0
  6
VERDECKT
 62
     1
 10
248.5000000000001137
 20
-78.3603883967274157
 30
0.0000000000000174
 11
248.5000000000001137
 21
-47.0645002619015571
 31
0.0000000000000105
210
0.0
220
1.0
230
-0.0000000000000002
  0
LINE
  5
4330
  8
0
  6
VERDECKT
 62
     1
 10
-250.0
 20
-78.3603883967274157
 30
0.0000000000000174
 11
-250.0
 21
-47.0645002619015571
 31
0.0000000000000105
210
0.0
220
1.0
230
-0.0000000000000002
  0
LINE
  5
4331
  8
0
  6
VERDECKT
 62
     1
 10
250.0000000000001137
 20
-47.0645002619015003
 30
0.0000000000000105
 11
250.0000000000001137
 21
-78.3603883967273731
 31
0.0000000000000174
210
0.0
220
1.0
230
-0.0000000000000002
  0
ENDBLK
  5
4333
  8
0
  0
BLOCK
  8
0
  2
A$C1D09CDF6
 70
     0
 10
0.0
 20
0.0
 30
0.0
  3
A$C1D09CDF6
  1

  0
LINE
  5
4337
  8
0
  6
CONTINUOUS
 62
     3
 10
1.4999999999999341
 20
170.0
 30
-0.0000000000000377
 11
-0.0000000000000657
 21
170.0
 31
-0.0000000000000377
210
0.0000000000000002
220
1.0
230
-0.0000000000000002
  0
LINE
  5
4338
  8
0
  6
CONTINUOUS
 62
     3
 10
-0.0000000000000715
 20
150.0
 30
-0.0000000000000333
 11
-0.0000000000000658
 21
170.0
 31
-0.0000000000000377
210
0.0000000000000002
220
1.0
230
-0.0000000000000002
  0
LINE
  5
4339
  8
0
  6
CONTINUOUS
 62
     3
 10
1.4999999999999281
 20
150.0
 30
-0.0000000000000333
 11
1.4999999999999341
 21
170.0
 31
-0.0000000000000377
210
0.0000000000000002
220
1.0
230
-0.0000000000000002
  0
LINE
  5
433A
  8
0
  6
CONTINUOUS
 62
     3
 10
-0.0000000000000715
 20
150.0
 30
-0.0000000000000333
 11
-0.0000000000001565
 21
-150.0
 31
0.0000000000000333
210
0.0000000000000002
220
1.0
230
-0.0000000000000002
  0
LINE
  5
433B
  8
0
  6
CONTINUOUS
 62
     3
 10
1.4999999999999281
 20
150.0
 30
-0.0000000000000333
 11
1.499999999999843
 21
-150.0
 31
0.0000000000000333
210
0.0000000000000002
220
1.0
230
-0.0000000000000002
  0
LINE
  5
433C
  8
0
  6
CONTINUOUS
 62
     3
 10
-0.000000000000162
 20
-170.0
 30
0.0000000000000377
 11
-0.0000000000001563
 21
-150.0
 31
0.0000000000000333
210
0.0000000000000002
220
1.0
230
-0.0000000000000002
  0
LINE
  5
433D
  8
0
  6
CONTINUOUS
 62
     3
 10
1.4999999999998379
 20
-170.0
 30
0.0000000000000377
 11
-0.0000000000001621
 21
-170.0
 31
0.0000000000000377
210
0.0000000000000002
220
1.0
230
-0.0000000000000002
  0
LINE
  5
433E
  8
0
  6
CONTINUOUS
 62
     3
 10
1.4999999999998379
 20
-170.0
 30
0.0000000000000377
 11
1.499999999999843
 21
-150.0
 31
0.0000000000000333
210
0.0000000000000002
220
1.0
230
-0.0000000000000002
  0
LINE
  5
433F
  8
0
  6
CONTINUOUS
 62
     3
 10
508.2905080744603765
 20
22.0067936909933906
 30
-0.0000000000000049
 11
508.369012008824825
 21
23.50473799312525
 31
-0.0000000000000052
210
0.0000000000000002
220
1.0
230
-0.0000000000000002
  0
LINE
  5
4340
  8
0
  6
CONTINUOUS
 62
     3
 10
508.369012008824825
 20
23.50473799312525
 30
-0.0000000000000052
 11
484.6655413718900718
 21
24.7469842505077686
 31
-0.0000000000000055
210
0.0000000000000002
220
1.0
230
-0.0000000000000002
  0
LINE
  5
4341
  8
0
  6
CONTINUOUS
 62
     3
 10
484.6655413718900718
 20
24.7469842505077686
 30
-0.0000000000000055
 11
484.5870374375257938
 21
23.2490399483758985
 31
-0.0000000000000052
210
0.0000000000000002
220
1.0
230
-0.0000000000000002
  0
LINE
  5
4342
  8
0
  6
CONTINUOUS
 62
     3
 10
508.2900825166038885
 20
22.0068159935356
 30
-0.0000000000000049
 11
508.2905080744603765
 21
22.0067936909933906
 31
-0.0000000000000049
210
0.0000000000000002
220
1.0
230
-0.0000000000000002
  0
LINE
  5
4343
  8
0
  6
CONTINUOUS
 62
     3
 10
1.578503934364949
 20
50.0645030830317808
 30
-0.0000000000000111
 11
1.5000000000005329
 21
48.5665587808999106
 31
-0.0000000000000108
210
0.0000000000000002
220
1.0
230
-0.0000000000000002
  0
LINE
  5
4344
  8
0
  6
CONTINUOUS
 62
     3
 10
19.724989009271539
 20
47.6114275794661808
 30
-0.0000000000000106
 11
19.803492943635959
 21
49.109371881598058
 31
-0.0000000000000109
210
0.0000000000000002
220
1.0
230
-0.0000000000000002
  0
LINE
  5
4345
  8
0
  6
CONTINUOUS
 62
     3
 10
19.803492943635959
 20
49.109371881598058
 30
-0.0000000000000109
 11
1.5785039343650029
 21
50.0645030830317808
 31
-0.0000000000000111
210
0.0000000000000002
220
1.0
230
-0.0000000000000002
  0
LINE
  5
4346
  8
0
  6
CONTINUOUS
 62
     3
 10
25.2959553847861116
 20
48.8215241222618701
 30
-0.0000000000000108
 11
25.2174514504216987
 21
47.3235798201299929
 31
-0.0000000000000105
210
0.0000000000000002
220
1.0
230
-0.0000000000000002
  0
LINE
  5
4347
  8
0
  6
CONTINUOUS
 62
     3
 10
134.5673855060476001
 20
41.5927926115276634
 30
-0.0000000000000092
 11
134.6458894404119917
 21
43.0907369136595193
 31
-0.0000000000000096
210
0.0000000000000002
220
1.0
230
-0.0000000000000002
  0
LINE
  5
4348
  8
0
  6
CONTINUOUS
 62
     3
 10
134.6458894404119917
 20
43.0907369136595193
 30
-0.0000000000000096
 11
25.295955384786101
 21
48.8215241222618701
 31
-0.0000000000000108
210
0.0000000000000002
220
1.0
230
-0.0000000000000002
  0
LINE
  5
4349
  8
0
  6
CONTINUOUS
 62
     3
 10
140.1383518815621869
 20
42.8028891543233385
 30
-0.0000000000000095
 11
140.05984794719771
 21
41.3049448521914826
 31
-0.0000000000000092
210
0.0000000000000002
220
1.0
230
-0.0000000000000002
  0
LINE
  5
434A
  8
0
  6
CONTINUOUS
 62
     3
 10
249.4097820028235901
 20
35.5741576435891389
 30
-0.0000000000000079
 11
249.4882859371880102
 21
37.0721019457210019
 31
-0.0000000000000082
210
0.0000000000000002
220
1.0
230
-0.0000000000000002
  0
LINE
  5
434B
  8
0
  6
CONTINUOUS
 62
     3
 10
249.4882859371880102
 20
37.0721019457210019
 30
-0.0000000000000082
 11
140.1383518815621869
 21
42.8028891543233385
 31
-0.0000000000000095
210
0.0000000000000002
220
1.0
230
-0.0000000000000002
  0
LINE
  5
434C
  8
0
  6
CONTINUOUS
 62
     3
 10
254.9807483783382054
 20
36.7842541863848069
 30
-0.0000000000000082
 11
254.9022444439738138
 21
35.286309884252951
 31
-0.0000000000000078
210
0.0000000000000002
220
1.0
230
-0.0000000000000002
  0
LINE
  5
434D
  8
0
  6
CONTINUOUS
 62
     3
 10
364.2521784995996086
 20
29.5555226756506215
 30
-0.0000000000000066
 11
364.3306824339640002
 21
31.053466977782481
 31
-0.0000000000000069
210
0.0000000000000002
220
1.0
230
-0.0000000000000002
  0
LINE
  5
434E
  8
0
  6
CONTINUOUS
 62
     3
 10
364.3306824339640002
 20
31.053466977782481
 30
-0.0000000000000069
 11
254.9807483783382054
 21
36.7842541863848069
 31
-0.0000000000000082
210
0.0000000000000002
220
1.0
230
-0.0000000000000002
  0
LINE
  5
434F
  8
0
  6
CONTINUOUS
 62
     3
 10
369.8231448751142807
 20
30.7656192184462896
 30
-0.0000000000000068
 11
369.7446409407498891
 21
29.2676749163144301
 31
-0.0000000000000065
210
0.0000000000000002
220
1.0
230
-0.0000000000000002
  0
LINE
  5
4350
  8
0
  6
CONTINUOUS
 62
     3
 10
479.0945749963755134
 20
23.5368877077121006
 30
-0.0000000000000052
 11
479.1730789307400187
 21
25.0348320098439601
 31
-0.0000000000000056
210
0.0000000000000002
220
1.0
230
-0.0000000000000002
  0
LINE
  5
4351
  8
0
  6
CONTINUOUS
 62
     3
 10
479.1730789307400187
 20
25.0348320098439601
 30
-0.0000000000000056
 11
369.8231448751142239
 21
30.7656192184462896
 31
-0.0000000000000068
210
0.0000000000000002
220
1.0
230
-0.0000000000000002
  0
LINE
  5
4352
  8
0
  6
CONTINUOUS
 62
     3
 10
484.6655413718900718
 20
24.7469842505077686
 30
-0.0000000000000055
 11
484.4158839882005054
 21
24.760068239568561
 31
-0.0000000000000055
210
0.0000000000000002
220
1.0
230
-0.0000000000000002
  0
LINE
  5
4353
  8
0
  6
CONTINUOUS
 62
     3
 10
479.4227363144275955
 20
25.0217480207832814
 30
-0.0000000000000056
 11
479.1730789307400187
 21
25.0348320098439601
 31
-0.0000000000000056
210
0.0000000000000002
220
1.0
230
-0.0000000000000002
  0
LINE
  5
4354
  8
0
  6
CONTINUOUS
 62
     3
 10
369.8231448751142239
 20
30.7656192184462896
 30
-0.0000000000000068
 11
369.573487491424487
 21
30.7787032075070783
 31
-0.0000000000000068
210
0.0000000000000002
220
1.0
230
-0.0000000000000002
  0
LINE
  5
4355
  8
0
  6
CONTINUOUS
 62
     3
 10
364.5803398176515771
 20
31.0403829887217988
 30
-0.0000000000000069
 11
364.3306824339640002
 21
31.053466977782481
 31
-0.0000000000000069
210
0.0000000000000002
220
1.0
230
-0.0000000000000002
  0
LINE
  5
4356
  8
0
  6
CONTINUOUS
 62
     3
 10
254.9807483783382054
 20
36.7842541863848069
 30
-0.0000000000000082
 11
254.7310909946484969
 21
36.7973381754456099
 31
-0.0000000000000082
210
0.0000000000000002
220
1.0
230
-0.0000000000000002
  0
LINE
  5
4357
  8
0
  6
CONTINUOUS
 62
     3
 10
249.737943320875587
 20
37.0590179566603197
 30
-0.0000000000000082
 11
249.4882859371880102
 21
37.0721019457210019
 31
-0.0000000000000082
210
0.0000000000000002
220
1.0
230
-0.0000000000000002
  0
LINE
  5
4358
  8
0
  6
CONTINUOUS
 62
     3
 10
140.1383518815621869
 20
42.8028891543233385
 30
-0.0000000000000095
 11
139.8886944978725069
 21
42.8159731433841202
 31
-0.0000000000000095
210
0.0000000000000002
220
1.0
230
-0.0000000000000002
  0
LINE
  5
4359
  8
0
  6
CONTINUOUS
 62
     3
 10
134.8955468240995117
 20
43.0776529245988513
 30
-0.0000000000000096
 11
134.6458894404119917
 21
43.0907369136595193
 31
-0.0000000000000096
210
0.0000000000000002
220
1.0
230
-0.0000000000000002
  0
LINE
  5
435A
  8
0
  6
CONTINUOUS
 62
     3
 10
25.295955384786101
 20
48.8215241222618701
 30
-0.0000000000000108
 11
25.0462980010965701
 21
48.8346081113226518
 31
-0.0000000000000108
210
0.0000000000000002
220
1.0
230
-0.0000000000000002
  0
LINE
  5
435B
  8
0
  6
CONTINUOUS
 62
     3
 10
20.0531503273235394
 20
49.0962878925373687
 30
-0.0000000000000109
 11
19.8034929436359306
 21
49.109371881598058
 31
-0.0000000000000109
210
0.0000000000000002
220
1.0
230
-0.0000000000000002
  0
LINE
  5
435C
  8
0
  6
CONTINUOUS
 62
     3
 10
1.578503934365002
 20
50.0645030830317808
 30
-0.0000000000000111
 11
1.499999999999899
 21
50.0686172998968289
 31
-0.0000000000000111
210
0.0000000000000002
220
1.0
230
-0.0000000000000002
  0
LINE
  5
435D
  8
0
  6
CONTINUOUS
 62
     3
 10
254.6525870602841053
 20
35.2993938733136616
 30
-0.0000000000000078
 11
254.7310909946486106
 21
36.7973381754454465
 31
-0.0000000000000082
210
0.0000000000000002
220
1.0
230
-0.0000000000000002
  0
LINE
  5
435E
  8
0
  6
CONTINUOUS
 62
     3
 10
364.5803398176516907
 20
31.0403829887216993
 30
-0.0000000000000069
 11
364.5018358832872991
 21
29.5424386865898292
 31
-0.0000000000000066
210
0.0000000000000002
220
1.0
230
-0.0000000000000002
  0
LINE
  5
435F
  8
0
  6
CONTINUOUS
 62
     3
 10
364.5018358832872991
 20
29.5424386865898185
 30
-0.0000000000000066
 11
254.6525870602841053
 21
35.2993938733136616
 31
-0.0000000000000078
210
0.0000000000000002
220
1.0
230
-0.0000000000000002
  0
LINE
  5
4360
  8
0
  6
CONTINUOUS
 62
     3
 10
19.9746463929592615
 20
47.5983435904054488
 30
-0.0000000000000106
 11
1.4999999999996161
 21
48.5665587808999106
 31
-0.0000000000000108
210
0.0000000000000002
220
1.0
230
-0.0000000000000002
  0
LINE
  5
4361
  8
0
  6
CONTINUOUS
 62
     3
 10
20.0531503273236815
 20
49.0962878925373332
 30
-0.0000000000000109
 11
19.9746463929592615
 21
47.598343590405463
 31
-0.0000000000000106
210
0.0000000000000002
220
1.0
230
-0.0000000000000002
  0
LINE
  5
4362
  8
0
  6
CONTINUOUS
 62
     3
 10
369.4949835570599816
 20
29.2807589053751194
 30
-0.0000000000000065
 11
369.573487491424487
 21
30.7787032075069291
 31
-0.0000000000000068
210
0.0000000000000002
220
1.0
230
-0.0000000000000002
  0
LINE
  5
4363
  8
0
  6
CONTINUOUS
 62
     3
 10
479.4227363144275955
 20
25.0217480207831713
 30
-0.0000000000000056
 11
479.3442323800632039
 21
23.5238037186513012
 31
-0.0000000000000052
210
0.0000000000000002
220
1.0
230
-0.0000000000000002
  0
LINE
  5
4364
  8
0
  6
CONTINUOUS
 62
     3
 10
479.3442323800632039
 20
23.5238037186512905
 30
-0.0000000000000052
 11
369.4949835570599816
 21
29.2807589053751087
 31
-0.0000000000000065
210
0.0000000000000002
220
1.0
230
-0.0000000000000002
  0
LINE
  5
4365
  8
0
  6
CONTINUOUS
 62
     3
 10
139.8101905635080016
 20
41.318028841252243
 30
-0.0000000000000092
 11
139.8886944978725069
 21
42.8159731433840065
 31
-0.0000000000000095
210
0.0000000000000002
220
1.0
230
-0.0000000000000002
  0
LINE
  5
4366
  8
0
  6
CONTINUOUS
 62
     3
 10
249.7379433208757007
 20
37.0590179566602629
 30
-0.0000000000000082
 11
249.6594393865111954
 21
35.5610736545283928
 31
-0.0000000000000079
210
0.0000000000000002
220
1.0
230
-0.0000000000000002
  0
LINE
  5
4367
  8
0
  6
CONTINUOUS
 62
     3
 10
249.6594393865113091
 20
35.5610736545283785
 30
-0.0000000000000079
 11
139.8101905635080016
 21
41.3180288412522074
 31
-0.0000000000000092
210
0.0000000000000002
220
1.0
230
-0.0000000000000002
  0
LINE
  5
4368
  8
0
  6
CONTINUOUS
 62
     3
 10
24.9677940667321394
 20
47.3366638091907674
 30
-0.0000000000000105
 11
25.0462980010965417
 21
48.834608111322531
 31
-0.0000000000000108
210
0.0000000000000002
220
1.0
230
-0.0000000000000002
  0
LINE
  5
4369
  8
0
  6
CONTINUOUS
 62
     3
 10
134.895546824099597
 20
43.0776529245988016
 30
-0.0000000000000096
 11
134.8170428897350916
 21
41.5797086224669172
 31
-0.0000000000000092
210
0.0000000000000002
220
1.0
230
-0.0000000000000002
  0
LINE
  5
436A
  8
0
  6
CONTINUOUS
 62
     3
 10
134.8170428897350916
 20
41.5797086224668817
 30
-0.0000000000000092
 11
24.9677940667321394
 21
47.3366638091907532
 31
-0.0000000000000105
210
0.0000000000000002
220
1.0
230
-0.0000000000000002
  0
LINE
  5
436B
  8
0
  6
CONTINUOUS
 62
     3
 10
508.2900825166038885
 20
22.0068159935354792
 30
-0.0000000000000049
 11
484.3373800538361138
 21
23.2621239374365807
 31
-0.0000000000000052
210
0.0000000000000002
220
1.0
230
-0.0000000000000002
  0
LINE
  5
436C
  8
0
  6
CONTINUOUS
 62
     3
 10
484.3373800538360001
 20
23.2621239374365807
 30
-0.0000000000000052
 11
484.4158839882005054
 21
24.7600682395684011
 31
-0.0000000000000055
210
0.0000000000000002
220
1.0
230
-0.0000000000000002
  0
LINE
  5
436D
  8
0
  6
CONTINUOUS
 62
     3
 10
598.6611192644646735
 20
-78.3603883967275152
 30
0.0000000000000174
 11
508.2900825166038885
 21
22.0068159935354686
 31
-0.0000000000000049
210
0.0000000000000002
220
1.0
230
-0.0000000000000002
  0
LINE
  5
436E
  8
0
  6
CONTINUOUS
 62
     3
 10
598.6611192644646735
 20
-78.3603883967275152
 30
0.0000000000000174
 11
601.4999999999996589
 21
-81.5132848697200529
 31
0.0000000000000181
210
0.0000000000000002
220
1.0
230
-0.0000000000000002
  0
LINE
  5
436F
  8
0
  6
CONTINUOUS
 62
     3
 10
479.4227363144277092
 20
25.0217480207831393
 30
-0.0000000000000056
 11
484.4158839882005054
 21
24.7600682395684188
 31
-0.0000000000000055
210
0.0000000000000002
220
1.0
230
-0.0000000000000002
  0
LINE
  5
4370
  8
0
  6
CONTINUOUS
 62
     3
 10
134.8955468240995117
 20
43.0776529245987376
 30
-0.0000000000000096
 11
139.8886944978725069
 21
42.8159731433840207
 31
-0.0000000000000095
210
0.0000000000000002
220
1.0
230
-0.0000000000000002
  0
LINE
  5
4371
  8
0
  6
CONTINUOUS
 62
     3
 10
364.5803398176516907
 20
31.0403829887216709
 30
-0.0000000000000069
 11
369.5734874914246006
 21
30.7787032075069611
 31
-0.0000000000000068
210
0.0000000000000002
220
1.0
230
-0.0000000000000002
  0
LINE
  5
4372
  8
0
  6
CONTINUOUS
 62
     3
 10
20.0531503273235714
 20
49.0962878925372834
 30
-0.0000000000000109
 11
25.0462980010965808
 21
48.8346081113225523
 31
-0.0000000000000108
210
0.0000000000000002
220
1.0
230
-0.0000000000000002
  0
LINE
  5
4373
  8
0
  6
CONTINUOUS
 62
     3
 10
601.4999999999996589
 20
-81.5132848697200671
 30
0.0000000000000181
 11
1.4999999999996469
 21
-50.0686172998953012
 31
0.0000000000000111
210
0.0000000000000002
220
1.0
230
-0.0000000000000002
  0
LINE
  5
4374
  8
0
  6
CONTINUOUS
 62
     3
 10
249.737943320875587
 20
37.0590179566602131
 30
-0.0000000000000082
 11
254.7310909946486106
 21
36.797338175445482
 31
-0.0000000000000082
210
0.0000000000000002
220
1.0
230
-0.0000000000000002
  0
LINE
  5
4375
  8
0
  6
VERDECKT
 62
     1
 10
1.4999999999998721
 20
-48.9999999999998508
 30
0.0000000000000109
 11
-0.0000000000001279
 21
-48.9999999999998508
 31
0.0000000000000109
210
0.0000000000000002
220
1.0
230
-0.0000000000000002
  0
LINE
  5
4376
  8
0
  6
VERDECKT
 62
     1
 10
1.4999999999998721
 20
-50.4999999999998792
 30
0.0000000000000112
 11
-0.0000000000001282
 21
-50.4999999999998792
 31
0.0000000000000112
210
0.0000000000000002
220
1.0
230
-0.0000000000000002
  0
LINE
  5
4377
  8
0
  6
VERDECKT
 62
     1
 10
1.4999999999999001
 20
50.4999999999999503
 30
-0.0000000000000112
 11
-0.0000000000000996
 21
50.4999999999999503
 31
-0.0000000000000112
210
0.0000000000000002
220
1.0
230
-0.0000000000000002
  0
LINE
  5
4378
  8
0
  6
VERDECKT
 62
     1
 10
1.4999999999999001
 20
48.9999999999999716
 30
-0.0000000000000109
 11
-0.0000000000000999
 21
48.9999999999999716
 31
-0.0000000000000109
210
0.0000000000000002
220
1.0
230
-0.0000000000000002
  0
LINE
  5
4379
  8
0
  6
VERDECKT
 62
     1
 10
1.499999999999887
 20
2.7500000000001621
 30
-0.0000000000000006
 11
-0.0000000000001131
 21
2.7500000000001621
 31
-0.0000000000000006
210
0.0000000000000002
220
1.0
230
-0.0000000000000002
  0
LINE
  5
437A
  8
0
  6
VERDECKT
 62
     1
 10
1.499999999999885
 20
-2.7499999999998388
 30
0.0000000000000006
 11
-0.0000000000001147
 21
-2.7499999999998379
 31
0.0000000000000006
210
0.0000000000000002
220
1.0
230
-0.0000000000000002
  0
LINE
  5
437B
  8
0
  6
VERDECKT
 62
     1
 10
1.4999999999999269
 20
146.5
 30
-0.0000000000000325
 11
-0.0000000000000725
 21
146.5
 31
-0.0000000000000325
210
0.0000000000000002
220
1.0
230
-0.0000000000000002
  0
LINE
  5
437C
  8
0
  6
VERDECKT
 62
     1
 10
1.4999999999999289
 20
153.5
 30
-0.0000000000000341
 11
-0.0000000000000705
 21
153.5
 31
-0.0000000000000341
210
0.0000000000000002
220
1.0
230
-0.0000000000000002
  0
LINE
  5
437D
  8
0
  6
VERDECKT
 62
     1
 10
1.4999999999998419
 20
-153.5
 30
0.0000000000000341
 11
-0.0000000000001573
 21
-153.5
 31
0.0000000000000341
210
0.0000000000000002
220
1.0
230
-0.0000000000000002
  0
LINE
  5
437E
  8
0
  6
VERDECKT
 62
     1
 10
1.4999999999998439
 20
-146.5
 30
0.0000000000000325
 11
-0.0000000000001553
 21
-146.5
 31
0.0000000000000325
210
0.0000000000000002
220
1.0
230
-0.0000000000000002
  0
LINE
  5
437F
  8
0
  6
VERDECKT
 62
     1
 10
484.3373800538361138
 20
23.2621239374367015
 30
-0.0000000000000052
 11
479.3442323800632039
 21
23.5238037186514113
 31
-0.0000000000000052
210
0.0000000000000002
220
1.0
230
-0.0000000000000002
  0
LINE
  5
4380
  8
0
  6
VERDECKT
 62
     1
 10
369.4949835570599816
 20
29.2807589053752189
 30
-0.0000000000000065
 11
364.5018358832872991
 21
29.5424386865899287
 31
-0.0000000000000066
210
0.0000000000000002
220
1.0
230
-0.0000000000000002
  0
LINE
  5
4381
  8
0
  6
VERDECKT
 62
     1
 10
254.6525870602841053
 20
35.2993938733137398
 30
-0.0000000000000078
 11
249.6594393865111954
 21
35.5610736545284567
 31
-0.0000000000000079
210
0.0000000000000002
220
1.0
230
-0.0000000000000002
  0
LINE
  5
4382
  8
0
  6
VERDECKT
 62
     1
 10
139.8101905635080016
 20
41.3180288412522572
 30
-0.0000000000000092
 11
134.8170428897350916
 21
41.5797086224669812
 31
-0.0000000000000092
210
0.0000000000000002
220
1.0
230
-0.0000000000000002
  0
LINE
  5
4383
  8
0
  6
VERDECKT
 62
     1
 10
24.967794066732111
 20
47.3366638091907674
 30
-0.0000000000000105
 11
19.9746463929592615
 21
47.5983435904054772
 31
-0.0000000000000106
210
0.0000000000000002
220
1.0
230
-0.0000000000000002
  0
LINE
  5
4384
  8
0
  6
VERDECKT
 62
     1
 10
1.5000000000005529
 20
48.5665587808999106
 30
-0.0000000000000108
 11
0.0020556978687069
 21
48.6450627152643307
 31
-0.0000000000000108
210
0.0000000000000002
220
1.0
230
-0.0000000000000002
  0
LINE
  5
4385
  8
0
  6
VERDECKT
 62
     1
 10
1.499999999999899
 20
50.0686172998968289
 30
-0.0000000000000111
 11
0.0805596322331559
 21
50.1430070173961866
 31
-0.0000000000000111
210
0.0000000000000002
220
1.0
230
-0.0000000000000002
  0
LINE
  5
4386
  8
0
  6
VERDECKT
 62
     1
 10
0.0020556978687262
 20
48.6450627152643307
 30
-0.0000000000000108
 11
0.0805596322331418
 21
50.1430070173961866
 31
-0.0000000000000111
210
0.0000000000000002
220
1.0
230
-0.0000000000000002
  0
LINE
  5
4387
  8
0
  6
VERDECKT
 62
     1
 10
1.499999999999726
 20
-48.5665587808983972
 30
0.0000000000000108
 11
0.5798743996095298
 21
-48.518337041520482
 31
0.0000000000000108
210
0.0000000000000002
220
1.0
230
-0.0000000000000002
  0
LINE
  5
4388
  8
0
  6
VERDECKT
 62
     1
 10
0.5013704652450742
 20
-50.0162813436523308
 30
0.0000000000000111
 11
0.5798743996094901
 21
-48.5183370415204678
 31
0.0000000000000108
210
0.0000000000000002
220
1.0
230
-0.0000000000000002
  0
LINE
  5
4389
  8
0
  6
VERDECKT
 62
     1
 10
1.4999999999997009
 20
-50.068617299895287
 30
0.0000000000000111
 11
0.5013704652451134
 21
-50.0162813436523379
 31
0.0000000000000111
210
0.0000000000000002
220
1.0
230
-0.0000000000000002
  0
LINE
  5
438A
  8
0
  6
VERDECKT
 62
     1
 10
0.0020556978678172
 20
-49.9901133655308669
 30
0.0000000000000111
 11
0.0805596322322331
 21
-48.492169063399011
 31
0.0000000000000108
210
0.0000000000000002
220
1.0
230
-0.0000000000000002
  0
LINE
  5
438B
  8
0
  6
VERDECKT
 62
     1
 10
0.5798743996095233
 20
-48.518337041520482
 30
0.0000000000000108
 11
0.0805596322323004
 21
-48.492169063399011
 31
0.0000000000000108
210
0.0000000000000002
220
1.0
230
-0.0000000000000002
  0
LINE
  5
438C
  8
0
  6
VERDECKT
 62
     1
 10
0.5013704652450734
 20
-50.0162813436523308
 30
0.0000000000000111
 11
0.0020556978678548
 21
-49.9901133655308669
 31
0.0000000000000111
210
0.0000000000000002
220
1.0
230
-0.0000000000000002
  0
LINE
  5
438D
  8
0
  6
VERDECKT
 62
     1
 10
1.499999999999801
 20
2.5000000000015108
 30
-0.0000000000000006
 11
-0.0000000000004255
 21
2.50000000000079
 31
-0.0000000000000006
210
0.0000000000000002
220
1.0
230
-0.0000000000000002
  0
LINE
  5
438E
  8
0
  6
VERDECKT
 62
     1
 10
-0.0000000000003703
 20
-2.4999999999992042
 30
0.0000000000000006
 11
1.4999999999997999
 21
-2.4999999999984972
 31
0.0000000000000006
210
0.0000000000000002
220
1.0
230
-0.0000000000000002
  0
LINE
  5
438F
  8
0
  6
VERDECKT
 62
     1
 10
1.499999999999702
 20
-48.5665587808984114
 30
0.0000000000000108
 11
600.0805596322320525
 21
-79.936836633223777
 31
0.0000000000000177
210
0.0000000000000002
220
1.0
230
-0.0000000000000002
  0
ENDBLK
  5
4391
  8
0
  0
ENDSEC
  0
SECTION
  2
ENTITIES
  0
INSERT
  5
D70
  8
ADSK_ASSOC_ENTITY_BACKUPS
  2
*S0
 10
0.0
 20
0.0
 30
0.0
  0
INSERT
  5
421D
  8
STEMPEL
  2
A$C23C8D515
 10
0.0
 20
-950.0
 30
0.0
  0
INSERT
  5
4334
  8
STEMPEL
  2
A$CDF5CEA13
 10
0.0
 20
0.0
 30
0.0
  0
INSERT
  5
4392
  8
STEMPEL
  2
A$C1D09CDF6
 10
-1100.0
 20
0.0
 30
0.0
  0
VIEWPORT
  5
D51
 67
     1
  8
0
 10
209.7202493551837961
 20
148.2597121477037945
 30
0.0
 40
558.8319832755776133
 41
298.5191815856778135
 68
     1
 69
     1
1001
ACAD
1000
MVIEW
1002
{
1070
    16
1010
0.0
1020
0.0
1030
0.0
1010
0.0
1020
0.0
1030
1.0
1040
0.0
1040
298.5191815856778135
1040
209.7202493551837961
1040
148.2597121477037945
1040
50.0
1040
0.0
1040
0.0
1070
     0
1070
  1500
1070
     1
1070
     1
1070
     0
1070
     0
1070
     0
1070
     0
1040
0.0
1040
0.0
1040
0.0
1040
10.0
1040
10.0
1040
10.0
1040
10.0
1070
     0
1002
{
1002
}
1002
}
  0
ENDSEC
  0
EOF
