  0
SECTION
  2
HEADER
  9
$ACADVER
  1
AC1009
  9
$INSBASE
 10
0.0
 20
0.0
 30
0.0
  9
$EXTMIN
 10
-950.0000000000003411
 20
-900.0000000000001137
 30
-0.0000000000000568
  9
$EXTMAX
 10
270.0000000000001137
 20
170.0
 30
0.0000000000000568
  9
$LIMMIN
 10
0.0
 20
0.0
  9
$LIMMAX
 10
420.0
 20
297.0
  9
$ORTHOMODE
 70
     1
  9
$REGENMODE
 70
     1
  9
$FILLMODE
 70
     1
  9
$QTEXTMODE
 70
     0
  9
$MIRRTEXT
 70
     1
  9
$DRAGMODE
 70
     2
  9
$LTSCALE
 40
10.0
  9
$OSMODE
 70
   511
  9
$ATTMODE
 70
     1
  9
$TEXTSIZE
 40
3.5
  9
$TRACEWID
 40
1.0
  9
$TEXTSTYLE
  7
STANDARD
  9
$CLAYER
  8
STEMPEL
  9
$CELTYPE
  6
BYLAYER
  9
$CECOLOR
 62
   256
  9
$DIMSCALE
 40
1.0
  9
$DIMASZ
 40
3.5
  9
$DIMEXO
 40
1.0
  9
$DIMDLI
 40
0.38
  9
$DIMRND
 40
0.0
  9
$DIMDLE
 40
0.0
  9
$DIMEXE
 40
1.0
  9
$DIMTP
 40
0.0
  9
$DIMTM
 40
0.000000001
  9
$DIMTXT
 40
3.5
  9
$DIMCEN
 40
0.09
  9
$DIMTSZ
 40
0.0
  9
$DIMTOL
 70
     0
  9
$DIMLIM
 70
     0
  9
$DIMTIH
 70
     0
  9
$DIMTOH
 70
     0
  9
$DIMSE1
 70
     0
  9
$DIMSE2
 70
     0
  9
$DIMTAD
 70
     1
  9
$DIMZIN
 70
     8
  9
$DIMBLK
  1

  9
$DIMASO
 70
     1
  9
$DIMSHO
 70
     0
  9
$DIMPOST
  1

  9
$DIMAPOST
  1

  9
$DIMALT
 70
     0
  9
$DIMALTD
 70
     2
  9
$DIMALTF
 40
25.3999999999999986
  9
$DIMLFAC
 40
5.0
  9
$DIMTOFL
 70
     1
  9
$DIMTVP
 40
0.0
  9
$DIMTIX
 70
     0
  9
$DIMSOXD
 70
     0
  9
$DIMSAH
 70
     0
  9
$DIMBLK1
  1

  9
$DIMBLK2
  1

  9
$DIMSTYLE
  2
LORO
  9
$DIMCLRD
 70
     0
  9
$DIMCLRE
 70
     0
  9
$DIMCLRT
 70
     1
  9
$DIMTFAC
 40
0.5
  9
$DIMGAP
 40
1.5
  9
$LUNITS
 70
     2
  9
$LUPREC
 70
     2
  9
$SKETCHINC
 40
1.0
  9
$FILLETRAD
 40
0.0
  9
$AUNITS
 70
     0
  9
$AUPREC
 70
     0
  9
$MENU
  1
ACAD
  9
$ELEVATION
 40
0.0
  9
$PELEVATION
 40
0.0
  9
$THICKNESS
 40
0.0
  9
$LIMCHECK
 70
     0
  9
$BLIPMODE
 70
     0
  9
$CHAMFERA
 40
0.0
  9
$CHAMFERB
 40
0.0
  9
$SKPOLY
 70
     0
  9
$TDCREATE
 40
2455397.867048610933125
  9
$TDUPDATE
 40
2460278.5487962961196899
  9
$TDINDWG
 40
0.5801677431
  9
$TDUSRTIMER
 40
0.5801677431
  9
$USRTIMER
 70
     1
  9
$ANGBASE
 50
0.0
  9
$ANGDIR
 70
     0
  9
$PDMODE
 70
     0
  9
$PDSIZE
 40
0.0
  9
$PLINEWID
 40
0.0
  9
$COORDS
 70
     1
  9
$SPLFRAME
 70
     0
  9
$SPLINETYPE
 70
     6
  9
$SPLINESEGS
 70
     8
  9
$ATTDIA
 70
     1
  9
$ATTREQ
 70
     1
  9
$HANDLING
 70
     1
  9
$HANDSEED
  5
4970
  9
$SURFTAB1
 70
     6
  9
$SURFTAB2
 70
     6
  9
$SURFTYPE
 70
     6
  9
$SURFU
 70
     6
  9
$SURFV
 70
     6
  9
$UCSNAME
  2

  9
$UCSORG
 10
0.0
 20
0.0
 30
0.0
  9
$UCSXDIR
 10
1.0
 20
0.0
 30
0.0
  9
$UCSYDIR
 10
0.0
 20
1.0
 30
0.0
  9
$PUCSNAME
  2

  9
$PUCSORG
 10
0.0
 20
0.0
 30
0.0
  9
$PUCSXDIR
 10
1.0
 20
0.0
 30
0.0
  9
$PUCSYDIR
 10
0.0
 20
1.0
 30
0.0
  9
$USERI1
 70
     0
  9
$USERI2
 70
     0
  9
$USERI3
 70
     0
  9
$USERI4
 70
     0
  9
$USERI5
 70
     0
  9
$USERR1
 40
0.0
  9
$USERR2
 40
0.0
  9
$USERR3
 40
0.0
  9
$USERR4
 40
0.0
  9
$USERR5
 40
0.0
  9
$WORLDVIEW
 70
     1
  9
$SHADEDGE
 70
     3
  9
$SHADEDIF
 70
    70
  9
$TILEMODE
 70
     1
  9
$MAXACTVP
 70
    16
  9
$PLIMCHECK
 70
     0
  9
$PEXTMIN
 10
1.0000000000000000E+20
 20
1.0000000000000000E+20
 30
1.0000000000000000E+20
  9
$PEXTMAX
 10
-1.0000000000000000E+20
 20
-1.0000000000000000E+20
 30
-1.0000000000000000E+20
  9
$PLIMMIN
 10
-0.2797506448162039
 20
-0.2402878522961487
  9
$PLIMMAX
 10
419.7202493551837961
 20
296.7597121477039082
  9
$UNITMODE
 70
     0
  9
$VISRETAIN
 70
     0
  9
$PLINEGEN
 70
     0
  9
$PSLTSCALE
 70
     0
  0
ENDSEC
  0
SECTION
  2
TABLES
  0
TABLE
  2
VPORT
 70
     1
  0
VPORT
  2
*ACTIVE
 70
     0
 10
0.0
 20
0.0
 11
1.0
 21
1.0
 12
-0.0000000000000568
 22
0.0000000000001137
 13
0.0
 23
0.0
 14
1.0
 24
1.0
 15
10.0
 25
10.0
 16
0.0000000000006253
 26
0.0
 36
2717.3179159564401743
 17
-340.0000000000002274
 27
-365.0000000000002274
 37
0.000000000000118
 40
1075.473145780051027
 41
1.8720136518771331
 42
50.0
 43
0.0
 44
0.0
 50
0.0
 51
0.0
 71
     0
 72
  1500
 73
     1
 74
     0
 75
     0
 76
     0
 77
     0
 78
     0
  0
ENDTAB
  0
TABLE
  2
LTYPE
 70
     4
  0
LTYPE
  2
CONTINUOUS
 70
     0
  3
Solid line
 72
    65
 73
     0
 40
0.0
  0
LTYPE
  2
STRICHPUNKT
 70
     0
  3
__ . __ . __ . __ . __ . __ . __ . __ . __ . __
 72
    65
 73
     4
 40
1.0
 49
0.5
 49
-0.25
 49
0.0
 49
-0.25
  0
LTYPE
  2
VERDECKT
 70
     0
  3
Verdeckt __ __ __ __ __ __ __ __ __ __ __ __ __
 72
    65
 73
     2
 40
0.375
 49
0.25
 49
-0.125
  0
ENDTAB
  0
TABLE
  2
LAYER
 70
     5
  0
LAYER
  2
0
 70
     0
 62
     7
  6
CONTINUOUS
  0
LAYER
  2
STEMPEL
 70
     0
 62
     3
  6
CONTINUOUS
  0
LAYER
  2
ADSK_ASSOC_ENTITY_BACKUPS
 70
     1
 62
    -7
  6
CONTINUOUS
  0
ENDTAB
  0
TABLE
  2
STYLE
 70
     2
  0
STYLE
  2
STANDARD
 70
     0
 40
0.0
 41
0.8
 50
0.0
 71
     0
 42
3.5
  3
simplex.shx
  4

  0
ENDTAB
  0
TABLE
  2
VIEW
 70
     0
  0
ENDTAB
  0
TABLE
  2
UCS
 70
     0
  0
ENDTAB
  0
TABLE
  2
APPID
 70
    27
  0
APPID
  2
ACAD
 70
     0
  0
APPID
  2
ACAD_NAV_VCDISPLAY
 70
     0
  0
APPID
  2
GRADIENTCOLOR1ACI
 70
     0
  0
APPID
  2
GRADIENTCOLOR2ACI
 70
     0
  0
APPID
  2
ACAD_DSTYLE_DIMRADIAL_EXTENSION
 70
     0
  0
APPID
  2
ACADANNOMONITORALERTICONDI
 70
     0
  0
APPID
  2
ACAD_EXEMPT_FROM_CAD_STANDARDS
 70
     0
  0
APPID
  2
ACAD_MLEADERVER
 70
     0
  0
APPID
  2
ACAD_PSEXT
 70
     0
  0
APPID
  2
ACAECLAYERSTANDARD
 70
     0
  0
APPID
  2
ACAUTHENVIRON
 70
     0
  0
APPID
  2
ACCMTRANSPARENCY
 70
     0
  0
APPID
  2
ACAD_STEPID
 70
     0
  0
APPID
  2
ACSYNERGY
 70
     0
  0
APPID
  2
SYNERGY_BODY_TBR_ID
 70
     0
  0
APPID
  2
ACAD_VIEW_EDGE_ID
 70
     0
  0
APPID
  2
ACAD_MODELDOC_XFORM
 70
     0
  0
APPID
  2
ACAD_DIMASSOC_CALC_DIMLFAC
 70
     0
  0
APPID
  2
ACAD_DIMASSOC_DIMLFAC
 70
     0
  0
APPID
  2
ACAD_DIMASSOC_OVERRIDDEN_D
 70
     0
  0
APPID
  2
ACSYNERGYSKETCH
 70
     0
  0
APPID
  2
ACAD_DSTYLE_DIMJAG
 70
     0
  0
APPID
  2
ACAD_DSTYLE_DIMTALN
 70
     0
  0
APPID
  2
ACDBDYNAMICBLOCKGUID
 70
     0
  0
APPID
  2
ACAD_DSTYLE_DIMBREAK
 70
     0
  0
APPID
  2
PLOTTRANSPARENCY
 70
     0
  0
APPID
  2
ACADANNOPO
 70
     0
  0
ENDTAB
  0
TABLE
  2
DIMSTYLE
 70
     1
  0
DIMSTYLE
  2
LORO
 70
     0
  3

  4

  5

  6

  7

 40
1.0
 41
3.5
 42
1.0
 43
0.38
 44
1.0
 45
0.0
 46
0.0
 47
0.0
 48
0.000000001
140
3.5
141
0.09
142
0.0
143
25.3999999999999986
144
5.0
145
0.0
146
0.5
147
1.5
 71
     0
 72
     0
 73
     0
 74
     0
 75
     0
 76
     0
 77
     1
 78
     8
170
     0
171
     2
172
     1
173
     0
174
     0
175
     0
176
     0
177
     0
178
     1
  0
ENDTAB
  0
ENDSEC
  0
SECTION
  2
BLOCKS
  0
BLOCK
  8
0
  2
$MODEL_SPACE
 70
     0
 10
0.0
 20
0.0
 30
0.0
  3
$MODEL_SPACE
  1

  0
ENDBLK
  5
38
  8
0
  0
BLOCK
 67
     1
  8
0
  2
$PAPER_SPACE
 70
     0
 10
0.0
 20
0.0
 30
0.0
  3
$PAPER_SPACE
  1

  0
ENDBLK
  5
36
 67
     1
  8
0
  0
BLOCK
  8
0
  2
*S0
 70
     1
 10
0.0
 20
0.0
 30
0.0
  3
*S0
  1

  0
ENDBLK
  5
D6E
  8
0
  0
BLOCK
  8
0
  2
A$CCCEDC863
 70
     0
 10
0.0
 20
0.0
 30
0.0
  3
A$CCCEDC863
  1

  0
LINE
  5
408F
  8
0
  6
CONTINUOUS
 62
     3
 10
149.2499999999998863
 20
508.3690120088241997
 30
0.000000000000032
 11
149.2499999999998863
 21
484.665541371889617
 31
0.000000000000032
  0
LINE
  5
4090
  8
0
  6
CONTINUOUS
 62
     3
 10
149.2499999999998863
 20
484.665541371889617
 30
0.000000000000032
 11
149.2499999999998863
 21
484.5870374375252254
 31
0.000000000000032
  0
LINE
  5
4091
  8
0
  6
CONTINUOUS
 62
     3
 10
149.2499999999998863
 20
1.578503934364397
 30
0.0000000000000355
 11
149.2499999999998863
 21
1.499999999999982
 31
0.0000000000000355
  0
LINE
  5
4092
  8
0
  6
CONTINUOUS
 62
     3
 10
149.2499999999998863
 20
19.8034929436353799
 30
0.0000000000000355
 11
149.2499999999998863
 21
1.578503934364452
 31
0.0000000000000355
  0
LINE
  5
4093
  8
0
  6
CONTINUOUS
 62
     3
 10
149.2499999999998863
 20
25.2959553847855112
 30
0.0000000000000355
 11
149.2499999999998863
 21
25.2174514504210912
 31
0.0000000000000355
  0
LINE
  5
4094
  8
0
  6
CONTINUOUS
 62
     3
 10
149.2499999999998863
 20
134.6458894404113948
 30
0.0000000000000355
 11
149.2499999999998863
 21
25.2959553847855183
 31
0.0000000000000355
  0
LINE
  5
4095
  8
0
  6
CONTINUOUS
 62
     3
 10
149.2499999999998863
 20
140.1383518815615048
 30
0.0000000000000355
 11
149.2499999999998863
 21
140.0598479471971132
 31
0.0000000000000355
  0
LINE
  5
4096
  8
0
  6
CONTINUOUS
 62
     3
 10
149.2499999999998863
 20
249.4882859371874986
 30
0.0000000000000355
 11
149.2499999999998863
 21
140.1383518815615901
 31
0.0000000000000355
  0
LINE
  5
4097
  8
0
  6
CONTINUOUS
 62
     3
 10
149.2499999999998863
 20
254.9807483783376085
 30
0.0000000000000355
 11
149.2499999999998863
 21
254.9022444439731885
 31
0.0000000000000355
  0
LINE
  5
4098
  8
0
  6
CONTINUOUS
 62
     3
 10
149.2499999999998863
 20
364.3306824339634886
 30
0.000000000000032
 11
149.2499999999998863
 21
254.9807483783376085
 31
0.000000000000032
  0
LINE
  5
4099
  8
0
  6
CONTINUOUS
 62
     3
 10
149.2499999999998863
 20
369.8231448751135986
 30
0.000000000000032
 11
149.2499999999998863
 21
369.7446409407492069
 31
0.000000000000032
  0
LINE
  5
409A
  8
0
  6
CONTINUOUS
 62
     3
 10
149.2499999999998863
 20
479.1730789307392797
 30
0.000000000000032
 11
149.2499999999998863
 21
369.8231448751137123
 31
0.000000000000032
  0
LINE
  5
409B
  8
0
  6
CONTINUOUS
 62
     3
 10
149.2499999999998863
 20
369.8231448751135986
 30
0.000000000000032
 11
148.4999999999998863
 21
369.8231448751135986
 31
0.0000000000000318
  0
LINE
  5
409C
  8
0
  6
CONTINUOUS
 62
     3
 10
149.2499999999998863
 20
369.7446409407492069
 30
0.000000000000032
 11
148.4999999999998863
 21
369.7446409407492069
 31
0.0000000000000318
  0
LINE
  5
409D
  8
0
  6
CONTINUOUS
 62
     3
 10
149.2499999999998863
 20
254.9807483783376085
 30
0.0000000000000355
 11
148.4999999999998863
 21
254.9807483783376085
 31
0.0000000000000354
  0
LINE
  5
409E
  8
0
  6
CONTINUOUS
 62
     3
 10
149.2499999999998863
 20
254.9022444439731885
 30
0.0000000000000355
 11
148.4999999999998863
 21
254.9022444439731885
 31
0.0000000000000354
  0
LINE
  5
409F
  8
0
  6
CONTINUOUS
 62
     3
 10
149.2499999999998863
 20
140.1383518815615901
 30
0.0000000000000355
 11
148.4999999999998863
 21
140.1383518815615901
 31
0.0000000000000354
  0
LINE
  5
40A0
  8
0
  6
CONTINUOUS
 62
     3
 10
149.2499999999998863
 20
140.0598479471971132
 30
0.0000000000000355
 11
148.4999999999998863
 21
140.0598479471971132
 31
0.0000000000000354
  0
LINE
  5
40A1
  8
0
  6
CONTINUOUS
 62
     3
 10
149.2499999999998863
 20
25.2959553847855183
 30
0.0000000000000355
 11
148.5
 21
25.2959553847855183
 31
0.0000000000000354
  0
LINE
  5
40A2
  8
0
  6
CONTINUOUS
 62
     3
 10
149.2499999999998863
 20
25.2174514504210983
 30
0.0000000000000355
 11
148.5
 21
25.2174514504210983
 31
0.0000000000000354
  0
LINE
  5
40A3
  8
0
  6
CONTINUOUS
 62
     3
 10
149.2499999999998863
 20
1.5785039343644509
 30
0.0000000000000355
 11
102.5
 21
1.5785039343644509
 31
0.0000000000000251
  0
LINE
  5
40A4
  8
0
  6
CONTINUOUS
 62
     3
 10
-148.5
 20
25.2174514504210983
 30
-0.0000000000000355
 11
-149.2499999999998863
 21
25.2174514504210983
 31
-0.0000000000000357
  0
LINE
  5
40A5
  8
0
  6
CONTINUOUS
 62
     3
 10
-148.4999999999998863
 20
140.0598479471971132
 30
-0.0000000000000355
 11
-149.2499999999998863
 21
140.0598479471971132
 31
-0.0000000000000357
  0
LINE
  5
40A6
  8
0
  6
CONTINUOUS
 62
     3
 10
-148.4999999999998863
 20
254.9022444439731885
 30
-0.0000000000000355
 11
-149.2499999999998863
 21
254.9022444439731885
 31
-0.0000000000000357
  0
LINE
  5
40A7
  8
0
  6
CONTINUOUS
 62
     3
 10
-148.4999999999998863
 20
369.7446409407492069
 30
-0.000000000000032
 11
-149.2499999999998863
 21
369.7446409407492069
 31
-0.0000000000000321
  0
LINE
  5
40A8
  8
0
  6
CONTINUOUS
 62
     3
 10
-148.4999999999998863
 20
484.5870374375251117
 30
-0.000000000000032
 11
-149.2499999999998863
 21
484.5870374375251117
 31
-0.0000000000000321
  0
LINE
  5
40A9
  8
0
  6
CONTINUOUS
 62
     3
 10
149.2499999999998863
 20
484.5870374375251117
 30
0.000000000000032
 11
148.4999999999998863
 21
484.5870374375251117
 31
0.0000000000000318
  0
LINE
  5
40AA
  8
0
  6
CONTINUOUS
 62
     3
 10
149.2499999999998863
 20
484.6655413718895034
 30
0.000000000000032
 11
148.4999999999998863
 21
484.6655413718895034
 31
0.0000000000000318
  0
LINE
  5
40AB
  8
0
  6
CONTINUOUS
 62
     3
 10
148.4999999999998863
 20
484.6655413718895034
 30
0.000000000000032
 11
148.4999999999998863
 21
479.1730789307392797
 31
0.000000000000032
  0
LINE
  5
40AC
  8
0
  6
CONTINUOUS
 62
     3
 10
148.4999999999998863
 20
479.1730789307392797
 30
0.000000000000032
 11
149.2499999999998863
 21
479.1730789307392797
 31
0.0000000000000321
  0
LINE
  5
40AD
  8
0
  6
CONTINUOUS
 62
     3
 10
148.4999999999998863
 20
369.8231448751135986
 30
0.000000000000032
 11
148.4999999999998863
 21
364.3306824339634886
 31
0.000000000000032
  0
LINE
  5
40AE
  8
0
  6
CONTINUOUS
 62
     3
 10
148.4999999999998863
 20
364.3306824339634886
 30
0.000000000000032
 11
149.2499999999998863
 21
364.3306824339634886
 31
0.0000000000000321
  0
LINE
  5
40AF
  8
0
  6
CONTINUOUS
 62
     3
 10
148.4999999999998863
 20
254.9807483783376085
 30
0.0000000000000355
 11
148.4999999999998863
 21
249.4882859371874133
 31
0.0000000000000355
  0
LINE
  5
40B0
  8
0
  6
CONTINUOUS
 62
     3
 10
148.4999999999998863
 20
249.4882859371874986
 30
0.0000000000000355
 11
149.2499999999998863
 21
249.4882859371874986
 31
0.0000000000000357
  0
LINE
  5
40B1
  8
0
  6
CONTINUOUS
 62
     3
 10
148.4999999999998863
 20
140.1383518815615901
 30
0.0000000000000355
 11
148.4999999999998863
 21
134.6458894404113948
 31
0.0000000000000355
  0
LINE
  5
40B2
  8
0
  6
CONTINUOUS
 62
     3
 10
148.4999999999998863
 20
134.6458894404113948
 30
0.0000000000000355
 11
149.2499999999998863
 21
134.6458894404113948
 31
0.0000000000000357
  0
LINE
  5
40B3
  8
0
  6
CONTINUOUS
 62
     3
 10
148.5
 20
25.2959553847855183
 30
0.0000000000000355
 11
148.5
 21
19.8034929436353515
 31
0.0000000000000355
  0
LINE
  5
40B4
  8
0
  6
CONTINUOUS
 62
     3
 10
148.5
 20
19.8034929436353799
 30
0.0000000000000355
 11
149.2499999999998863
 21
19.8034929436354012
 31
0.0000000000000357
  0
LINE
  5
40B5
  8
0
  6
CONTINUOUS
 62
     3
 10
102.5000000000000995
 20
1.5785039343644509
 30
0.0000000000000213
 11
102.5000000000000995
 21
1.50000000000001
 31
0.0000000000000213
  0
LINE
  5
40B6
  8
0
  6
CONTINUOUS
 62
     3
 10
97.5000000000000711
 20
1.50000000000001
 30
0.0000000000000213
 11
97.5000000000000711
 21
1.5785039343644489
 31
0.0000000000000213
  0
LINE
  5
40B7
  8
0
  6
CONTINUOUS
 62
     3
 10
97.5000000000000711
 20
1.5785039343644509
 30
0.0000000000000213
 11
2.5000000000000142
 21
1.5785039343644509
 31
0.0000000000000002
  0
LINE
  5
40B8
  8
0
  6
CONTINUOUS
 62
     3
 10
2.5000000000000111
 20
1.5785039343644509
 30
0.0
 11
2.5000000000000111
 21
1.50000000000001
 31
0.0
  0
LINE
  5
40B9
  8
0
  6
CONTINUOUS
 62
     3
 10
-2.499999999999988
 20
1.50000000000001
 30
0.0
 11
-2.499999999999988
 21
1.578503934364442
 31
0.0
  0
LINE
  5
40BA
  8
0
  6
CONTINUOUS
 62
     3
 10
-2.499999999999988
 20
1.5785039343644509
 30
0.0
 11
-97.4999999999999147
 21
1.5785039343644161
 31
-0.0000000000000211
  0
LINE
  5
40BB
  8
0
  6
CONTINUOUS
 62
     3
 10
-97.4999999999999147
 20
1.5785039343643941
 30
-0.0000000000000213
 11
-97.4999999999999147
 21
1.50000000000001
 31
-0.0000000000000213
  0
LINE
  5
40BC
  8
0
  6
CONTINUOUS
 62
     3
 10
-102.5
 20
1.50000000000001
 30
-0.0000000000000213
 11
-102.5
 21
1.578503934364428
 31
-0.0000000000000213
  0
LINE
  5
40BD
  8
0
  6
CONTINUOUS
 62
     3
 10
-149.2499999999998863
 20
1.499999999999982
 30
-0.0000000000000355
 11
-149.2499999999998863
 21
1.578503934364397
 31
-0.0000000000000355
  0
LINE
  5
40BE
  8
0
  6
CONTINUOUS
 62
     3
 10
-102.5
 20
1.5785039343644509
 30
-0.0000000000000213
 11
-149.2499999999998863
 21
1.5785039343644509
 31
-0.0000000000000317
  0
LINE
  5
40BF
  8
0
  6
CONTINUOUS
 62
     3
 10
-148.5
 20
19.8034929436353799
 30
-0.0000000000000355
 11
-148.5
 21
25.2959553847855503
 31
-0.0000000000000355
  0
LINE
  5
40C0
  8
0
  6
CONTINUOUS
 62
     3
 10
-149.2499999999998863
 20
25.2174514504210912
 30
-0.0000000000000355
 11
-149.2499999999998863
 21
25.2959553847855112
 31
-0.0000000000000355
  0
LINE
  5
40C1
  8
0
  6
CONTINUOUS
 62
     3
 10
-148.5
 20
25.2959553847855183
 30
-0.0000000000000355
 11
-149.2499999999998863
 21
25.2959553847855183
 31
-0.0000000000000357
  0
LINE
  5
40C2
  8
0
  6
CONTINUOUS
 62
     3
 10
-148.4999999999998863
 20
134.6458894404113948
 30
-0.0000000000000355
 11
-148.4999999999998863
 21
140.1383518815615901
 31
-0.0000000000000355
  0
LINE
  5
40C3
  8
0
  6
CONTINUOUS
 62
     3
 10
-149.2499999999998863
 20
140.0598479471971132
 30
-0.0000000000000355
 11
-149.2499999999998863
 21
140.1383518815615048
 31
-0.0000000000000355
  0
LINE
  5
40C4
  8
0
  6
CONTINUOUS
 62
     3
 10
-148.4999999999998863
 20
140.1383518815615901
 30
-0.0000000000000355
 11
-149.2499999999998863
 21
140.1383518815615901
 31
-0.0000000000000357
  0
LINE
  5
40C5
  8
0
  6
CONTINUOUS
 62
     3
 10
-148.4999999999998863
 20
249.4882859371874986
 30
-0.0000000000000355
 11
-148.4999999999998863
 21
254.9807483783376085
 31
-0.0000000000000355
  0
LINE
  5
40C6
  8
0
  6
CONTINUOUS
 62
     3
 10
-149.2499999999998863
 20
254.9022444439731885
 30
-0.0000000000000355
 11
-149.2499999999998863
 21
254.9807483783376085
 31
-0.0000000000000355
  0
LINE
  5
40C7
  8
0
  6
CONTINUOUS
 62
     3
 10
-148.4999999999998863
 20
254.9807483783376085
 30
-0.0000000000000355
 11
-149.2499999999998863
 21
254.9807483783376085
 31
-0.0000000000000357
  0
LINE
  5
40C8
  8
0
  6
CONTINUOUS
 62
     3
 10
-148.4999999999998863
 20
364.3306824339634886
 30
-0.000000000000032
 11
-148.4999999999998863
 21
369.8231448751135986
 31
-0.000000000000032
  0
LINE
  5
40C9
  8
0
  6
CONTINUOUS
 62
     3
 10
-149.2499999999998863
 20
369.7446409407492069
 30
-0.000000000000032
 11
-149.2499999999998863
 21
369.8231448751135986
 31
-0.000000000000032
  0
LINE
  5
40CA
  8
0
  6
CONTINUOUS
 62
     3
 10
-148.4999999999998863
 20
369.8231448751135986
 30
-0.000000000000032
 11
-149.2499999999998863
 21
369.8231448751135986
 31
-0.0000000000000321
  0
LINE
  5
40CB
  8
0
  6
CONTINUOUS
 62
     3
 10
-148.4999999999998863
 20
479.1730789307392797
 30
-0.000000000000032
 11
-148.4999999999998863
 21
484.6655413718895034
 31
-0.000000000000032
  0
LINE
  5
40CC
  8
0
  6
CONTINUOUS
 62
     3
 10
-149.2499999999998863
 20
484.5870374375252254
 30
-0.000000000000032
 11
-149.2499999999998863
 21
484.665541371889617
 31
-0.000000000000032
  0
LINE
  5
40CD
  8
0
  6
CONTINUOUS
 62
     3
 10
-148.4999999999998863
 20
484.6655413718895034
 30
-0.000000000000032
 11
-149.2499999999998863
 21
484.6655413718895034
 31
-0.0000000000000321
  0
LINE
  5
40CE
  8
0
  6
CONTINUOUS
 62
     3
 10
-149.2499999999998863
 20
1.5785039343644509
 30
-0.0000000000000355
 11
-149.2499999999998863
 21
19.8034929436353515
 31
-0.0000000000000355
  0
LINE
  5
40CF
  8
0
  6
CONTINUOUS
 62
     3
 10
-149.2499999999998863
 20
508.3690120088241997
 30
-0.000000000000032
 11
149.2499999999998863
 21
508.3690120088241997
 31
0.0000000000000343
  0
LINE
  5
40D0
  8
0
  6
CONTINUOUS
 62
     3
 10
-149.2499999999998863
 20
484.665541371889617
 30
-0.000000000000032
 11
-149.2499999999998863
 21
508.3690120088241997
 31
-0.000000000000032
  0
LINE
  5
40D1
  8
0
  6
CONTINUOUS
 62
     3
 10
-149.2499999999998863
 20
479.1730789307392797
 30
-0.000000000000032
 11
-148.4999999999998863
 21
479.1730789307393934
 31
-0.0000000000000318
  0
LINE
  5
40D2
  8
0
  6
CONTINUOUS
 62
     3
 10
-149.2499999999998863
 20
369.8231448751137123
 30
-0.000000000000032
 11
-149.2499999999998863
 21
479.1730789307392797
 31
-0.000000000000032
  0
LINE
  5
40D3
  8
0
  6
CONTINUOUS
 62
     3
 10
-149.2499999999998863
 20
364.3306824339634886
 30
-0.000000000000032
 11
-148.4999999999998863
 21
364.3306824339634886
 31
-0.0000000000000318
  0
LINE
  5
40D4
  8
0
  6
CONTINUOUS
 62
     3
 10
-149.2499999999998863
 20
254.9807483783376085
 30
-0.0000000000000355
 11
-149.2499999999998863
 21
364.3306824339634886
 31
-0.0000000000000355
  0
LINE
  5
40D5
  8
0
  6
CONTINUOUS
 62
     3
 10
-149.2499999999998863
 20
249.4882859371874986
 30
-0.0000000000000355
 11
-148.4999999999998863
 21
249.4882859371874986
 31
-0.0000000000000354
  0
LINE
  5
40D6
  8
0
  6
CONTINUOUS
 62
     3
 10
-149.2499999999998863
 20
140.1383518815615901
 30
-0.0000000000000355
 11
-149.2499999999998863
 21
249.4882859371874986
 31
-0.0000000000000355
  0
LINE
  5
40D7
  8
0
  6
CONTINUOUS
 62
     3
 10
-149.2499999999998863
 20
134.6458894404113948
 30
-0.0000000000000355
 11
-148.4999999999998863
 21
134.6458894404113948
 31
-0.0000000000000354
  0
LINE
  5
40D8
  8
0
  6
CONTINUOUS
 62
     3
 10
-149.2499999999998863
 20
25.2959553847855183
 30
-0.0000000000000355
 11
-149.2499999999998863
 21
134.6458894404113948
 31
-0.0000000000000355
  0
LINE
  5
40D9
  8
0
  6
CONTINUOUS
 62
     3
 10
-149.2499999999998863
 20
19.8034929436353906
 30
-0.0000000000000355
 11
-148.5
 21
19.8034929436353693
 31
-0.0000000000000354
  0
LINE
  5
40DA
  8
0
  6
CONTINUOUS
 62
     3
 10
-269.9999999999998863
 20
1.5000000000000091
 30
-0.0000000000000568
 11
-269.9999999999998863
 21
0.0000000000000089
 31
-0.0000000000000568
  0
LINE
  5
40DB
  8
0
  6
CONTINUOUS
 62
     3
 10
-250.0
 20
0.0000000000000101
 30
-0.0000000000000568
 11
-269.9999999999998863
 21
0.0000000000000089
 31
-0.0000000000000568
  0
LINE
  5
40DC
  8
0
  6
CONTINUOUS
 62
     3
 10
-250.0
 20
1.50000000000001
 30
-0.0000000000000568
 11
-269.9999999999998863
 21
1.5000000000000091
 31
-0.0000000000000568
  0
LINE
  5
40DD
  8
0
  6
CONTINUOUS
 62
     3
 10
-250.0
 20
0.0000000000000102
 30
-0.0000000000000568
 11
250.0
 21
0.0000000000000102
 31
0.0000000000000542
  0
LINE
  5
40DE
  8
0
  6
CONTINUOUS
 62
     3
 10
-250.0
 20
1.50000000000001
 30
-0.0000000000000568
 11
250.0
 21
1.50000000000001
 31
0.0000000000000542
  0
LINE
  5
40DF
  8
0
  6
CONTINUOUS
 62
     3
 10
270.0000000000001137
 20
0.0000000000000089
 30
0.0000000000000568
 11
250.0
 21
0.0000000000000101
 31
0.0000000000000568
  0
LINE
  5
40E0
  8
0
  6
CONTINUOUS
 62
     3
 10
270.0000000000001137
 20
1.5000000000000091
 30
0.0000000000000568
 11
270.0000000000001137
 21
0.0000000000000089
 31
0.0000000000000568
  0
LINE
  5
40E1
  8
0
  6
CONTINUOUS
 62
     3
 10
270.0000000000001137
 20
1.5000000000000091
 30
0.0000000000000568
 11
250.0
 21
1.50000000000001
 31
0.0000000000000568
  0
LINE
  5
40E2
  8
0
  6
CONTINUOUS
 62
     3
 10
150.0000000000005969
 20
254.7310909946486106
 30
0.0000000000000355
 11
148.5000000000005969
 21
254.7310909946486106
 31
0.0000000000000352
  0
LINE
  5
40E3
  8
0
  6
CONTINUOUS
 62
     3
 10
-148.5000000000005116
 20
254.7310909946486106
 30
-0.0000000000000355
 11
-150.0000000000005116
 21
254.7310909946486106
 31
-0.0000000000000359
  0
LINE
  5
40E4
  8
0
  6
CONTINUOUS
 62
     3
 10
150.0000000000005969
 20
364.5018358832874128
 30
0.000000000000032
 11
148.5000000000005969
 21
364.5018358832874128
 31
0.0000000000000316
  0
LINE
  5
40E5
  8
0
  6
CONTINUOUS
 62
     3
 10
150.0000000000005969
 20
364.5803398176518044
 30
0.000000000000032
 11
150.0000000000005969
 21
364.5018358832874128
 31
0.000000000000032
  0
LINE
  5
40E6
  8
0
  6
CONTINUOUS
 62
     3
 10
148.5000000000005969
 20
364.5803398176518044
 30
0.000000000000032
 11
150.0000000000005969
 21
364.5803398176518044
 31
0.0000000000000323
  0
LINE
  5
40E7
  8
0
  6
CONTINUOUS
 62
     3
 10
150.0000000000005969
 20
364.5018358832874128
 30
0.000000000000032
 11
150.0000000000005969
 21
254.7310909946486959
 31
0.000000000000032
  0
LINE
  5
40E8
  8
0
  6
CONTINUOUS
 62
     3
 10
-148.5000000000003979
 20
364.5018358832874128
 30
-0.000000000000032
 11
-150.0000000000005116
 21
364.5018358832874128
 31
-0.0000000000000323
  0
LINE
  5
40E9
  8
0
  6
CONTINUOUS
 62
     3
 10
-150.0000000000005116
 20
254.7310909946486959
 30
-0.0000000000000355
 11
-150.0000000000005116
 21
364.5018358832874128
 31
-0.0000000000000355
  0
LINE
  5
40EA
  8
0
  6
CONTINUOUS
 62
     3
 10
-150.0000000000005116
 20
364.5803398176518044
 30
-0.000000000000032
 11
-148.5000000000005116
 21
364.5803398176518044
 31
-0.0000000000000316
  0
LINE
  5
40EB
  8
0
  6
CONTINUOUS
 62
     3
 10
-150.0000000000005116
 20
364.5018358832874128
 30
-0.000000000000032
 11
-150.0000000000005116
 21
364.5803398176518044
 31
-0.000000000000032
  0
LINE
  5
40EC
  8
0
  6
CONTINUOUS
 62
     3
 10
150.0000000000005969
 20
508.2900825166038885
 30
0.000000000000032
 11
150.0000000000005969
 21
484.4158839882006191
 31
0.000000000000032
  0
LINE
  5
40ED
  8
0
  6
CONTINUOUS
 62
     3
 10
150.0000000000005969
 20
508.2900825166038885
 30
0.000000000000032
 11
149.249999999999801
 21
508.2900825166038885
 31
0.0000000000000318
  0
LINE
  5
40EE
  8
0
  6
CONTINUOUS
 62
     3
 10
-149.2499999999998863
 20
508.2900825166038885
 30
-0.000000000000032
 11
-150.0000000000005116
 21
508.2900825166038885
 31
-0.0000000000000321
  0
LINE
  5
40EF
  8
0
  6
CONTINUOUS
 62
     3
 10
-150.0000000000005116
 20
484.4158839882005054
 30
-0.000000000000032
 11
-150.0000000000005116
 21
508.2900825166038885
 31
-0.000000000000032
  0
LINE
  5
40F0
  8
0
  6
CONTINUOUS
 62
     3
 10
150.0000000000005969
 20
484.4158839882006191
 30
0.000000000000032
 11
148.5000000000005969
 21
484.4158839882006191
 31
0.0000000000000316
  0
LINE
  5
40F1
  8
0
  6
CONTINUOUS
 62
     3
 10
-148.5000000000005116
 20
484.4158839882006191
 30
-0.000000000000032
 11
-150.0000000000005116
 21
484.4158839882006191
 31
-0.0000000000000323
  0
LINE
  5
40F2
  8
0
  6
CONTINUOUS
 62
     3
 10
-148.5
 20
598.6611192644649009
 30
-0.0000000000000284
 11
-148.5000000000005116
 21
508.3690120088241997
 31
-0.0000000000000284
  0
POLYLINE
  5
40F3
  8
0
  6
CONTINUOUS
 62
     3
 10
-146.9999999999999716
 20
600.0805596322323936
 30
-0.0000000000000284
 66
     1
 70
     8
  0
VERTEX
  8
0
  5
4358
 10
-147.000
 20
600.081
 30
-2.84000e-14
  70
    32
  0
VERTEX
  8
0
  5
4359
 10
-147.018
 20
600.080
 30
-2.84037e-14
  70
    32
  0
VERTEX
  8
0
  5
435A
 10
-147.037
 20
600.080
 30
-2.84074e-14
  70
    32
  0
VERTEX
  8
0
  5
435B
 10
-147.055
 20
600.080
 30
-2.84110e-14
  70
    32
  0
VERTEX
  8
0
  5
435C
 10
-147.074
 20
600.079
 30
-2.84147e-14
  70
    32
  0
VERTEX
  8
0
  5
435D
 10
-147.092
 20
600.078
 30
-2.84184e-14
  70
    32
  0
VERTEX
  8
0
  5
435E
 10
-147.110
 20
600.077
 30
-2.84221e-14
  70
    32
  0
VERTEX
  8
0
  5
435F
 10
-147.129
 20
600.075
 30
-2.84257e-14
  70
    32
  0
VERTEX
  8
0
  5
4360
 10
-147.147
 20
600.074
 30
-2.84294e-14
  70
    32
  0
VERTEX
  8
0
  5
4361
 10
-147.165
 20
600.072
 30
-2.84331e-14
  70
    32
  0
VERTEX
  8
0
  5
4362
 10
-147.184
 20
600.070
 30
-2.84367e-14
  70
    32
  0
VERTEX
  8
0
  5
4363
 10
-147.202
 20
600.068
 30
-2.84404e-14
  70
    32
  0
VERTEX
  8
0
  5
4364
 10
-147.220
 20
600.065
 30
-2.84440e-14
  70
    32
  0
VERTEX
  8
0
  5
4365
 10
-147.238
 20
600.063
 30
-2.84477e-14
  70
    32
  0
VERTEX
  8
0
  5
4366
 10
-147.256
 20
600.060
 30
-2.84513e-14
  70
    32
  0
VERTEX
  8
0
  5
4367
 10
-147.275
 20
600.057
 30
-2.84549e-14
  70
    32
  0
VERTEX
  8
0
  5
4368
 10
-147.293
 20
600.053
 30
-2.84585e-14
  70
    32
  0
VERTEX
  8
0
  5
4369
 10
-147.311
 20
600.050
 30
-2.84621e-14
  70
    32
  0
VERTEX
  8
0
  5
436A
 10
-147.329
 20
600.046
 30
-2.84657e-14
  70
    32
  0
VERTEX
  8
0
  5
436B
 10
-147.347
 20
600.042
 30
-2.84693e-14
  70
    32
  0
VERTEX
  8
0
  5
436C
 10
-147.364
 20
600.038
 30
-2.84729e-14
  70
    32
  0
VERTEX
  8
0
  5
436D
 10
-147.382
 20
600.034
 30
-2.84765e-14
  70
    32
  0
VERTEX
  8
0
  5
436E
 10
-147.400
 20
600.029
 30
-2.84800e-14
  70
    32
  0
VERTEX
  8
0
  5
436F
 10
-147.418
 20
600.024
 30
-2.84836e-14
  70
    32
  0
VERTEX
  8
0
  5
4370
 10
-147.435
 20
600.019
 30
-2.84871e-14
  70
    32
  0
VERTEX
  8
0
  5
4371
 10
-147.453
 20
600.014
 30
-2.84906e-14
  70
    32
  0
VERTEX
  8
0
  5
4372
 10
-147.471
 20
600.009
 30
-2.84941e-14
  70
    32
  0
VERTEX
  8
0
  5
4373
 10
-147.488
 20
600.003
 30
-2.84976e-14
  70
    32
  0
VERTEX
  8
0
  5
4374
 10
-147.505
 20
599.998
 30
-2.85011e-14
  70
    32
  0
VERTEX
  8
0
  5
4375
 10
-147.523
 20
599.992
 30
-2.85045e-14
  70
    32
  0
VERTEX
  8
0
  5
4376
 10
-147.540
 20
599.985
 30
-2.85080e-14
  70
    32
  0
VERTEX
  8
0
  5
4377
 10
-147.557
 20
599.979
 30
-2.85114e-14
  70
    32
  0
VERTEX
  8
0
  5
4378
 10
-147.574
 20
599.973
 30
-2.85148e-14
  70
    32
  0
VERTEX
  8
0
  5
4379
 10
-147.591
 20
599.966
 30
-2.85182e-14
  70
    32
  0
VERTEX
  8
0
  5
437A
 10
-147.608
 20
599.959
 30
-2.85216e-14
  70
    32
  0
VERTEX
  8
0
  5
437B
 10
-147.625
 20
599.952
 30
-2.85249e-14
  70
    32
  0
VERTEX
  8
0
  5
437C
 10
-147.641
 20
599.944
 30
-2.85283e-14
  70
    32
  0
VERTEX
  8
0
  5
437D
 10
-147.658
 20
599.937
 30
-2.85316e-14
  70
    32
  0
VERTEX
  8
0
  5
437E
 10
-147.674
 20
599.929
 30
-2.85349e-14
  70
    32
  0
VERTEX
  8
0
  5
437F
 10
-147.691
 20
599.921
 30
-2.85382e-14
  70
    32
  0
VERTEX
  8
0
  5
4380
 10
-147.707
 20
599.913
 30
-2.85414e-14
  70
    32
  0
VERTEX
  8
0
  5
4381
 10
-147.723
 20
599.905
 30
-2.85447e-14
  70
    32
  0
VERTEX
  8
0
  5
4382
 10
-147.739
 20
599.896
 30
-2.85479e-14
  70
    32
  0
VERTEX
  8
0
  5
4383
 10
-147.755
 20
599.887
 30
-2.85511e-14
  70
    32
  0
VERTEX
  8
0
  5
4384
 10
-147.771
 20
599.879
 30
-2.85542e-14
  70
    32
  0
VERTEX
  8
0
  5
4385
 10
-147.787
 20
599.870
 30
-2.85574e-14
  70
    32
  0
VERTEX
  8
0
  5
4386
 10
-147.802
 20
599.860
 30
-2.85605e-14
  70
    32
  0
VERTEX
  8
0
  5
4387
 10
-147.818
 20
599.851
 30
-2.85636e-14
  70
    32
  0
VERTEX
  8
0
  5
4388
 10
-147.833
 20
599.841
 30
-2.85667e-14
  70
    32
  0
VERTEX
  8
0
  5
4389
 10
-147.849
 20
599.832
 30
-2.85697e-14
  70
    32
  0
VERTEX
  8
0
  5
438A
 10
-147.864
 20
599.822
 30
-2.85727e-14
  70
    32
  0
VERTEX
  8
0
  5
438B
 10
-147.879
 20
599.812
 30
-2.85757e-14
  70
    32
  0
VERTEX
  8
0
  5
438C
 10
-147.894
 20
599.801
 30
-2.85787e-14
  70
    32
  0
VERTEX
  8
0
  5
438D
 10
-147.908
 20
599.791
 30
-2.85817e-14
  70
    32
  0
VERTEX
  8
0
  5
438E
 10
-147.923
 20
599.780
 30
-2.85846e-14
  70
    32
  0
VERTEX
  8
0
  5
438F
 10
-147.937
 20
599.769
 30
-2.85875e-14
  70
    32
  0
VERTEX
  8
0
  5
4390
 10
-147.952
 20
599.758
 30
-2.85903e-14
  70
    32
  0
VERTEX
  8
0
  5
4391
 10
-147.966
 20
599.747
 30
-2.85931e-14
  70
    32
  0
VERTEX
  8
0
  5
4392
 10
-147.980
 20
599.736
 30
-2.85960e-14
  70
    32
  0
VERTEX
  8
0
  5
4393
 10
-147.994
 20
599.724
 30
-2.85987e-14
  70
    32
  0
VERTEX
  8
0
  5
4394
 10
-148.007
 20
599.713
 30
-2.86015e-14
  70
    32
  0
VERTEX
  8
0
  5
4395
 10
-148.021
 20
599.701
 30
-2.86042e-14
  70
    32
  0
VERTEX
  8
0
  5
4396
 10
-148.034
 20
599.689
 30
-2.86069e-14
  70
    32
  0
VERTEX
  8
0
  5
4397
 10
-148.048
 20
599.677
 30
-2.86095e-14
  70
    32
  0
VERTEX
  8
0
  5
4398
 10
-148.061
 20
599.665
 30
-2.86121e-14
  70
    32
  0
VERTEX
  8
0
  5
4399
 10
-148.074
 20
599.652
 30
-2.86147e-14
  70
    32
  0
VERTEX
  8
0
  5
439A
 10
-148.086
 20
599.640
 30
-2.86173e-14
  70
    32
  0
VERTEX
  8
0
  5
439B
 10
-148.099
 20
599.627
 30
-2.86198e-14
  70
    32
  0
VERTEX
  8
0
  5
439C
 10
-148.111
 20
599.614
 30
-2.86223e-14
  70
    32
  0
VERTEX
  8
0
  5
439D
 10
-148.124
 20
599.601
 30
-2.86247e-14
  70
    32
  0
VERTEX
  8
0
  5
439E
 10
-148.136
 20
599.588
 30
-2.86272e-14
  70
    32
  0
VERTEX
  8
0
  5
439F
 10
-148.148
 20
599.575
 30
-2.86296e-14
  70
    32
  0
VERTEX
  8
0
  5
43A0
 10
-148.160
 20
599.562
 30
-2.86319e-14
  70
    32
  0
VERTEX
  8
0
  5
43A1
 10
-148.171
 20
599.548
 30
-2.86342e-14
  70
    32
  0
VERTEX
  8
0
  5
43A2
 10
-148.183
 20
599.534
 30
-2.86365e-14
  70
    32
  0
VERTEX
  8
0
  5
43A3
 10
-148.194
 20
599.521
 30
-2.86388e-14
  70
    32
  0
VERTEX
  8
0
  5
43A4
 10
-148.205
 20
599.507
 30
-2.86410e-14
  70
    32
  0
VERTEX
  8
0
  5
43A5
 10
-148.216
 20
599.493
 30
-2.86431e-14
  70
    32
  0
VERTEX
  8
0
  5
43A6
 10
-148.226
 20
599.478
 30
-2.86453e-14
  70
    32
  0
VERTEX
  8
0
  5
43A7
 10
-148.237
 20
599.464
 30
-2.86474e-14
  70
    32
  0
VERTEX
  8
0
  5
43A8
 10
-148.247
 20
599.450
 30
-2.86494e-14
  70
    32
  0
VERTEX
  8
0
  5
43A9
 10
-148.257
 20
599.435
 30
-2.86515e-14
  70
    32
  0
VERTEX
  8
0
  5
43AA
 10
-148.267
 20
599.421
 30
-2.86535e-14
  70
    32
  0
VERTEX
  8
0
  5
43AB
 10
-148.277
 20
599.406
 30
-2.86554e-14
  70
    32
  0
VERTEX
  8
0
  5
43AC
 10
-148.287
 20
599.391
 30
-2.86573e-14
  70
    32
  0
VERTEX
  8
0
  5
43AD
 10
-148.296
 20
599.376
 30
-2.86592e-14
  70
    32
  0
VERTEX
  8
0
  5
43AE
 10
-148.305
 20
599.361
 30
-2.86610e-14
  70
    32
  0
VERTEX
  8
0
  5
43AF
 10
-148.314
 20
599.346
 30
-2.86628e-14
  70
    32
  0
VERTEX
  8
0
  5
43B0
 10
-148.323
 20
599.330
 30
-2.86646e-14
  70
    32
  0
VERTEX
  8
0
  5
43B1
 10
-148.331
 20
599.315
 30
-2.86663e-14
  70
    32
  0
VERTEX
  8
0
  5
43B2
 10
-148.340
 20
599.299
 30
-2.86680e-14
  70
    32
  0
VERTEX
  8
0
  5
43B3
 10
-148.348
 20
599.284
 30
-2.86696e-14
  70
    32
  0
VERTEX
  8
0
  5
43B4
 10
-148.356
 20
599.268
 30
-2.86712e-14
  70
    32
  0
VERTEX
  8
0
  5
43B5
 10
-148.364
 20
599.252
 30
-2.86728e-14
  70
    32
  0
VERTEX
  8
0
  5
43B6
 10
-148.371
 20
599.236
 30
-2.86743e-14
  70
    32
  0
VERTEX
  8
0
  5
43B7
 10
-148.379
 20
599.220
 30
-2.86757e-14
  70
    32
  0
VERTEX
  8
0
  5
43B8
 10
-148.386
 20
599.204
 30
-2.86772e-14
  70
    32
  0
VERTEX
  8
0
  5
43B9
 10
-148.393
 20
599.188
 30
-2.86786e-14
  70
    32
  0
VERTEX
  8
0
  5
43BA
 10
-148.399
 20
599.172
 30
-2.86799e-14
  70
    32
  0
VERTEX
  8
0
  5
43BB
 10
-148.406
 20
599.156
 30
-2.86812e-14
  70
    32
  0
VERTEX
  8
0
  5
43BC
 10
-148.412
 20
599.139
 30
-2.86825e-14
  70
    32
  0
VERTEX
  8
0
  5
43BD
 10
-148.418
 20
599.123
 30
-2.86837e-14
  70
    32
  0
VERTEX
  8
0
  5
43BE
 10
-148.424
 20
599.106
 30
-2.86849e-14
  70
    32
  0
VERTEX
  8
0
  5
43BF
 10
-148.430
 20
599.090
 30
-2.86860e-14
  70
    32
  0
VERTEX
  8
0
  5
43C0
 10
-148.435
 20
599.073
 30
-2.86871e-14
  70
    32
  0
VERTEX
  8
0
  5
43C1
 10
-148.441
 20
599.056
 30
-2.86881e-14
  70
    32
  0
VERTEX
  8
0
  5
43C2
 10
-148.446
 20
599.040
 30
-2.86891e-14
  70
    32
  0
VERTEX
  8
0
  5
43C3
 10
-148.450
 20
599.023
 30
-2.86901e-14
  70
    32
  0
VERTEX
  8
0
  5
43C4
 10
-148.455
 20
599.006
 30
-2.86910e-14
  70
    32
  0
VERTEX
  8
0
  5
43C5
 10
-148.459
 20
598.989
 30
-2.86919e-14
  70
    32
  0
VERTEX
  8
0
  5
43C6
 10
-148.464
 20
598.972
 30
-2.86927e-14
  70
    32
  0
VERTEX
  8
0
  5
43C7
 10
-148.467
 20
598.955
 30
-2.86935e-14
  70
    32
  0
VERTEX
  8
0
  5
43C8
 10
-148.471
 20
598.938
 30
-2.86942e-14
  70
    32
  0
VERTEX
  8
0
  5
43C9
 10
-148.475
 20
598.921
 30
-2.86949e-14
  70
    32
  0
VERTEX
  8
0
  5
43CA
 10
-148.478
 20
598.904
 30
-2.86956e-14
  70
    32
  0
VERTEX
  8
0
  5
43CB
 10
-148.481
 20
598.887
 30
-2.86962e-14
  70
    32
  0
VERTEX
  8
0
  5
43CC
 10
-148.484
 20
598.869
 30
-2.86968e-14
  70
    32
  0
VERTEX
  8
0
  5
43CD
 10
-148.486
 20
598.852
 30
-2.86973e-14
  70
    32
  0
VERTEX
  8
0
  5
43CE
 10
-148.489
 20
598.835
 30
-2.86977e-14
  70
    32
  0
VERTEX
  8
0
  5
43CF
 10
-148.491
 20
598.818
 30
-2.86982e-14
  70
    32
  0
VERTEX
  8
0
  5
43D0
 10
-148.493
 20
598.800
 30
-2.86986e-14
  70
    32
  0
VERTEX
  8
0
  5
43D1
 10
-148.494
 20
598.783
 30
-2.86989e-14
  70
    32
  0
VERTEX
  8
0
  5
43D2
 10
-148.496
 20
598.766
 30
-2.86992e-14
  70
    32
  0
VERTEX
  8
0
  5
43D3
 10
-148.497
 20
598.748
 30
-2.86994e-14
  70
    32
  0
VERTEX
  8
0
  5
43D4
 10
-148.498
 20
598.731
 30
-2.86996e-14
  70
    32
  0
VERTEX
  8
0
  5
43D5
 10
-148.499
 20
598.713
 30
-2.86998e-14
  70
    32
  0
VERTEX
  8
0
  5
43D6
 10
-148.500
 20
598.696
 30
-2.86999e-14
  70
    32
  0
VERTEX
  8
0
  5
43D7
 10
-148.500
 20
598.679
 30
-2.87000e-14
  70
    32
  0
VERTEX
  8
0
  5
43D8
 10
-148.500
 20
598.661
 30
-2.87000e-14
  70
    32
  0
SEQEND
  8
0
  5
43D9
  0
LINE
  5
40F4
  8
0
  6
CONTINUOUS
 62
     3
 10
147.0
 20
600.0805596322322799
 30
0.0000000000000284
 11
-146.9999999999998863
 21
600.0805596322322799
 31
-0.0000000000000369
  0
POLYLINE
  5
40F5
  8
0
  6
CONTINUOUS
 62
     3
 10
148.5000000000001137
 20
598.6611192644649009
 30
0.0000000000000287
 66
     1
 70
     8
  0
VERTEX
  8
0
  5
43DA
 10
148.500
 20
598.661
 30
2.87000e-14
  70
    32
  0
VERTEX
  8
0
  5
43DB
 10
148.500
 20
598.679
 30
2.87000e-14
  70
    32
  0
VERTEX
  8
0
  5
43DC
 10
148.500
 20
598.696
 30
2.86999e-14
  70
    32
  0
VERTEX
  8
0
  5
43DD
 10
148.499
 20
598.713
 30
2.86998e-14
  70
    32
  0
VERTEX
  8
0
  5
43DE
 10
148.498
 20
598.731
 30
2.86996e-14
  70
    32
  0
VERTEX
  8
0
  5
43DF
 10
148.497
 20
598.748
 30
2.86994e-14
  70
    32
  0
VERTEX
  8
0
  5
43E0
 10
148.496
 20
598.766
 30
2.86992e-14
  70
    32
  0
VERTEX
  8
0
  5
43E1
 10
148.494
 20
598.783
 30
2.86989e-14
  70
    32
  0
VERTEX
  8
0
  5
43E2
 10
148.493
 20
598.800
 30
2.86986e-14
  70
    32
  0
VERTEX
  8
0
  5
43E3
 10
148.491
 20
598.818
 30
2.86982e-14
  70
    32
  0
VERTEX
  8
0
  5
43E4
 10
148.489
 20
598.835
 30
2.86977e-14
  70
    32
  0
VERTEX
  8
0
  5
43E5
 10
148.486
 20
598.852
 30
2.86973e-14
  70
    32
  0
VERTEX
  8
0
  5
43E6
 10
148.484
 20
598.869
 30
2.86968e-14
  70
    32
  0
VERTEX
  8
0
  5
43E7
 10
148.481
 20
598.887
 30
2.86962e-14
  70
    32
  0
VERTEX
  8
0
  5
43E8
 10
148.478
 20
598.904
 30
2.86956e-14
  70
    32
  0
VERTEX
  8
0
  5
43E9
 10
148.475
 20
598.921
 30
2.86949e-14
  70
    32
  0
VERTEX
  8
0
  5
43EA
 10
148.471
 20
598.938
 30
2.86942e-14
  70
    32
  0
VERTEX
  8
0
  5
43EB
 10
148.467
 20
598.955
 30
2.86935e-14
  70
    32
  0
VERTEX
  8
0
  5
43EC
 10
148.464
 20
598.972
 30
2.86927e-14
  70
    32
  0
VERTEX
  8
0
  5
43ED
 10
148.459
 20
598.989
 30
2.86919e-14
  70
    32
  0
VERTEX
  8
0
  5
43EE
 10
148.455
 20
599.006
 30
2.86910e-14
  70
    32
  0
VERTEX
  8
0
  5
43EF
 10
148.450
 20
599.023
 30
2.86901e-14
  70
    32
  0
VERTEX
  8
0
  5
43F0
 10
148.446
 20
599.040
 30
2.86891e-14
  70
    32
  0
VERTEX
  8
0
  5
43F1
 10
148.441
 20
599.056
 30
2.86881e-14
  70
    32
  0
VERTEX
  8
0
  5
43F2
 10
148.435
 20
599.073
 30
2.86871e-14
  70
    32
  0
VERTEX
  8
0
  5
43F3
 10
148.430
 20
599.090
 30
2.86860e-14
  70
    32
  0
VERTEX
  8
0
  5
43F4
 10
148.424
 20
599.106
 30
2.86849e-14
  70
    32
  0
VERTEX
  8
0
  5
43F5
 10
148.418
 20
599.123
 30
2.86837e-14
  70
    32
  0
VERTEX
  8
0
  5
43F6
 10
148.412
 20
599.139
 30
2.86825e-14
  70
    32
  0
VERTEX
  8
0
  5
43F7
 10
148.406
 20
599.156
 30
2.86812e-14
  70
    32
  0
VERTEX
  8
0
  5
43F8
 10
148.399
 20
599.172
 30
2.86799e-14
  70
    32
  0
VERTEX
  8
0
  5
43F9
 10
148.393
 20
599.188
 30
2.86786e-14
  70
    32
  0
VERTEX
  8
0
  5
43FA
 10
148.386
 20
599.204
 30
2.86772e-14
  70
    32
  0
VERTEX
  8
0
  5
43FB
 10
148.379
 20
599.220
 30
2.86757e-14
  70
    32
  0
VERTEX
  8
0
  5
43FC
 10
148.371
 20
599.236
 30
2.86743e-14
  70
    32
  0
VERTEX
  8
0
  5
43FD
 10
148.364
 20
599.252
 30
2.86728e-14
  70
    32
  0
VERTEX
  8
0
  5
43FE
 10
148.356
 20
599.268
 30
2.86712e-14
  70
    32
  0
VERTEX
  8
0
  5
43FF
 10
148.348
 20
599.284
 30
2.86696e-14
  70
    32
  0
VERTEX
  8
0
  5
4400
 10
148.340
 20
599.299
 30
2.86680e-14
  70
    32
  0
VERTEX
  8
0
  5
4401
 10
148.331
 20
599.315
 30
2.86663e-14
  70
    32
  0
VERTEX
  8
0
  5
4402
 10
148.323
 20
599.330
 30
2.86646e-14
  70
    32
  0
VERTEX
  8
0
  5
4403
 10
148.314
 20
599.346
 30
2.86628e-14
  70
    32
  0
VERTEX
  8
0
  5
4404
 10
148.305
 20
599.361
 30
2.86610e-14
  70
    32
  0
VERTEX
  8
0
  5
4405
 10
148.296
 20
599.376
 30
2.86592e-14
  70
    32
  0
VERTEX
  8
0
  5
4406
 10
148.287
 20
599.391
 30
2.86573e-14
  70
    32
  0
VERTEX
  8
0
  5
4407
 10
148.277
 20
599.406
 30
2.86554e-14
  70
    32
  0
VERTEX
  8
0
  5
4408
 10
148.267
 20
599.421
 30
2.86535e-14
  70
    32
  0
VERTEX
  8
0
  5
4409
 10
148.257
 20
599.435
 30
2.86515e-14
  70
    32
  0
VERTEX
  8
0
  5
440A
 10
148.247
 20
599.450
 30
2.86494e-14
  70
    32
  0
VERTEX
  8
0
  5
440B
 10
148.237
 20
599.464
 30
2.86474e-14
  70
    32
  0
VERTEX
  8
0
  5
440C
 10
148.226
 20
599.478
 30
2.86453e-14
  70
    32
  0
VERTEX
  8
0
  5
440D
 10
148.216
 20
599.493
 30
2.86431e-14
  70
    32
  0
VERTEX
  8
0
  5
440E
 10
148.205
 20
599.507
 30
2.86410e-14
  70
    32
  0
VERTEX
  8
0
  5
440F
 10
148.194
 20
599.521
 30
2.86388e-14
  70
    32
  0
VERTEX
  8
0
  5
4410
 10
148.183
 20
599.534
 30
2.86365e-14
  70
    32
  0
VERTEX
  8
0
  5
4411
 10
148.171
 20
599.548
 30
2.86342e-14
  70
    32
  0
VERTEX
  8
0
  5
4412
 10
148.160
 20
599.562
 30
2.86319e-14
  70
    32
  0
VERTEX
  8
0
  5
4413
 10
148.148
 20
599.575
 30
2.86296e-14
  70
    32
  0
VERTEX
  8
0
  5
4414
 10
148.136
 20
599.588
 30
2.86272e-14
  70
    32
  0
VERTEX
  8
0
  5
4415
 10
148.124
 20
599.601
 30
2.86247e-14
  70
    32
  0
VERTEX
  8
0
  5
4416
 10
148.111
 20
599.614
 30
2.86223e-14
  70
    32
  0
VERTEX
  8
0
  5
4417
 10
148.099
 20
599.627
 30
2.86198e-14
  70
    32
  0
VERTEX
  8
0
  5
4418
 10
148.086
 20
599.640
 30
2.86173e-14
  70
    32
  0
VERTEX
  8
0
  5
4419
 10
148.074
 20
599.652
 30
2.86147e-14
  70
    32
  0
VERTEX
  8
0
  5
441A
 10
148.061
 20
599.665
 30
2.86121e-14
  70
    32
  0
VERTEX
  8
0
  5
441B
 10
148.048
 20
599.677
 30
2.86095e-14
  70
    32
  0
VERTEX
  8
0
  5
441C
 10
148.034
 20
599.689
 30
2.86069e-14
  70
    32
  0
VERTEX
  8
0
  5
441D
 10
148.021
 20
599.701
 30
2.86042e-14
  70
    32
  0
VERTEX
  8
0
  5
441E
 10
148.007
 20
599.713
 30
2.86015e-14
  70
    32
  0
VERTEX
  8
0
  5
441F
 10
147.994
 20
599.724
 30
2.85987e-14
  70
    32
  0
VERTEX
  8
0
  5
4420
 10
147.980
 20
599.736
 30
2.85960e-14
  70
    32
  0
VERTEX
  8
0
  5
4421
 10
147.966
 20
599.747
 30
2.85931e-14
  70
    32
  0
VERTEX
  8
0
  5
4422
 10
147.952
 20
599.758
 30
2.85903e-14
  70
    32
  0
VERTEX
  8
0
  5
4423
 10
147.937
 20
599.769
 30
2.85875e-14
  70
    32
  0
VERTEX
  8
0
  5
4424
 10
147.923
 20
599.780
 30
2.85846e-14
  70
    32
  0
VERTEX
  8
0
  5
4425
 10
147.908
 20
599.791
 30
2.85817e-14
  70
    32
  0
VERTEX
  8
0
  5
4426
 10
147.894
 20
599.801
 30
2.85787e-14
  70
    32
  0
VERTEX
  8
0
  5
4427
 10
147.879
 20
599.812
 30
2.85757e-14
  70
    32
  0
VERTEX
  8
0
  5
4428
 10
147.864
 20
599.822
 30
2.85727e-14
  70
    32
  0
VERTEX
  8
0
  5
4429
 10
147.849
 20
599.832
 30
2.85697e-14
  70
    32
  0
VERTEX
  8
0
  5
442A
 10
147.833
 20
599.841
 30
2.85667e-14
  70
    32
  0
VERTEX
  8
0
  5
442B
 10
147.818
 20
599.851
 30
2.85636e-14
  70
    32
  0
VERTEX
  8
0
  5
442C
 10
147.802
 20
599.860
 30
2.85605e-14
  70
    32
  0
VERTEX
  8
0
  5
442D
 10
147.787
 20
599.870
 30
2.85574e-14
  70
    32
  0
VERTEX
  8
0
  5
442E
 10
147.771
 20
599.879
 30
2.85542e-14
  70
    32
  0
VERTEX
  8
0
  5
442F
 10
147.755
 20
599.887
 30
2.85511e-14
  70
    32
  0
VERTEX
  8
0
  5
4430
 10
147.739
 20
599.896
 30
2.85479e-14
  70
    32
  0
VERTEX
  8
0
  5
4431
 10
147.723
 20
599.905
 30
2.85447e-14
  70
    32
  0
VERTEX
  8
0
  5
4432
 10
147.707
 20
599.913
 30
2.85414e-14
  70
    32
  0
VERTEX
  8
0
  5
4433
 10
147.691
 20
599.921
 30
2.85382e-14
  70
    32
  0
VERTEX
  8
0
  5
4434
 10
147.674
 20
599.929
 30
2.85349e-14
  70
    32
  0
VERTEX
  8
0
  5
4435
 10
147.658
 20
599.937
 30
2.85316e-14
  70
    32
  0
VERTEX
  8
0
  5
4436
 10
147.641
 20
599.944
 30
2.85283e-14
  70
    32
  0
VERTEX
  8
0
  5
4437
 10
147.625
 20
599.952
 30
2.85249e-14
  70
    32
  0
VERTEX
  8
0
  5
4438
 10
147.608
 20
599.959
 30
2.85216e-14
  70
    32
  0
VERTEX
  8
0
  5
4439
 10
147.591
 20
599.966
 30
2.85182e-14
  70
    32
  0
VERTEX
  8
0
  5
443A
 10
147.574
 20
599.973
 30
2.85148e-14
  70
    32
  0
VERTEX
  8
0
  5
443B
 10
147.557
 20
599.979
 30
2.85114e-14
  70
    32
  0
VERTEX
  8
0
  5
443C
 10
147.540
 20
599.985
 30
2.85080e-14
  70
    32
  0
VERTEX
  8
0
  5
443D
 10
147.523
 20
599.992
 30
2.85045e-14
  70
    32
  0
VERTEX
  8
0
  5
443E
 10
147.505
 20
599.998
 30
2.85011e-14
  70
    32
  0
VERTEX
  8
0
  5
443F
 10
147.488
 20
600.003
 30
2.84976e-14
  70
    32
  0
VERTEX
  8
0
  5
4440
 10
147.471
 20
600.009
 30
2.84941e-14
  70
    32
  0
VERTEX
  8
0
  5
4441
 10
147.453
 20
600.014
 30
2.84906e-14
  70
    32
  0
VERTEX
  8
0
  5
4442
 10
147.435
 20
600.019
 30
2.84871e-14
  70
    32
  0
VERTEX
  8
0
  5
4443
 10
147.418
 20
600.024
 30
2.84836e-14
  70
    32
  0
VERTEX
  8
0
  5
4444
 10
147.400
 20
600.029
 30
2.84800e-14
  70
    32
  0
VERTEX
  8
0
  5
4445
 10
147.382
 20
600.034
 30
2.84765e-14
  70
    32
  0
VERTEX
  8
0
  5
4446
 10
147.364
 20
600.038
 30
2.84729e-14
  70
    32
  0
VERTEX
  8
0
  5
4447
 10
147.347
 20
600.042
 30
2.84693e-14
  70
    32
  0
VERTEX
  8
0
  5
4448
 10
147.329
 20
600.046
 30
2.84657e-14
  70
    32
  0
VERTEX
  8
0
  5
4449
 10
147.311
 20
600.050
 30
2.84621e-14
  70
    32
  0
VERTEX
  8
0
  5
444A
 10
147.293
 20
600.053
 30
2.84585e-14
  70
    32
  0
VERTEX
  8
0
  5
444B
 10
147.275
 20
600.057
 30
2.84549e-14
  70
    32
  0
VERTEX
  8
0
  5
444C
 10
147.256
 20
600.060
 30
2.84513e-14
  70
    32
  0
VERTEX
  8
0
  5
444D
 10
147.238
 20
600.063
 30
2.84477e-14
  70
    32
  0
VERTEX
  8
0
  5
444E
 10
147.220
 20
600.065
 30
2.84440e-14
  70
    32
  0
VERTEX
  8
0
  5
444F
 10
147.202
 20
600.068
 30
2.84404e-14
  70
    32
  0
VERTEX
  8
0
  5
4450
 10
147.184
 20
600.070
 30
2.84367e-14
  70
    32
  0
VERTEX
  8
0
  5
4451
 10
147.165
 20
600.072
 30
2.84331e-14
  70
    32
  0
VERTEX
  8
0
  5
4452
 10
147.147
 20
600.074
 30
2.84294e-14
  70
    32
  0
VERTEX
  8
0
  5
4453
 10
147.129
 20
600.075
 30
2.84257e-14
  70
    32
  0
VERTEX
  8
0
  5
4454
 10
147.110
 20
600.077
 30
2.84221e-14
  70
    32
  0
VERTEX
  8
0
  5
4455
 10
147.092
 20
600.078
 30
2.84184e-14
  70
    32
  0
VERTEX
  8
0
  5
4456
 10
147.074
 20
600.079
 30
2.84147e-14
  70
    32
  0
VERTEX
  8
0
  5
4457
 10
147.055
 20
600.080
 30
2.84110e-14
  70
    32
  0
VERTEX
  8
0
  5
4458
 10
147.037
 20
600.080
 30
2.84074e-14
  70
    32
  0
VERTEX
  8
0
  5
4459
 10
147.018
 20
600.080
 30
2.84037e-14
  70
    32
  0
VERTEX
  8
0
  5
445A
 10
147.000
 20
600.081
 30
2.84000e-14
  70
    32
  0
SEQEND
  8
0
  5
445B
  0
LINE
  5
40F6
  8
0
  6
CONTINUOUS
 62
     3
 10
148.5000000000005969
 20
508.3690120088241997
 30
0.000000000000032
 11
148.5
 21
598.6611192644649009
 31
0.000000000000032
  0
LINE
  5
40F7
  8
0
  6
CONTINUOUS
 62
     3
 10
150.0000000000001137
 20
598.6611192644649009
 30
0.0000000000000284
 11
150.0000000000005969
 21
508.2900825166038885
 31
0.0000000000000284
  0
POLYLINE
  5
40F8
  8
0
  6
CONTINUOUS
 62
     3
 10
147.0000000000001137
 20
601.4999999999997726
 30
0.0000000000000284
 66
     1
 70
     8
  0
VERTEX
  8
0
  5
445C
 10
147.000
 20
601.500
 30
2.84000e-14
  70
    32
  0
VERTEX
  8
0
  5
445D
 10
147.037
 20
601.500
 30
2.84086e-14
  70
    32
  0
VERTEX
  8
0
  5
445E
 10
147.074
 20
601.499
 30
2.84172e-14
  70
    32
  0
VERTEX
  8
0
  5
445F
 10
147.110
 20
601.498
 30
2.84258e-14
  70
    32
  0
VERTEX
  8
0
  5
4460
 10
147.147
 20
601.497
 30
2.84343e-14
  70
    32
  0
VERTEX
  8
0
  5
4461
 10
147.184
 20
601.495
 30
2.84429e-14
  70
    32
  0
VERTEX
  8
0
  5
4462
 10
147.221
 20
601.492
 30
2.84515e-14
  70
    32
  0
VERTEX
  8
0
  5
4463
 10
147.257
 20
601.490
 30
2.84601e-14
  70
    32
  0
VERTEX
  8
0
  5
4464
 10
147.294
 20
601.486
 30
2.84686e-14
  70
    32
  0
VERTEX
  8
0
  5
4465
 10
147.331
 20
601.483
 30
2.84772e-14
  70
    32
  0
VERTEX
  8
0
  5
4466
 10
147.367
 20
601.479
 30
2.84857e-14
  70
    32
  0
VERTEX
  8
0
  5
4467
 10
147.404
 20
601.474
 30
2.84942e-14
  70
    32
  0
VERTEX
  8
0
  5
4468
 10
147.440
 20
601.469
 30
2.85027e-14
  70
    32
  0
VERTEX
  8
0
  5
4469
 10
147.477
 20
601.464
 30
2.85112e-14
  70
    32
  0
VERTEX
  8
0
  5
446A
 10
147.513
 20
601.458
 30
2.85197e-14
  70
    32
  0
VERTEX
  8
0
  5
446B
 10
147.549
 20
601.452
 30
2.85281e-14
  70
    32
  0
VERTEX
  8
0
  5
446C
 10
147.585
 20
601.445
 30
2.85366e-14
  70
    32
  0
VERTEX
  8
0
  5
446D
 10
147.621
 20
601.438
 30
2.85450e-14
  70
    32
  0
VERTEX
  8
0
  5
446E
 10
147.657
 20
601.431
 30
2.85534e-14
  70
    32
  0
VERTEX
  8
0
  5
446F
 10
147.693
 20
601.423
 30
2.85617e-14
  70
    32
  0
VERTEX
  8
0
  5
4470
 10
147.729
 20
601.415
 30
2.85701e-14
  70
    32
  0
VERTEX
  8
0
  5
4471
 10
147.765
 20
601.406
 30
2.85784e-14
  70
    32
  0
VERTEX
  8
0
  5
4472
 10
147.800
 20
601.397
 30
2.85867e-14
  70
    32
  0
VERTEX
  8
0
  5
4473
 10
147.836
 20
601.388
 30
2.85950e-14
  70
    32
  0
VERTEX
  8
0
  5
4474
 10
147.871
 20
601.378
 30
2.86032e-14
  70
    32
  0
VERTEX
  8
0
  5
4475
 10
147.906
 20
601.367
 30
2.86114e-14
  70
    32
  0
VERTEX
  8
0
  5
4476
 10
147.941
 20
601.357
 30
2.86196e-14
  70
    32
  0
VERTEX
  8
0
  5
4477
 10
147.976
 20
601.346
 30
2.86277e-14
  70
    32
  0
VERTEX
  8
0
  5
4478
 10
148.011
 20
601.334
 30
2.86358e-14
  70
    32
  0
VERTEX
  8
0
  5
4479
 10
148.045
 20
601.322
 30
2.86439e-14
  70
    32
  0
VERTEX
  8
0
  5
447A
 10
148.080
 20
601.310
 30
2.86519e-14
  70
    32
  0
VERTEX
  8
0
  5
447B
 10
148.114
 20
601.297
 30
2.86599e-14
  70
    32
  0
VERTEX
  8
0
  5
447C
 10
148.148
 20
601.284
 30
2.86679e-14
  70
    32
  0
VERTEX
  8
0
  5
447D
 10
148.182
 20
601.270
 30
2.86758e-14
  70
    32
  0
VERTEX
  8
0
  5
447E
 10
148.216
 20
601.256
 30
2.86837e-14
  70
    32
  0
VERTEX
  8
0
  5
447F
 10
148.249
 20
601.242
 30
2.86915e-14
  70
    32
  0
VERTEX
  8
0
  5
4480
 10
148.283
 20
601.227
 30
2.86993e-14
  70
    32
  0
VERTEX
  8
0
  5
4481
 10
148.316
 20
601.212
 30
2.87070e-14
  70
    32
  0
VERTEX
  8
0
  5
4482
 10
148.349
 20
601.197
 30
2.87147e-14
  70
    32
  0
VERTEX
  8
0
  5
4483
 10
148.382
 20
601.181
 30
2.87224e-14
  70
    32
  0
VERTEX
  8
0
  5
4484
 10
148.414
 20
601.165
 30
2.87300e-14
  70
    32
  0
VERTEX
  8
0
  5
4485
 10
148.447
 20
601.148
 30
2.87375e-14
  70
    32
  0
VERTEX
  8
0
  5
4486
 10
148.479
 20
601.131
 30
2.87450e-14
  70
    32
  0
VERTEX
  8
0
  5
4487
 10
148.511
 20
601.114
 30
2.87525e-14
  70
    32
  0
VERTEX
  8
0
  5
4488
 10
148.542
 20
601.096
 30
2.87599e-14
  70
    32
  0
VERTEX
  8
0
  5
4489
 10
148.574
 20
601.078
 30
2.87672e-14
  70
    32
  0
VERTEX
  8
0
  5
448A
 10
148.605
 20
601.060
 30
2.87745e-14
  70
    32
  0
VERTEX
  8
0
  5
448B
 10
148.636
 20
601.041
 30
2.87817e-14
  70
    32
  0
VERTEX
  8
0
  5
448C
 10
148.667
 20
601.022
 30
2.87889e-14
  70
    32
  0
VERTEX
  8
0
  5
448D
 10
148.697
 20
601.002
 30
2.87960e-14
  70
    32
  0
VERTEX
  8
0
  5
448E
 10
148.727
 20
600.982
 30
2.88031e-14
  70
    32
  0
VERTEX
  8
0
  5
448F
 10
148.757
 20
600.962
 30
2.88101e-14
  70
    32
  0
VERTEX
  8
0
  5
4490
 10
148.787
 20
600.941
 30
2.88170e-14
  70
    32
  0
VERTEX
  8
0
  5
4491
 10
148.817
 20
600.920
 30
2.88239e-14
  70
    32
  0
VERTEX
  8
0
  5
4492
 10
148.846
 20
600.899
 30
2.88307e-14
  70
    32
  0
VERTEX
  8
0
  5
4493
 10
148.875
 20
600.878
 30
2.88374e-14
  70
    32
  0
VERTEX
  8
0
  5
4494
 10
148.903
 20
600.856
 30
2.88441e-14
  70
    32
  0
VERTEX
  8
0
  5
4495
 10
148.931
 20
600.833
 30
2.88507e-14
  70
    32
  0
VERTEX
  8
0
  5
4496
 10
148.960
 20
600.811
 30
2.88572e-14
  70
    32
  0
VERTEX
  8
0
  5
4497
 10
148.987
 20
600.788
 30
2.88637e-14
  70
    32
  0
VERTEX
  8
0
  5
4498
 10
149.015
 20
600.765
 30
2.88701e-14
  70
    32
  0
VERTEX
  8
0
  5
4499
 10
149.042
 20
600.741
 30
2.88764e-14
  70
    32
  0
VERTEX
  8
0
  5
449A
 10
149.069
 20
600.717
 30
2.88827e-14
  70
    32
  0
VERTEX
  8
0
  5
449B
 10
149.095
 20
600.693
 30
2.88889e-14
  70
    32
  0
VERTEX
  8
0
  5
449C
 10
149.121
 20
600.669
 30
2.88950e-14
  70
    32
  0
VERTEX
  8
0
  5
449D
 10
149.147
 20
600.644
 30
2.89010e-14
  70
    32
  0
VERTEX
  8
0
  5
449E
 10
149.173
 20
600.619
 30
2.89070e-14
  70
    32
  0
VERTEX
  8
0
  5
449F
 10
149.198
 20
600.593
 30
2.89129e-14
  70
    32
  0
VERTEX
  8
0
  5
44A0
 10
149.223
 20
600.568
 30
2.89187e-14
  70
    32
  0
VERTEX
  8
0
  5
44A1
 10
149.247
 20
600.542
 30
2.89244e-14
  70
    32
  0
VERTEX
  8
0
  5
44A2
 10
149.272
 20
600.515
 30
2.89300e-14
  70
    32
  0
VERTEX
  8
0
  5
44A3
 10
149.296
 20
600.489
 30
2.89356e-14
  70
    32
  0
VERTEX
  8
0
  5
44A4
 10
149.319
 20
600.462
 30
2.89411e-14
  70
    32
  0
VERTEX
  8
0
  5
44A5
 10
149.342
 20
600.435
 30
2.89465e-14
  70
    32
  0
VERTEX
  8
0
  5
44A6
 10
149.365
 20
600.408
 30
2.89518e-14
  70
    32
  0
VERTEX
  8
0
  5
44A7
 10
149.388
 20
600.380
 30
2.89571e-14
  70
    32
  0
VERTEX
  8
0
  5
44A8
 10
149.410
 20
600.352
 30
2.89622e-14
  70
    32
  0
VERTEX
  8
0
  5
44A9
 10
149.431
 20
600.324
 30
2.89673e-14
  70
    32
  0
VERTEX
  8
0
  5
44AA
 10
149.453
 20
600.296
 30
2.89723e-14
  70
    32
  0
VERTEX
  8
0
  5
44AB
 10
149.474
 20
600.267
 30
2.89772e-14
  70
    32
  0
VERTEX
  8
0
  5
44AC
 10
149.494
 20
600.238
 30
2.89820e-14
  70
    32
  0
VERTEX
  8
0
  5
44AD
 10
149.515
 20
600.209
 30
2.89868e-14
  70
    32
  0
VERTEX
  8
0
  5
44AE
 10
149.535
 20
600.180
 30
2.89914e-14
  70
    32
  0
VERTEX
  8
0
  5
44AF
 10
149.554
 20
600.150
 30
2.89959e-14
  70
    32
  0
VERTEX
  8
0
  5
44B0
 10
149.573
 20
600.121
 30
2.90004e-14
  70
    32
  0
VERTEX
  8
0
  5
44B1
 10
149.592
 20
600.091
 30
2.90048e-14
  70
    32
  0
VERTEX
  8
0
  5
44B2
 10
149.610
 20
600.060
 30
2.90091e-14
  70
    32
  0
VERTEX
  8
0
  5
44B3
 10
149.628
 20
600.030
 30
2.90132e-14
  70
    32
  0
VERTEX
  8
0
  5
44B4
 10
149.646
 20
599.999
 30
2.90173e-14
  70
    32
  0
VERTEX
  8
0
  5
44B5
 10
149.663
 20
599.969
 30
2.90213e-14
  70
    32
  0
VERTEX
  8
0
  5
44B6
 10
149.680
 20
599.938
 30
2.90253e-14
  70
    32
  0
VERTEX
  8
0
  5
44B7
 10
149.696
 20
599.906
 30
2.90291e-14
  70
    32
  0
VERTEX
  8
0
  5
44B8
 10
149.712
 20
599.875
 30
2.90328e-14
  70
    32
  0
VERTEX
  8
0
  5
44B9
 10
149.728
 20
599.843
 30
2.90364e-14
  70
    32
  0
VERTEX
  8
0
  5
44BA
 10
149.743
 20
599.812
 30
2.90399e-14
  70
    32
  0
VERTEX
  8
0
  5
44BB
 10
149.757
 20
599.780
 30
2.90434e-14
  70
    32
  0
VERTEX
  8
0
  5
44BC
 10
149.772
 20
599.748
 30
2.90467e-14
  70
    32
  0
VERTEX
  8
0
  5
44BD
 10
149.786
 20
599.715
 30
2.90500e-14
  70
    32
  0
VERTEX
  8
0
  5
44BE
 10
149.799
 20
599.683
 30
2.90531e-14
  70
    32
  0
VERTEX
  8
0
  5
44BF
 10
149.812
 20
599.650
 30
2.90561e-14
  70
    32
  0
VERTEX
  8
0
  5
44C0
 10
149.825
 20
599.618
 30
2.90591e-14
  70
    32
  0
VERTEX
  8
0
  5
44C1
 10
149.837
 20
599.585
 30
2.90619e-14
  70
    32
  0
VERTEX
  8
0
  5
44C2
 10
149.849
 20
599.552
 30
2.90647e-14
  70
    32
  0
VERTEX
  8
0
  5
44C3
 10
149.860
 20
599.518
 30
2.90673e-14
  70
    32
  0
VERTEX
  8
0
  5
44C4
 10
149.871
 20
599.485
 30
2.90699e-14
  70
    32
  0
VERTEX
  8
0
  5
44C5
 10
149.881
 20
599.452
 30
2.90723e-14
  70
    32
  0
VERTEX
  8
0
  5
44C6
 10
149.891
 20
599.418
 30
2.90746e-14
  70
    32
  0
VERTEX
  8
0
  5
44C7
 10
149.901
 20
599.385
 30
2.90769e-14
  70
    32
  0
VERTEX
  8
0
  5
44C8
 10
149.910
 20
599.351
 30
2.90790e-14
  70
    32
  0
VERTEX
  8
0
  5
44C9
 10
149.919
 20
599.317
 30
2.90811e-14
  70
    32
  0
VERTEX
  8
0
  5
44CA
 10
149.927
 20
599.283
 30
2.90830e-14
  70
    32
  0
VERTEX
  8
0
  5
44CB
 10
149.935
 20
599.249
 30
2.90848e-14
  70
    32
  0
VERTEX
  8
0
  5
44CC
 10
149.942
 20
599.215
 30
2.90865e-14
  70
    32
  0
VERTEX
  8
0
  5
44CD
 10
149.949
 20
599.181
 30
2.90882e-14
  70
    32
  0
VERTEX
  8
0
  5
44CE
 10
149.956
 20
599.146
 30
2.90897e-14
  70
    32
  0
VERTEX
  8
0
  5
44CF
 10
149.962
 20
599.112
 30
2.90911e-14
  70
    32
  0
VERTEX
  8
0
  5
44D0
 10
149.968
 20
599.078
 30
2.90924e-14
  70
    32
  0
VERTEX
  8
0
  5
44D1
 10
149.973
 20
599.043
 30
2.90936e-14
  70
    32
  0
VERTEX
  8
0
  5
44D2
 10
149.977
 20
599.009
 30
2.90947e-14
  70
    32
  0
VERTEX
  8
0
  5
44D3
 10
149.982
 20
598.974
 30
2.90957e-14
  70
    32
  0
VERTEX
  8
0
  5
44D4
 10
149.986
 20
598.939
 30
2.90966e-14
  70
    32
  0
VERTEX
  8
0
  5
44D5
 10
149.989
 20
598.905
 30
2.90974e-14
  70
    32
  0
VERTEX
  8
0
  5
44D6
 10
149.992
 20
598.870
 30
2.90981e-14
  70
    32
  0
VERTEX
  8
0
  5
44D7
 10
149.994
 20
598.835
 30
2.90987e-14
  70
    32
  0
VERTEX
  8
0
  5
44D8
 10
149.996
 20
598.800
 30
2.90992e-14
  70
    32
  0
VERTEX
  8
0
  5
44D9
 10
149.998
 20
598.766
 30
2.90995e-14
  70
    32
  0
VERTEX
  8
0
  5
44DA
 10
149.999
 20
598.731
 30
2.90998e-14
  70
    32
  0
VERTEX
  8
0
  5
44DB
 10
150.000
 20
598.696
 30
2.90999e-14
  70
    32
  0
VERTEX
  8
0
  5
44DC
 10
150.000
 20
598.661
 30
2.91000e-14
  70
    32
  0
SEQEND
  8
0
  5
44DD
  0
LINE
  5
40F9
  8
0
  6
CONTINUOUS
 62
     3
 10
-147.0
 20
601.4999999999996589
 30
-0.0000000000000284
 11
147.0000000000001137
 21
601.4999999999996589
 31
0.0000000000000369
  0
POLYLINE
  5
40FA
  8
0
  6
CONTINUOUS
 62
     3
 10
-150.0
 20
598.6611192644649009
 30
-0.0000000000000291
 66
     1
 70
     8
  0
VERTEX
  8
0
  5
44DE
 10
-150.000
 20
598.661
 30
-2.91000e-14
  70
    32
  0
VERTEX
  8
0
  5
44DF
 10
-150.000
 20
598.696
 30
-2.90999e-14
  70
    32
  0
VERTEX
  8
0
  5
44E0
 10
-149.999
 20
598.731
 30
-2.90998e-14
  70
    32
  0
VERTEX
  8
0
  5
44E1
 10
-149.998
 20
598.766
 30
-2.90995e-14
  70
    32
  0
VERTEX
  8
0
  5
44E2
 10
-149.996
 20
598.800
 30
-2.90992e-14
  70
    32
  0
VERTEX
  8
0
  5
44E3
 10
-149.994
 20
598.835
 30
-2.90987e-14
  70
    32
  0
VERTEX
  8
0
  5
44E4
 10
-149.992
 20
598.870
 30
-2.90981e-14
  70
    32
  0
VERTEX
  8
0
  5
44E5
 10
-149.989
 20
598.905
 30
-2.90974e-14
  70
    32
  0
VERTEX
  8
0
  5
44E6
 10
-149.986
 20
598.939
 30
-2.90966e-14
  70
    32
  0
VERTEX
  8
0
  5
44E7
 10
-149.982
 20
598.974
 30
-2.90957e-14
  70
    32
  0
VERTEX
  8
0
  5
44E8
 10
-149.977
 20
599.009
 30
-2.90947e-14
  70
    32
  0
VERTEX
  8
0
  5
44E9
 10
-149.973
 20
599.043
 30
-2.90936e-14
  70
    32
  0
VERTEX
  8
0
  5
44EA
 10
-149.968
 20
599.078
 30
-2.90924e-14
  70
    32
  0
VERTEX
  8
0
  5
44EB
 10
-149.962
 20
599.112
 30
-2.90911e-14
  70
    32
  0
VERTEX
  8
0
  5
44EC
 10
-149.956
 20
599.146
 30
-2.90897e-14
  70
    32
  0
VERTEX
  8
0
  5
44ED
 10
-149.949
 20
599.181
 30
-2.90882e-14
  70
    32
  0
VERTEX
  8
0
  5
44EE
 10
-149.942
 20
599.215
 30
-2.90865e-14
  70
    32
  0
VERTEX
  8
0
  5
44EF
 10
-149.935
 20
599.249
 30
-2.90848e-14
  70
    32
  0
VERTEX
  8
0
  5
44F0
 10
-149.927
 20
599.283
 30
-2.90830e-14
  70
    32
  0
VERTEX
  8
0
  5
44F1
 10
-149.919
 20
599.317
 30
-2.90811e-14
  70
    32
  0
VERTEX
  8
0
  5
44F2
 10
-149.910
 20
599.351
 30
-2.90790e-14
  70
    32
  0
VERTEX
  8
0
  5
44F3
 10
-149.901
 20
599.385
 30
-2.90769e-14
  70
    32
  0
VERTEX
  8
0
  5
44F4
 10
-149.891
 20
599.418
 30
-2.90746e-14
  70
    32
  0
VERTEX
  8
0
  5
44F5
 10
-149.881
 20
599.452
 30
-2.90723e-14
  70
    32
  0
VERTEX
  8
0
  5
44F6
 10
-149.871
 20
599.485
 30
-2.90699e-14
  70
    32
  0
VERTEX
  8
0
  5
44F7
 10
-149.860
 20
599.518
 30
-2.90673e-14
  70
    32
  0
VERTEX
  8
0
  5
44F8
 10
-149.849
 20
599.552
 30
-2.90647e-14
  70
    32
  0
VERTEX
  8
0
  5
44F9
 10
-149.837
 20
599.585
 30
-2.90619e-14
  70
    32
  0
VERTEX
  8
0
  5
44FA
 10
-149.825
 20
599.618
 30
-2.90591e-14
  70
    32
  0
VERTEX
  8
0
  5
44FB
 10
-149.812
 20
599.650
 30
-2.90561e-14
  70
    32
  0
VERTEX
  8
0
  5
44FC
 10
-149.799
 20
599.683
 30
-2.90531e-14
  70
    32
  0
VERTEX
  8
0
  5
44FD
 10
-149.786
 20
599.715
 30
-2.90500e-14
  70
    32
  0
VERTEX
  8
0
  5
44FE
 10
-149.772
 20
599.748
 30
-2.90467e-14
  70
    32
  0
VERTEX
  8
0
  5
44FF
 10
-149.757
 20
599.780
 30
-2.90434e-14
  70
    32
  0
VERTEX
  8
0
  5
4500
 10
-149.743
 20
599.812
 30
-2.90399e-14
  70
    32
  0
VERTEX
  8
0
  5
4501
 10
-149.728
 20
599.843
 30
-2.90364e-14
  70
    32
  0
VERTEX
  8
0
  5
4502
 10
-149.712
 20
599.875
 30
-2.90328e-14
  70
    32
  0
VERTEX
  8
0
  5
4503
 10
-149.696
 20
599.906
 30
-2.90291e-14
  70
    32
  0
VERTEX
  8
0
  5
4504
 10
-149.680
 20
599.938
 30
-2.90253e-14
  70
    32
  0
VERTEX
  8
0
  5
4505
 10
-149.663
 20
599.969
 30
-2.90213e-14
  70
    32
  0
VERTEX
  8
0
  5
4506
 10
-149.646
 20
599.999
 30
-2.90173e-14
  70
    32
  0
VERTEX
  8
0
  5
4507
 10
-149.628
 20
600.030
 30
-2.90132e-14
  70
    32
  0
VERTEX
  8
0
  5
4508
 10
-149.610
 20
600.060
 30
-2.90091e-14
  70
    32
  0
VERTEX
  8
0
  5
4509
 10
-149.592
 20
600.091
 30
-2.90048e-14
  70
    32
  0
VERTEX
  8
0
  5
450A
 10
-149.573
 20
600.121
 30
-2.90004e-14
  70
    32
  0
VERTEX
  8
0
  5
450B
 10
-149.554
 20
600.150
 30
-2.89959e-14
  70
    32
  0
VERTEX
  8
0
  5
450C
 10
-149.535
 20
600.180
 30
-2.89914e-14
  70
    32
  0
VERTEX
  8
0
  5
450D
 10
-149.515
 20
600.209
 30
-2.89868e-14
  70
    32
  0
VERTEX
  8
0
  5
450E
 10
-149.494
 20
600.238
 30
-2.89820e-14
  70
    32
  0
VERTEX
  8
0
  5
450F
 10
-149.474
 20
600.267
 30
-2.89772e-14
  70
    32
  0
VERTEX
  8
0
  5
4510
 10
-149.453
 20
600.296
 30
-2.89723e-14
  70
    32
  0
VERTEX
  8
0
  5
4511
 10
-149.431
 20
600.324
 30
-2.89673e-14
  70
    32
  0
VERTEX
  8
0
  5
4512
 10
-149.410
 20
600.352
 30
-2.89622e-14
  70
    32
  0
VERTEX
  8
0
  5
4513
 10
-149.388
 20
600.380
 30
-2.89571e-14
  70
    32
  0
VERTEX
  8
0
  5
4514
 10
-149.365
 20
600.408
 30
-2.89518e-14
  70
    32
  0
VERTEX
  8
0
  5
4515
 10
-149.342
 20
600.435
 30
-2.89465e-14
  70
    32
  0
VERTEX
  8
0
  5
4516
 10
-149.319
 20
600.462
 30
-2.89411e-14
  70
    32
  0
VERTEX
  8
0
  5
4517
 10
-149.296
 20
600.489
 30
-2.89356e-14
  70
    32
  0
VERTEX
  8
0
  5
4518
 10
-149.272
 20
600.515
 30
-2.89300e-14
  70
    32
  0
VERTEX
  8
0
  5
4519
 10
-149.247
 20
600.542
 30
-2.89244e-14
  70
    32
  0
VERTEX
  8
0
  5
451A
 10
-149.223
 20
600.568
 30
-2.89187e-14
  70
    32
  0
VERTEX
  8
0
  5
451B
 10
-149.198
 20
600.593
 30
-2.89129e-14
  70
    32
  0
VERTEX
  8
0
  5
451C
 10
-149.173
 20
600.619
 30
-2.89070e-14
  70
    32
  0
VERTEX
  8
0
  5
451D
 10
-149.147
 20
600.644
 30
-2.89010e-14
  70
    32
  0
VERTEX
  8
0
  5
451E
 10
-149.121
 20
600.669
 30
-2.88950e-14
  70
    32
  0
VERTEX
  8
0
  5
451F
 10
-149.095
 20
600.693
 30
-2.88889e-14
  70
    32
  0
VERTEX
  8
0
  5
4520
 10
-149.069
 20
600.717
 30
-2.88827e-14
  70
    32
  0
VERTEX
  8
0
  5
4521
 10
-149.042
 20
600.741
 30
-2.88764e-14
  70
    32
  0
VERTEX
  8
0
  5
4522
 10
-149.015
 20
600.765
 30
-2.88701e-14
  70
    32
  0
VERTEX
  8
0
  5
4523
 10
-148.987
 20
600.788
 30
-2.88637e-14
  70
    32
  0
VERTEX
  8
0
  5
4524
 10
-148.960
 20
600.811
 30
-2.88572e-14
  70
    32
  0
VERTEX
  8
0
  5
4525
 10
-148.931
 20
600.833
 30
-2.88507e-14
  70
    32
  0
VERTEX
  8
0
  5
4526
 10
-148.903
 20
600.856
 30
-2.88441e-14
  70
    32
  0
VERTEX
  8
0
  5
4527
 10
-148.875
 20
600.878
 30
-2.88374e-14
  70
    32
  0
VERTEX
  8
0
  5
4528
 10
-148.846
 20
600.899
 30
-2.88307e-14
  70
    32
  0
VERTEX
  8
0
  5
4529
 10
-148.817
 20
600.920
 30
-2.88239e-14
  70
    32
  0
VERTEX
  8
0
  5
452A
 10
-148.787
 20
600.941
 30
-2.88170e-14
  70
    32
  0
VERTEX
  8
0
  5
452B
 10
-148.757
 20
600.962
 30
-2.88101e-14
  70
    32
  0
VERTEX
  8
0
  5
452C
 10
-148.727
 20
600.982
 30
-2.88031e-14
  70
    32
  0
VERTEX
  8
0
  5
452D
 10
-148.697
 20
601.002
 30
-2.87960e-14
  70
    32
  0
VERTEX
  8
0
  5
452E
 10
-148.667
 20
601.022
 30
-2.87889e-14
  70
    32
  0
VERTEX
  8
0
  5
452F
 10
-148.636
 20
601.041
 30
-2.87817e-14
  70
    32
  0
VERTEX
  8
0
  5
4530
 10
-148.605
 20
601.060
 30
-2.87745e-14
  70
    32
  0
VERTEX
  8
0
  5
4531
 10
-148.574
 20
601.078
 30
-2.87672e-14
  70
    32
  0
VERTEX
  8
0
  5
4532
 10
-148.542
 20
601.096
 30
-2.87599e-14
  70
    32
  0
VERTEX
  8
0
  5
4533
 10
-148.511
 20
601.114
 30
-2.87525e-14
  70
    32
  0
VERTEX
  8
0
  5
4534
 10
-148.479
 20
601.131
 30
-2.87450e-14
  70
    32
  0
VERTEX
  8
0
  5
4535
 10
-148.447
 20
601.148
 30
-2.87375e-14
  70
    32
  0
VERTEX
  8
0
  5
4536
 10
-148.414
 20
601.165
 30
-2.87300e-14
  70
    32
  0
VERTEX
  8
0
  5
4537
 10
-148.382
 20
601.181
 30
-2.87224e-14
  70
    32
  0
VERTEX
  8
0
  5
4538
 10
-148.349
 20
601.197
 30
-2.87147e-14
  70
    32
  0
VERTEX
  8
0
  5
4539
 10
-148.316
 20
601.212
 30
-2.87070e-14
  70
    32
  0
VERTEX
  8
0
  5
453A
 10
-148.283
 20
601.227
 30
-2.86993e-14
  70
    32
  0
VERTEX
  8
0
  5
453B
 10
-148.249
 20
601.242
 30
-2.86915e-14
  70
    32
  0
VERTEX
  8
0
  5
453C
 10
-148.216
 20
601.256
 30
-2.86837e-14
  70
    32
  0
VERTEX
  8
0
  5
453D
 10
-148.182
 20
601.270
 30
-2.86758e-14
  70
    32
  0
VERTEX
  8
0
  5
453E
 10
-148.148
 20
601.284
 30
-2.86679e-14
  70
    32
  0
VERTEX
  8
0
  5
453F
 10
-148.114
 20
601.297
 30
-2.86599e-14
  70
    32
  0
VERTEX
  8
0
  5
4540
 10
-148.080
 20
601.310
 30
-2.86519e-14
  70
    32
  0
VERTEX
  8
0
  5
4541
 10
-148.045
 20
601.322
 30
-2.86439e-14
  70
    32
  0
VERTEX
  8
0
  5
4542
 10
-148.011
 20
601.334
 30
-2.86358e-14
  70
    32
  0
VERTEX
  8
0
  5
4543
 10
-147.976
 20
601.346
 30
-2.86277e-14
  70
    32
  0
VERTEX
  8
0
  5
4544
 10
-147.941
 20
601.357
 30
-2.86196e-14
  70
    32
  0
VERTEX
  8
0
  5
4545
 10
-147.906
 20
601.367
 30
-2.86114e-14
  70
    32
  0
VERTEX
  8
0
  5
4546
 10
-147.871
 20
601.378
 30
-2.86032e-14
  70
    32
  0
VERTEX
  8
0
  5
4547
 10
-147.836
 20
601.388
 30
-2.85950e-14
  70
    32
  0
VERTEX
  8
0
  5
4548
 10
-147.800
 20
601.397
 30
-2.85867e-14
  70
    32
  0
VERTEX
  8
0
  5
4549
 10
-147.765
 20
601.406
 30
-2.85784e-14
  70
    32
  0
VERTEX
  8
0
  5
454A
 10
-147.729
 20
601.415
 30
-2.85701e-14
  70
    32
  0
VERTEX
  8
0
  5
454B
 10
-147.693
 20
601.423
 30
-2.85617e-14
  70
    32
  0
VERTEX
  8
0
  5
454C
 10
-147.657
 20
601.431
 30
-2.85534e-14
  70
    32
  0
VERTEX
  8
0
  5
454D
 10
-147.621
 20
601.438
 30
-2.85450e-14
  70
    32
  0
VERTEX
  8
0
  5
454E
 10
-147.585
 20
601.445
 30
-2.85366e-14
  70
    32
  0
VERTEX
  8
0
  5
454F
 10
-147.549
 20
601.452
 30
-2.85281e-14
  70
    32
  0
VERTEX
  8
0
  5
4550
 10
-147.513
 20
601.458
 30
-2.85197e-14
  70
    32
  0
VERTEX
  8
0
  5
4551
 10
-147.477
 20
601.464
 30
-2.85112e-14
  70
    32
  0
VERTEX
  8
0
  5
4552
 10
-147.440
 20
601.469
 30
-2.85027e-14
  70
    32
  0
VERTEX
  8
0
  5
4553
 10
-147.404
 20
601.474
 30
-2.84942e-14
  70
    32
  0
VERTEX
  8
0
  5
4554
 10
-147.367
 20
601.479
 30
-2.84857e-14
  70
    32
  0
VERTEX
  8
0
  5
4555
 10
-147.331
 20
601.483
 30
-2.84772e-14
  70
    32
  0
VERTEX
  8
0
  5
4556
 10
-147.294
 20
601.486
 30
-2.84686e-14
  70
    32
  0
VERTEX
  8
0
  5
4557
 10
-147.257
 20
601.490
 30
-2.84601e-14
  70
    32
  0
VERTEX
  8
0
  5
4558
 10
-147.221
 20
601.492
 30
-2.84515e-14
  70
    32
  0
VERTEX
  8
0
  5
4559
 10
-147.184
 20
601.495
 30
-2.84429e-14
  70
    32
  0
VERTEX
  8
0
  5
455A
 10
-147.147
 20
601.497
 30
-2.84343e-14
  70
    32
  0
VERTEX
  8
0
  5
455B
 10
-147.110
 20
601.498
 30
-2.84258e-14
  70
    32
  0
VERTEX
  8
0
  5
455C
 10
-147.074
 20
601.499
 30
-2.84172e-14
  70
    32
  0
VERTEX
  8
0
  5
455D
 10
-147.037
 20
601.500
 30
-2.84086e-14
  70
    32
  0
VERTEX
  8
0
  5
455E
 10
-147.000
 20
601.500
 30
-2.84000e-14
  70
    32
  0
SEQEND
  8
0
  5
455F
  0
LINE
  5
40FB
  8
0
  6
CONTINUOUS
 62
     3
 10
-150.0000000000005116
 20
508.2900825166038885
 30
-0.000000000000032
 11
-150.0
 21
598.6611192644649009
 31
-0.000000000000032
  0
LINE
  5
40FC
  8
0
  6
CONTINUOUS
 62
     3
 10
150.0000000000005969
 20
139.8886944978725921
 30
0.0000000000000355
 11
148.5000000000005969
 21
139.8886944978725921
 31
0.0000000000000352
  0
LINE
  5
40FD
  8
0
  6
CONTINUOUS
 62
     3
 10
-148.5000000000003979
 20
139.8886944978725921
 30
-0.0000000000000355
 11
-150.0000000000005116
 21
139.8886944978725921
 31
-0.0000000000000359
  0
LINE
  5
40FE
  8
0
  6
CONTINUOUS
 62
     3
 10
150.0000000000005969
 20
249.6594393865113943
 30
0.0000000000000355
 11
148.5000000000005969
 21
249.6594393865113943
 31
0.0000000000000352
  0
LINE
  5
40FF
  8
0
  6
CONTINUOUS
 62
     3
 10
150.0000000000005969
 20
249.737943320875786
 30
0.0000000000000355
 11
150.0000000000005969
 21
249.6594393865113943
 31
0.0000000000000355
  0
LINE
  5
4100
  8
0
  6
CONTINUOUS
 62
     3
 10
148.5000000000005969
 20
249.737943320875786
 30
0.0000000000000355
 11
150.0000000000005969
 21
249.737943320875786
 31
0.0000000000000359
  0
LINE
  5
4101
  8
0
  6
CONTINUOUS
 62
     3
 10
150.0000000000005969
 20
249.6594393865113943
 30
0.0000000000000355
 11
150.0000000000005969
 21
139.8886944978725921
 31
0.0000000000000355
  0
LINE
  5
4102
  8
0
  6
CONTINUOUS
 62
     3
 10
-148.5000000000003979
 20
249.6594393865113943
 30
-0.0000000000000355
 11
-150.0000000000005116
 21
249.6594393865113943
 31
-0.0000000000000359
  0
LINE
  5
4103
  8
0
  6
CONTINUOUS
 62
     3
 10
-150.0000000000005116
 20
139.8886944978725921
 30
-0.0000000000000355
 11
-150.0000000000005116
 21
249.6594393865113943
 31
-0.0000000000000355
  0
LINE
  5
4104
  8
0
  6
CONTINUOUS
 62
     3
 10
-150.0000000000005116
 20
249.737943320875786
 30
-0.0000000000000355
 11
-148.5000000000005116
 21
249.737943320875786
 31
-0.0000000000000352
  0
LINE
  5
4105
  8
0
  6
CONTINUOUS
 62
     3
 10
-150.0000000000003979
 20
249.6594393865113943
 30
-0.0000000000000355
 11
-150.0000000000005116
 21
249.737943320875786
 31
-0.0000000000000355
  0
LINE
  5
4106
  8
0
  6
CONTINUOUS
 62
     3
 10
150.0000000000005969
 20
25.0462980010966412
 30
0.0000000000000355
 11
148.5000000000005969
 21
25.0462980010966412
 31
0.0000000000000352
  0
LINE
  5
4107
  8
0
  6
CONTINUOUS
 62
     3
 10
-148.5000000000003979
 20
25.0462980010966412
 30
-0.0000000000000355
 11
-150.0000000000003979
 21
25.0462980010966412
 31
-0.0000000000000359
  0
LINE
  5
4108
  8
0
  6
CONTINUOUS
 62
     3
 10
150.0000000000005969
 20
134.8170428897352053
 30
0.0000000000000355
 11
148.5000000000005969
 21
134.8170428897352053
 31
0.0000000000000352
  0
LINE
  5
4109
  8
0
  6
CONTINUOUS
 62
     3
 10
150.0000000000005969
 20
134.8955468240997106
 30
0.0000000000000355
 11
150.0000000000005969
 21
134.8170428897352906
 31
0.0000000000000355
  0
LINE
  5
410A
  8
0
  6
CONTINUOUS
 62
     3
 10
148.5000000000005969
 20
134.8955468240997106
 30
0.0000000000000355
 11
150.0000000000005969
 21
134.8955468240997106
 31
0.0000000000000359
  0
LINE
  5
410B
  8
0
  6
CONTINUOUS
 62
     3
 10
150.0000000000005969
 20
134.8170428897352906
 30
0.0000000000000355
 11
150.0000000000005969
 21
25.0462980010966589
 31
0.0000000000000355
  0
LINE
  5
410C
  8
0
  6
CONTINUOUS
 62
     3
 10
-148.5000000000003979
 20
134.8170428897352053
 30
-0.0000000000000355
 11
-150.0000000000003979
 21
134.8170428897352053
 31
-0.0000000000000359
  0
LINE
  5
410D
  8
0
  6
CONTINUOUS
 62
     3
 10
-150.0000000000005116
 20
25.0462980010966589
 30
-0.0000000000000355
 11
-150.0000000000005116
 21
134.8170428897352906
 31
-0.0000000000000355
  0
LINE
  5
410E
  8
0
  6
CONTINUOUS
 62
     3
 10
-150.0000000000005116
 20
134.8955468240997106
 30
-0.0000000000000355
 11
-148.5000000000003979
 21
134.8955468240997106
 31
-0.0000000000000352
  0
LINE
  5
410F
  8
0
  6
CONTINUOUS
 62
     3
 10
-150.0000000000003979
 20
134.8170428897352906
 30
-0.0000000000000355
 11
-150.0000000000005116
 21
134.8955468240997106
 31
-0.0000000000000355
  0
LINE
  5
4110
  8
0
  6
CONTINUOUS
 62
     3
 10
150.0000000000005969
 20
369.5734874914247143
 30
0.000000000000032
 11
148.5000000000005969
 21
369.5734874914247143
 31
0.0000000000000316
  0
LINE
  5
4111
  8
0
  6
CONTINUOUS
 62
     3
 10
-148.5000000000005116
 20
369.5734874914247143
 30
-0.000000000000032
 11
-150.0000000000005116
 21
369.5734874914247143
 31
-0.0000000000000323
  0
LINE
  5
4112
  8
0
  6
CONTINUOUS
 62
     3
 10
150.0000000000005969
 20
479.3442323800633176
 30
0.000000000000032
 11
148.5000000000005969
 21
479.3442323800633176
 31
0.0000000000000316
  0
LINE
  5
4113
  8
0
  6
CONTINUOUS
 62
     3
 10
150.0000000000005969
 20
479.4227363144277092
 30
0.000000000000032
 11
150.0000000000005969
 21
479.3442323800633176
 31
0.000000000000032
  0
LINE
  5
4114
  8
0
  6
CONTINUOUS
 62
     3
 10
148.5000000000005969
 20
479.4227363144277092
 30
0.000000000000032
 11
150.0000000000005969
 21
479.4227363144277092
 31
0.0000000000000323
  0
LINE
  5
4115
  8
0
  6
CONTINUOUS
 62
     3
 10
150.0000000000005969
 20
479.3442323800633176
 30
0.000000000000032
 11
150.0000000000005969
 21
369.5734874914247143
 31
0.000000000000032
  0
LINE
  5
4116
  8
0
  6
CONTINUOUS
 62
     3
 10
-148.5000000000003979
 20
479.3442323800633176
 30
-0.000000000000032
 11
-150.0000000000005116
 21
479.3442323800633176
 31
-0.0000000000000323
  0
LINE
  5
4117
  8
0
  6
CONTINUOUS
 62
     3
 10
-150.0000000000005116
 20
369.5734874914247143
 30
-0.000000000000032
 11
-150.0000000000005116
 21
479.3442323800633176
 31
-0.000000000000032
  0
LINE
  5
4118
  8
0
  6
CONTINUOUS
 62
     3
 10
-150.0000000000005116
 20
479.4227363144277092
 30
-0.000000000000032
 11
-148.5000000000005116
 21
479.4227363144277092
 31
-0.0000000000000316
  0
LINE
  5
4119
  8
0
  6
CONTINUOUS
 62
     3
 10
-150.0000000000005116
 20
479.3442323800633176
 30
-0.000000000000032
 11
-150.0000000000005116
 21
479.4227363144277092
 31
-0.000000000000032
  0
LINE
  5
411A
  8
0
  6
CONTINUOUS
 62
     3
 10
150.0000000000005969
 20
19.974646392959361
 30
0.0000000000000355
 11
150.0000000000005969
 21
1.4999999999997189
 31
0.0000000000000355
  0
LINE
  5
411B
  8
0
  6
CONTINUOUS
 62
     3
 10
148.5000000000005969
 20
19.974646392959361
 30
0.0000000000000355
 11
150.0000000000005969
 21
19.974646392959361
 31
0.0000000000000359
  0
LINE
  5
411C
  8
0
  6
CONTINUOUS
 62
     3
 10
150.0000000000005969
 20
20.0531503273237703
 30
0.0000000000000355
 11
150.0000000000005969
 21
19.9746463929593503
 31
0.0000000000000355
  0
LINE
  5
411D
  8
0
  6
CONTINUOUS
 62
     3
 10
148.5000000000005969
 20
20.0531503273237313
 30
0.0000000000000355
 11
150.0000000000005969
 21
20.0531503273237313
 31
0.0000000000000359
  0
LINE
  5
411E
  8
0
  6
CONTINUOUS
 62
     3
 10
-150.0000000000005116
 20
20.0531503273237313
 30
-0.0000000000000355
 11
-148.5000000000003979
 21
20.0531503273237313
 31
-0.0000000000000352
  0
LINE
  5
411F
  8
0
  6
CONTINUOUS
 62
     3
 10
-150.0000000000003979
 20
19.9746463929593503
 30
-0.0000000000000355
 11
-150.0000000000005116
 21
20.0531503273237703
 31
-0.0000000000000355
  0
LINE
  5
4120
  8
0
  6
CONTINUOUS
 62
     3
 10
-150.0000000000003979
 20
19.974646392959361
 30
-0.0000000000000355
 11
-148.5000000000003979
 21
19.974646392959361
 31
-0.0000000000000352
  0
LINE
  5
4121
  8
0
  6
CONTINUOUS
 62
     3
 10
-150.0000000000005116
 20
1.499999999999718
 30
-0.0000000000000355
 11
-150.0000000000005116
 21
19.974646392959361
 31
-0.0000000000000355
  0
LINE
  5
4122
  8
0
  6
CONTINUOUS
 62
     3
 10
-148.5000000000005116
 20
254.7310909946484969
 30
-0.0000000000000355
 11
-148.5000000000005116
 21
249.737943320875587
 31
-0.0000000000000355
  0
LINE
  5
4123
  8
0
  6
CONTINUOUS
 62
     3
 10
-148.5000000000005116
 20
139.8886944978723932
 30
-0.0000000000000355
 11
-148.5000000000005116
 21
134.895546824099597
 31
-0.0000000000000355
  0
LINE
  5
4124
  8
0
  6
CONTINUOUS
 62
     3
 10
-148.5000000000003979
 20
25.0462980010966092
 30
-0.0000000000000355
 11
-148.5000000000003979
 21
20.0531503273235785
 31
-0.0000000000000355
  0
LINE
  5
4125
  8
0
  6
CONTINUOUS
 62
     3
 10
-148.5000000000005116
 20
484.4158839882005054
 30
-0.000000000000032
 11
-148.5000000000005116
 21
479.4227363144275955
 31
-0.000000000000032
  0
LINE
  5
4126
  8
0
  6
CONTINUOUS
 62
     3
 10
-148.5000000000005116
 20
369.573487491424487
 30
-0.000000000000032
 11
-148.5000000000005116
 21
364.5803398176515771
 31
-0.000000000000032
  0
LINE
  5
4127
  8
0
  6
CONTINUOUS
 62
     3
 10
148.5000000000005969
 20
364.5803398176518044
 30
0.000000000000032
 11
148.5000000000005969
 21
369.5734874914247143
 31
0.000000000000032
  0
LINE
  5
4128
  8
0
  6
CONTINUOUS
 62
     3
 10
148.5000000000005969
 20
479.4227363144278229
 30
0.000000000000032
 11
148.5000000000005969
 21
484.4158839882006191
 31
0.000000000000032
  0
LINE
  5
4129
  8
0
  6
CONTINUOUS
 62
     3
 10
148.5000000000005969
 20
20.0531503273238094
 30
0.0000000000000355
 11
148.5000000000005969
 21
25.0462980010967584
 31
0.0000000000000355
  0
LINE
  5
412A
  8
0
  6
CONTINUOUS
 62
     3
 10
148.5000000000005969
 20
134.8955468240997959
 30
0.0000000000000355
 11
148.5000000000005969
 21
139.8886944978725921
 31
0.0000000000000355
  0
LINE
  5
412B
  8
0
  6
CONTINUOUS
 62
     3
 10
148.5000000000005969
 20
249.737943320875786
 30
0.0000000000000355
 11
148.5000000000005969
 21
254.7310909946486959
 31
0.0000000000000355
  0
LINE
  5
412C
  8
0
  6
CONTINUOUS
 62
     3
 10
-150.0000000000003979
 20
25.0462980010964884
 30
-0.0000000000000355
 11
-150.0000000000003979
 21
20.0531503273235785
 31
-0.0000000000000355
  0
LINE
  5
412D
  8
0
  6
CONTINUOUS
 62
     3
 10
-150.0000000000005116
 20
139.8886944978725069
 30
-0.0000000000000355
 11
-150.0000000000005116
 21
134.895546824099597
 31
-0.0000000000000355
  0
LINE
  5
412E
  8
0
  6
CONTINUOUS
 62
     3
 10
-150.0000000000005116
 20
254.7310909946484969
 30
-0.0000000000000355
 11
-150.0000000000005116
 21
249.737943320875587
 31
-0.0000000000000355
  0
LINE
  5
412F
  8
0
  6
CONTINUOUS
 62
     3
 10
-150.0000000000005116
 20
484.4158839882005054
 30
-0.000000000000032
 11
-150.0000000000005116
 21
479.4227363144275955
 31
-0.000000000000032
  0
LINE
  5
4130
  8
0
  6
CONTINUOUS
 62
     3
 10
150.0000000000005969
 20
364.5803398176518044
 30
0.000000000000032
 11
150.0000000000005969
 21
369.5734874914247143
 31
0.000000000000032
  0
LINE
  5
4131
  8
0
  6
CONTINUOUS
 62
     3
 10
150.0000000000005969
 20
20.0531503273238094
 30
0.0000000000000355
 11
150.0000000000005969
 21
25.0462980010966909
 31
0.0000000000000355
  0
LINE
  5
4132
  8
0
  6
CONTINUOUS
 62
     3
 10
150.0000000000005969
 20
134.8955468240997959
 30
0.0000000000000355
 11
150.0000000000005969
 21
139.8886944978727058
 31
0.0000000000000355
  0
LINE
  5
4133
  8
0
  6
CONTINUOUS
 62
     3
 10
150.0000000000005969
 20
479.4227363144278229
 30
0.000000000000032
 11
150.0000000000005969
 21
484.4158839882006191
 31
0.000000000000032
  0
LINE
  5
4134
  8
0
  6
CONTINUOUS
 62
     3
 10
-150.0000000000005116
 20
369.573487491424487
 30
-0.000000000000032
 11
-150.0000000000005116
 21
364.5803398176515771
 31
-0.000000000000032
  0
LINE
  5
4135
  8
0
  6
CONTINUOUS
 62
     3
 10
150.0000000000005969
 20
249.737943320875786
 30
0.0000000000000355
 11
150.0000000000005969
 21
254.7310909946486959
 31
0.0000000000000355
  0
LINE
  5
4136
  8
0
  6
VERDECKT
 62
     1
 10
-149.2499999999998863
 20
19.7249890092709705
 30
-0.0000000000000355
 11
-148.5
 21
19.7249890092709492
 31
-0.0000000000000354
  0
LINE
  5
4137
  8
0
  6
VERDECKT
 62
     1
 10
-149.2499999999998863
 20
134.5673855060470032
 30
-0.0000000000000355
 11
-148.4999999999998863
 21
134.5673855060470032
 31
-0.0000000000000354
  0
LINE
  5
4138
  8
0
  6
VERDECKT
 62
     1
 10
-149.2499999999998863
 20
249.4097820028229933
 30
-0.0000000000000355
 11
-148.4999999999998863
 21
249.4097820028229933
 31
-0.0000000000000354
  0
LINE
  5
4139
  8
0
  6
VERDECKT
 62
     1
 10
-149.2499999999998863
 20
364.2521784995989833
 30
-0.000000000000032
 11
-148.4999999999998863
 21
364.2521784995989833
 31
-0.0000000000000318
  0
LINE
  5
413A
  8
0
  6
VERDECKT
 62
     1
 10
-149.2499999999998863
 20
479.0945749963748881
 30
-0.000000000000032
 11
-148.4999999999998863
 21
479.0945749963750018
 31
-0.0000000000000318
  0
LINE
  5
413B
  8
0
  6
VERDECKT
 62
     1
 10
-149.2499999999998863
 20
508.2905080744596944
 30
-0.000000000000032
 11
149.2499999999998863
 21
508.2905080744596944
 31
0.0000000000000343
  0
LINE
  5
413C
  8
0
  6
VERDECKT
 62
     1
 10
148.4999999999998863
 20
479.0945749963750018
 30
0.000000000000032
 11
149.2499999999998863
 21
479.0945749963750018
 31
0.0000000000000321
  0
LINE
  5
413D
  8
0
  6
VERDECKT
 62
     1
 10
148.4999999999998863
 20
364.2521784995989833
 30
0.000000000000032
 11
149.2499999999998863
 21
364.2521784995989833
 31
0.0000000000000321
  0
LINE
  5
413E
  8
0
  6
VERDECKT
 62
     1
 10
148.4999999999998863
 20
249.4097820028229933
 30
0.0000000000000355
 11
149.2499999999998863
 21
249.4097820028229933
 31
0.0000000000000357
  0
LINE
  5
413F
  8
0
  6
VERDECKT
 62
     1
 10
148.4999999999998863
 20
134.5673855060470032
 30
0.0000000000000355
 11
149.2499999999998863
 21
134.5673855060470032
 31
0.0000000000000357
  0
LINE
  5
4140
  8
0
  6
VERDECKT
 62
     1
 10
148.5
 20
19.7249890092709599
 30
0.0000000000000355
 11
149.2499999999998863
 21
19.7249890092709812
 31
0.0000000000000357
  0
LINE
  5
4141
  8
0
  6
VERDECKT
 62
     1
 10
102.5000000000000995
 20
0.002055697868147
 30
0.0000000000000213
 11
97.5000000000000711
 21
0.002055697868147
 31
0.0000000000000202
  0
LINE
  5
4142
  8
0
  6
VERDECKT
 62
     1
 10
2.5000000000000102
 20
0.0020556978681754
 30
0.0
 11
-2.4999999999999889
 21
0.0020556978681754
 31
-0.0000000000000011
  0
LINE
  5
4143
  8
0
  6
VERDECKT
 62
     1
 10
-97.5000000000000568
 20
0.002055697868147
 30
-0.0000000000000213
 11
-102.4999999999999005
 21
0.0020556978681114
 31
-0.0000000000000224
  0
LINE
  5
4144
  8
0
  6
VERDECKT
 62
     1
 10
148.4999999999998863
 20
479.0945749963750018
 30
0.000000000000032
 11
148.4999999999998863
 21
479.1730789307392797
 31
0.000000000000032
  0
LINE
  5
4145
  8
0
  6
VERDECKT
 62
     1
 10
148.4999999999998863
 20
364.2521784995989833
 30
0.000000000000032
 11
148.4999999999998863
 21
364.3306824339633749
 31
0.000000000000032
  0
LINE
  5
4146
  8
0
  6
VERDECKT
 62
     1
 10
148.4999999999998863
 20
249.4097820028229933
 30
0.0000000000000355
 11
148.4999999999998863
 21
249.4882859371874986
 31
0.0000000000000355
  0
LINE
  5
4147
  8
0
  6
VERDECKT
 62
     1
 10
148.4999999999998863
 20
134.5673855060470032
 30
0.0000000000000355
 11
148.4999999999998863
 21
134.6458894404113948
 31
0.0000000000000355
  0
LINE
  5
4148
  8
0
  6
VERDECKT
 62
     1
 10
148.5
 20
19.7249890092709599
 30
0.0000000000000355
 11
148.5
 21
19.8034929436353693
 31
0.0000000000000355
  0
LINE
  5
4149
  8
0
  6
VERDECKT
 62
     1
 10
102.5000000000000995
 20
1.50000000000001
 30
0.0000000000000213
 11
102.5000000000000995
 21
0.0805596322325695
 31
0.0000000000000213
  0
LINE
  5
414A
  8
0
  6
VERDECKT
 62
     1
 10
102.5000000000000995
 20
0.002055697868147
 30
0.0000000000000213
 11
102.5000000000000995
 21
0.0805596322325622
 31
0.0000000000000213
  0
LINE
  5
414B
  8
0
  6
VERDECKT
 62
     1
 10
102.5000000000000995
 20
0.0805596322325673
 30
0.0000000000000213
 11
97.5000000000000711
 21
0.0805596322325673
 31
0.0000000000000202
  0
LINE
  5
414C
  8
0
  6
VERDECKT
 62
     1
 10
97.5000000000000711
 20
0.002055697868147
 30
0.0000000000000213
 11
97.5000000000000711
 21
0.0805596322325622
 31
0.0000000000000213
  0
LINE
  5
414D
  8
0
  6
VERDECKT
 62
     1
 10
97.5000000000000711
 20
0.0805596322325673
 30
0.0000000000000213
 11
97.5000000000000711
 21
1.50000000000001
 31
0.0000000000000213
  0
LINE
  5
414E
  8
0
  6
VERDECKT
 62
     1
 10
2.5000000000000111
 20
1.50000000000001
 30
0.0
 11
2.5000000000000111
 21
0.0805596322326048
 31
0.0
  0
LINE
  5
414F
  8
0
  6
VERDECKT
 62
     1
 10
2.5000000000000111
 20
0.0020556978681754
 30
0.0
 11
2.5000000000000111
 21
0.0805596322325907
 31
0.0
  0
LINE
  5
4150
  8
0
  6
VERDECKT
 62
     1
 10
2.5000000000000111
 20
0.0805596322325957
 30
0.0
 11
-2.499999999999988
 21
0.0805596322325957
 31
-0.0000000000000011
  0
LINE
  5
4151
  8
0
  6
VERDECKT
 62
     1
 10
-2.4999999999999889
 20
0.0020556978681754
 30
0.0
 11
-2.499999999999988
 21
0.0805596322325907
 31
0.0
  0
LINE
  5
4152
  8
0
  6
VERDECKT
 62
     1
 10
-2.499999999999988
 20
0.0805596322325957
 30
0.0
 11
-2.499999999999988
 21
1.50000000000001
 31
0.0
  0
LINE
  5
4153
  8
0
  6
VERDECKT
 62
     1
 10
-97.4999999999999147
 20
1.50000000000001
 30
-0.0000000000000213
 11
-97.5000000000000568
 21
0.0805596322325479
 31
-0.0000000000000213
  0
LINE
  5
4154
  8
0
  6
VERDECKT
 62
     1
 10
-97.5000000000000568
 20
0.002055697868147
 30
-0.0000000000000213
 11
-97.5000000000000568
 21
0.0805596322325622
 31
-0.0000000000000213
  0
LINE
  5
4155
  8
0
  6
VERDECKT
 62
     1
 10
-97.5000000000000568
 20
0.0805596322325673
 30
-0.0000000000000213
 11
-102.4999999999999005
 21
0.0805596322325317
 31
-0.0000000000000224
  0
LINE
  5
4156
  8
0
  6
VERDECKT
 62
     1
 10
-102.4999999999999005
 20
0.0020556978681185
 30
-0.0000000000000213
 11
-102.4999999999999005
 21
0.0805596322325338
 31
-0.0000000000000213
  0
LINE
  5
4157
  8
0
  6
VERDECKT
 62
     1
 10
-102.4999999999999005
 20
0.0805596322325104
 30
-0.0000000000000213
 11
-102.5
 21
1.50000000000001
 31
-0.0000000000000213
  0
LINE
  5
4158
  8
0
  6
VERDECKT
 62
     1
 10
-148.5
 20
19.7249890092709599
 30
-0.0000000000000355
 11
-148.5
 21
19.8034929436353693
 31
-0.0000000000000355
  0
LINE
  5
4159
  8
0
  6
VERDECKT
 62
     1
 10
-148.4999999999998863
 20
134.5673855060470032
 30
-0.0000000000000355
 11
-148.4999999999998863
 21
134.6458894404113948
 31
-0.0000000000000355
  0
LINE
  5
415A
  8
0
  6
VERDECKT
 62
     1
 10
-148.4999999999998863
 20
249.4097820028229933
 30
-0.0000000000000355
 11
-148.4999999999998863
 21
249.4882859371874986
 31
-0.0000000000000355
  0
LINE
  5
415B
  8
0
  6
VERDECKT
 62
     1
 10
-148.4999999999998863
 20
364.2521784995989833
 30
-0.000000000000032
 11
-148.4999999999998863
 21
364.3306824339633749
 31
-0.000000000000032
  0
LINE
  5
415C
  8
0
  6
VERDECKT
 62
     1
 10
-148.4999999999998863
 20
479.0945749963750018
 30
-0.000000000000032
 11
-148.4999999999998863
 21
479.1730789307392797
 31
-0.000000000000032
  0
LINE
  5
415D
  8
0
  6
VERDECKT
 62
     1
 10
-150.5
 20
1.5
 30
-0.0000000000000333
 11
-150.5
 21
0.0
 31
-0.0000000000000333
  0
LINE
  5
415E
  8
0
  6
VERDECKT
 62
     1
 10
-149.0
 20
1.500000000000002
 30
-0.0000000000000355
 11
-149.0
 21
0.0000000000000027
 31
-0.0000000000000355
  0
LINE
  5
415F
  8
0
  6
VERDECKT
 62
     1
 10
-102.75
 20
1.5000000000000031
 30
-0.0000000000000213
 11
-102.75
 21
0.0000000000000029
 31
-0.0000000000000213
  0
LINE
  5
4160
  8
0
  6
VERDECKT
 62
     1
 10
-97.2499999999999858
 20
1.5000000000000031
 30
-0.0000000000000213
 11
-97.2499999999999858
 21
0.0000000000000029
 31
-0.0000000000000213
  0
LINE
  5
4161
  8
0
  6
VERDECKT
 62
     1
 10
-2.750000000000016
 20
1.5000000000000031
 30
0.0
 11
-2.750000000000016
 21
0.0000000000000029
 31
0.0
  0
LINE
  5
4162
  8
0
  6
VERDECKT
 62
     1
 10
2.7499999999999831
 20
1.5000000000000031
 30
0.0
 11
2.7499999999999831
 21
0.0000000000000029
 31
0.0
  0
LINE
  5
4163
  8
0
  6
VERDECKT
 62
     1
 10
97.2500000000000142
 20
1.5000000000000031
 30
0.0000000000000213
 11
97.2500000000000142
 21
0.0000000000000029
 31
0.0000000000000213
  0
LINE
  5
4164
  8
0
  6
VERDECKT
 62
     1
 10
102.75
 20
1.5000000000000031
 30
0.0000000000000213
 11
102.75
 21
0.0000000000000029
 31
0.0000000000000213
  0
LINE
  5
4165
  8
0
  6
VERDECKT
 62
     1
 10
149.0
 20
1.500000000000002
 30
0.0000000000000355
 11
149.0
 21
0.0000000000000027
 31
0.0000000000000355
  0
LINE
  5
4166
  8
0
  6
VERDECKT
 62
     1
 10
150.5
 20
1.5
 30
0.0000000000000333
 11
150.5
 21
0.0
 31
0.0000000000000333
  0
LINE
  5
4167
  8
0
  6
VERDECKT
 62
     1
 10
3.5000000000000688
 20
1.5000000000000091
 30
0.0
 11
3.5000000000000688
 21
0.0000000000000089
 31
0.0
  0
LINE
  5
4168
  8
0
  6
VERDECKT
 62
     1
 10
-3.4999999999999312
 20
1.5000000000000091
 30
0.0
 11
-3.4999999999999312
 21
0.0000000000000089
 31
0.0
  0
LINE
  5
4169
  8
0
  6
VERDECKT
 62
     1
 10
253.5000000000001137
 20
1.5000000000000091
 30
0.0000000000000568
 11
253.5000000000001137
 21
0.0000000000000089
 31
0.0000000000000568
  0
LINE
  5
416A
  8
0
  6
VERDECKT
 62
     1
 10
246.5000000000001137
 20
1.5000000000000091
 30
0.0000000000000568
 11
246.5000000000001137
 21
0.0000000000000089
 31
0.0000000000000568
  0
LINE
  5
416B
  8
0
  6
VERDECKT
 62
     1
 10
-246.5
 20
1.5000000000000091
 30
-0.0000000000000568
 11
-246.5
 21
0.0000000000000089
 31
-0.0000000000000568
  0
LINE
  5
416C
  8
0
  6
VERDECKT
 62
     1
 10
-253.5
 20
1.5000000000000091
 30
-0.0000000000000568
 11
-253.5
 21
0.0000000000000089
 31
-0.0000000000000568
  0
LINE
  5
416D
  8
0
  6
VERDECKT
 62
     1
 10
-97.4999999999999574
 20
0.5798743996096475
 30
-0.0000000000000213
 11
-102.4999999999999005
 21
0.5798743996096475
 31
-0.0000000000000224
  0
LINE
  5
416E
  8
0
  6
VERDECKT
 62
     1
 10
-97.4999999999999574
 20
0.5013704652451989
 30
-0.0000000000000213
 11
-102.4999999999999005
 21
0.5013704652451989
 31
-0.0000000000000224
  0
LINE
  5
416F
  8
0
  6
VERDECKT
 62
     1
 10
102.5
 20
0.5798743996096475
 30
0.0000000000000213
 11
97.5000000000000568
 21
0.5798743996096475
 31
0.0000000000000202
  0
LINE
  5
4170
  8
0
  6
VERDECKT
 62
     1
 10
102.5
 20
0.5013704652451989
 30
0.0000000000000213
 11
97.5000000000000568
 21
0.5013704652451989
 31
0.0000000000000202
  0
LINE
  5
4171
  8
0
  6
VERDECKT
 62
     1
 10
148.5000000000005969
 20
254.6525870602843042
 30
0.0000000000000355
 11
150.0000000000005969
 21
254.6525870602843042
 31
0.0000000000000359
  0
LINE
  5
4172
  8
0
  6
VERDECKT
 62
     1
 10
-150.0000000000005116
 20
254.6525870602843042
 30
-0.0000000000000355
 11
-148.5000000000003979
 21
254.6525870602843042
 31
-0.0000000000000352
  0
LINE
  5
4173
  8
0
  6
VERDECKT
 62
     1
 10
148.5000000000005969
 20
254.9807483783376085
 30
0.0000000000000355
 11
148.5000000000005969
 21
364.2521784995989833
 31
0.0000000000000355
  0
LINE
  5
4174
  8
0
  6
VERDECKT
 62
     1
 10
-148.5000000000003979
 20
364.2521784995989833
 30
-0.000000000000032
 11
-148.5000000000003979
 21
254.9807483783376085
 31
-0.000000000000032
  0
LINE
  5
4175
  8
0
  6
VERDECKT
 62
     1
 10
148.5000000000005969
 20
484.6655413718895034
 30
0.000000000000032
 11
148.5000000000005969
 21
508.2900825166038885
 31
0.000000000000032
  0
LINE
  5
4176
  8
0
  6
VERDECKT
 62
     1
 10
148.5000000000005969
 20
484.3373800538362275
 30
0.000000000000032
 11
150.0000000000005969
 21
484.3373800538362275
 31
0.0000000000000323
  0
LINE
  5
4177
  8
0
  6
VERDECKT
 62
     1
 10
149.249999999999801
 20
508.2900825166038885
 30
0.000000000000032
 11
148.5000000000005969
 21
508.2900825166038885
 31
0.0000000000000318
  0
LINE
  5
4178
  8
0
  6
VERDECKT
 62
     1
 10
-148.5000000000003979
 20
508.2900825166038885
 30
-0.000000000000032
 11
-148.5000000000003979
 21
484.6655413718895034
 31
-0.000000000000032
  0
LINE
  5
4179
  8
0
  6
VERDECKT
 62
     1
 10
-148.5000000000003979
 20
508.2900825166038885
 30
-0.000000000000032
 11
-149.2499999999998863
 21
508.2900825166038885
 31
-0.0000000000000321
  0
LINE
  5
417A
  8
0
  6
VERDECKT
 62
     1
 10
-150.0000000000005116
 20
484.3373800538362275
 30
-0.000000000000032
 11
-148.5000000000003979
 21
484.3373800538362275
 31
-0.0000000000000316
  0
LINE
  5
417B
  8
0
  6
VERDECKT
 62
     1
 10
-148.5000000000005116
 20
508.3690120088241997
 30
-0.000000000000032
 11
-148.5000000000005116
 21
508.2900825166038885
 31
-0.000000000000032
  0
LINE
  5
417C
  8
0
  6
VERDECKT
 62
     1
 10
148.5000000000005969
 20
508.2900825166038885
 30
0.000000000000032
 11
148.5000000000005969
 21
508.3690120088241997
 31
0.000000000000032
  0
LINE
  5
417D
  8
0
  6
VERDECKT
 62
     1
 10
148.5000000000005969
 20
139.8101905635082005
 30
0.0000000000000355
 11
150.0000000000005969
 21
139.8101905635082005
 31
0.0000000000000359
  0
LINE
  5
417E
  8
0
  6
VERDECKT
 62
     1
 10
-150.0000000000003979
 20
139.8101905635082005
 30
-0.0000000000000355
 11
-148.5000000000003979
 21
139.8101905635082005
 31
-0.0000000000000352
  0
LINE
  5
417F
  8
0
  6
VERDECKT
 62
     1
 10
148.5000000000005969
 20
140.1383518815615901
 30
0.0000000000000355
 11
148.5000000000005969
 21
249.409782002823107
 31
0.0000000000000355
  0
LINE
  5
4180
  8
0
  6
VERDECKT
 62
     1
 10
-148.5000000000003979
 20
249.4097820028229933
 30
-0.0000000000000355
 11
-148.5000000000003979
 21
140.1383518815615901
 31
-0.0000000000000355
  0
LINE
  5
4181
  8
0
  6
VERDECKT
 62
     1
 10
148.5000000000005969
 20
24.9677940667322105
 30
0.0000000000000355
 11
150.0000000000005969
 21
24.9677940667322105
 31
0.0000000000000359
  0
LINE
  5
4182
  8
0
  6
VERDECKT
 62
     1
 10
-150.0000000000003979
 20
24.9677940667322105
 30
-0.0000000000000355
 11
-148.5000000000003979
 21
24.9677940667322105
 31
-0.0000000000000352
  0
LINE
  5
4183
  8
0
  6
VERDECKT
 62
     1
 10
148.5000000000005969
 20
25.2959553847854615
 30
0.0000000000000355
 11
148.5000000000005969
 21
134.5673855060470032
 31
0.0000000000000355
  0
LINE
  5
4184
  8
0
  6
VERDECKT
 62
     1
 10
-148.5000000000003979
 20
134.5673855060470032
 30
-0.0000000000000355
 11
-148.5000000000003979
 21
25.2959553847854899
 31
-0.0000000000000355
  0
LINE
  5
4185
  8
0
  6
VERDECKT
 62
     1
 10
148.5000000000005969
 20
369.4949835570600953
 30
0.000000000000032
 11
150.0000000000005969
 21
369.4949835570600953
 31
0.0000000000000323
  0
LINE
  5
4186
  8
0
  6
VERDECKT
 62
     1
 10
-150.0000000000005116
 20
369.4949835570600953
 30
-0.000000000000032
 11
-148.5000000000003979
 21
369.4949835570600953
 31
-0.0000000000000316
  0
LINE
  5
4187
  8
0
  6
VERDECKT
 62
     1
 10
148.5000000000005969
 20
369.8231448751135986
 30
0.000000000000032
 11
148.5000000000005969
 21
479.0945749963750018
 31
0.000000000000032
  0
LINE
  5
4188
  8
0
  6
VERDECKT
 62
     1
 10
-148.5000000000003979
 20
479.0945749963750018
 30
-0.000000000000032
 11
-148.5000000000003979
 21
369.8231448751135986
 31
-0.000000000000032
  0
LINE
  5
4189
  8
0
  6
VERDECKT
 62
     1
 10
148.5000000000005969
 20
1.499999999999718
 30
0.0000000000000355
 11
148.5000000000005969
 21
19.7249890092709599
 31
0.0000000000000355
  0
LINE
  5
418A
  8
0
  6
VERDECKT
 62
     1
 10
148.5000000000003126
 20
-0.000000000000284
 30
0.0000000000000329
 11
148.5000000000003126
 21
1.4999999999999429
 31
0.0000000000000329
  0
LINE
  5
418B
  8
0
  6
VERDECKT
 62
     1
 10
150.0000000000003126
 20
1.4999999999999429
 30
0.0000000000000333
 11
150.0000000000003126
 21
-0.000000000000284
 31
0.0000000000000333
  0
LINE
  5
418C
  8
0
  6
VERDECKT
 62
     1
 10
-148.5000000000003979
 20
19.7249890092709599
 30
-0.0000000000000355
 11
-148.5000000000003979
 21
1.4999999999997189
 31
-0.0000000000000355
  0
LINE
  5
418D
  8
0
  6
VERDECKT
 62
     1
 10
-148.500000000000199
 20
1.4999999999999429
 30
-0.0000000000000329
 11
-148.500000000000199
 21
-0.000000000000284
 31
-0.0000000000000329
  0
LINE
  5
418E
  8
0
  6
VERDECKT
 62
     1
 10
-150.000000000000199
 20
-0.000000000000284
 30
-0.0000000000000333
 11
-150.000000000000199
 21
1.4999999999999429
 31
-0.0000000000000333
  0
ENDBLK
  5
4190
  8
0
  0
BLOCK
  8
0
  2
A$CFD5CFBCE
 70
     0
 10
0.0
 20
0.0
 30
0.0
  3
A$CFD5CFBCE
  1

  0
LINE
  5
4194
  8
0
  6
CONTINUOUS
 62
     3
 10
102.75
 20
50.0645030830318305
 30
-0.0000000000000111
 11
102.5
 21
50.0645030830318305
 31
-0.0000000000000111
210
0.0
220
1.0
230
-0.0000000000000002
  0
LINE
  5
4195
  8
0
  6
CONTINUOUS
 62
     3
 10
148.5547285749827893
 20
48.5665587808999817
 30
-0.0000000000000108
 11
102.5
 21
48.5665587808999817
 31
-0.0000000000000108
210
0.0
220
1.0
230
-0.0000000000000002
  0
LINE
  5
4196
  8
0
  6
CONTINUOUS
 62
     3
 10
-148.5000000000003126
 20
22.0067936909935717
 30
-0.0000000000000049
 11
148.5000000000003979
 21
22.0067936909935717
 31
-0.0000000000000049
210
0.0
220
1.0
230
-0.0000000000000002
  0
LINE
  5
4197
  8
0
  6
CONTINUOUS
 62
     3
 10
102.5
 20
48.5665587808999817
 30
-0.0000000000000108
 11
102.5
 21
48.6450627152643875
 31
-0.0000000000000108
210
0.0
220
1.0
230
-0.0000000000000002
  0
LINE
  5
4198
  8
0
  6
CONTINUOUS
 62
     3
 10
102.5
 20
48.6450627152643875
 30
-0.0000000000000108
 11
97.5000000000000711
 21
48.6450627152643875
 31
-0.0000000000000108
210
0.0
220
1.0
230
-0.0000000000000002
  0
LINE
  5
4199
  8
0
  6
CONTINUOUS
 62
     3
 10
97.5000000000000711
 20
48.6450627152643875
 30
-0.0000000000000108
 11
97.5000000000000711
 21
48.5665587808999817
 31
-0.0000000000000108
210
0.0
220
1.0
230
-0.0000000000000002
  0
LINE
  5
419A
  8
0
  6
CONTINUOUS
 62
     3
 10
97.5000000000000711
 20
48.5665587808999817
 30
-0.0000000000000108
 11
2.5
 21
48.5665587808999817
 31
-0.0000000000000108
210
0.0
220
1.0
230
-0.0000000000000002
  0
LINE
  5
419B
  8
0
  6
CONTINUOUS
 62
     3
 10
2.5
 20
48.5665587808999817
 30
-0.0000000000000108
 11
2.5
 21
48.6450627152643875
 31
-0.0000000000000108
210
0.0
220
1.0
230
-0.0000000000000002
  0
LINE
  5
419C
  8
0
  6
CONTINUOUS
 62
     3
 10
2.5
 20
48.6450627152643875
 30
-0.0000000000000108
 11
-2.5
 21
48.6450627152643875
 31
-0.0000000000000108
210
0.0
220
1.0
230
-0.0000000000000002
  0
LINE
  5
419D
  8
0
  6
CONTINUOUS
 62
     3
 10
-2.5
 20
48.6450627152643875
 30
-0.0000000000000108
 11
-2.5
 21
48.5665587808999817
 31
-0.0000000000000108
210
0.0
220
1.0
230
-0.0000000000000002
  0
LINE
  5
419E
  8
0
  6
CONTINUOUS
 62
     3
 10
-2.5
 20
48.5665587808999817
 30
-0.0000000000000108
 11
-97.4999999999999147
 21
48.5665587808999817
 31
-0.0000000000000108
210
0.0
220
1.0
230
-0.0000000000000002
  0
LINE
  5
419F
  8
0
  6
CONTINUOUS
 62
     3
 10
-97.4999999999999147
 20
48.5665587808999817
 30
-0.0000000000000108
 11
-97.5000000000000711
 21
48.6450627152643875
 31
-0.0000000000000108
210
0.0
220
1.0
230
-0.0000000000000002
  0
LINE
  5
41A0
  8
0
  6
CONTINUOUS
 62
     3
 10
-97.5000000000000711
 20
48.6450627152643875
 30
-0.0000000000000108
 11
-102.4999999999999005
 21
48.6450627152643875
 31
-0.0000000000000108
210
0.0
220
1.0
230
-0.0000000000000002
  0
LINE
  5
41A1
  8
0
  6
CONTINUOUS
 62
     3
 10
-102.4999999999999005
 20
48.6450627152644017
 30
-0.0000000000000108
 11
-102.5
 21
48.5665587808999817
 31
-0.0000000000000108
210
0.0
220
1.0
230
-0.0000000000000002
  0
LINE
  5
41A2
  8
0
  6
CONTINUOUS
 62
     3
 10
-102.5
 20
48.5665587808999817
 30
-0.0000000000000108
 11
-148.554728574982704
 21
48.5665587808999817
 31
-0.0000000000000108
210
0.0
220
1.0
230
-0.0000000000000002
  0
LINE
  5
41A3
  8
0
  6
CONTINUOUS
 62
     3
 10
102.5
 20
48.6450627152643875
 30
-0.0000000000000108
 11
102.5
 21
50.1430070173962505
 31
-0.0000000000000111
210
0.0
220
1.0
230
-0.0000000000000002
  0
LINE
  5
41A4
  8
0
  6
CONTINUOUS
 62
     3
 10
102.5
 20
50.1430070173962505
 30
-0.0000000000000111
 11
97.5000000000000711
 21
50.1430070173962505
 31
-0.0000000000000111
210
0.0
220
1.0
230
-0.0000000000000002
  0
LINE
  5
41A5
  8
0
  6
CONTINUOUS
 62
     3
 10
97.5000000000000711
 20
48.6450627152643875
 30
-0.0000000000000108
 11
97.5000000000000711
 21
50.1430070173962505
 31
-0.0000000000000111
210
0.0
220
1.0
230
-0.0000000000000002
  0
LINE
  5
41A6
  8
0
  6
CONTINUOUS
 62
     3
 10
97.5000000000000711
 20
50.0645030830318305
 30
-0.0000000000000111
 11
97.2500000000000142
 21
50.0645030830318305
 31
-0.0000000000000111
210
0.0
220
1.0
230
-0.0000000000000002
  0
LINE
  5
41A7
  8
0
  6
CONTINUOUS
 62
     3
 10
2.7499999999999849
 20
50.0645030830318305
 30
-0.0000000000000111
 11
2.5
 21
50.0645030830318305
 31
-0.0000000000000111
210
0.0
220
1.0
230
-0.0000000000000002
  0
LINE
  5
41A8
  8
0
  6
CONTINUOUS
 62
     3
 10
2.5
 20
48.6450627152643875
 30
-0.0000000000000108
 11
2.5
 21
50.1430070173962505
 31
-0.0000000000000111
210
0.0
220
1.0
230
-0.0000000000000002
  0
LINE
  5
41A9
  8
0
  6
CONTINUOUS
 62
     3
 10
2.5
 20
50.1430070173962505
 30
-0.0000000000000111
 11
-2.5
 21
50.1430070173962505
 31
-0.0000000000000111
210
0.0
220
1.0
230
-0.0000000000000002
  0
LINE
  5
41AA
  8
0
  6
CONTINUOUS
 62
     3
 10
-2.5
 20
48.6450627152643875
 30
-0.0000000000000108
 11
-2.5
 21
50.1430070173962505
 31
-0.0000000000000111
210
0.0
220
1.0
230
-0.0000000000000002
  0
LINE
  5
41AB
  8
0
  6
CONTINUOUS
 62
     3
 10
-2.5
 20
50.0645030830318305
 30
-0.0000000000000111
 11
-2.750000000000012
 21
50.0645030830318305
 31
-0.0000000000000111
210
0.0
220
1.0
230
-0.0000000000000002
  0
LINE
  5
41AC
  8
0
  6
CONTINUOUS
 62
     3
 10
-97.2500000000000142
 20
50.0645030830318305
 30
-0.0000000000000111
 11
-97.4999999999999147
 21
50.0645030830318305
 31
-0.0000000000000111
210
0.0
220
1.0
230
-0.0000000000000002
  0
LINE
  5
41AD
  8
0
  6
CONTINUOUS
 62
     3
 10
-97.5000000000000711
 20
48.6450627152643875
 30
-0.0000000000000108
 11
-97.5000000000000711
 21
50.1430070173962505
 31
-0.0000000000000111
210
0.0
220
1.0
230
-0.0000000000000002
  0
LINE
  5
41AE
  8
0
  6
CONTINUOUS
 62
     3
 10
-97.5000000000000711
 20
50.1430070173962505
 30
-0.0000000000000111
 11
-102.4999999999999005
 21
50.1430070173962505
 31
-0.0000000000000111
210
0.0
220
1.0
230
-0.0000000000000002
  0
LINE
  5
41AF
  8
0
  6
CONTINUOUS
 62
     3
 10
-102.4999999999999005
 20
48.6450627152644017
 30
-0.0000000000000108
 11
-102.4999999999999005
 21
50.1430070173962577
 31
-0.0000000000000111
210
0.0
220
1.0
230
-0.0000000000000002
  0
LINE
  5
41B0
  8
0
  6
CONTINUOUS
 62
     3
 10
-102.5
 20
50.0645030830318305
 30
-0.0000000000000111
 11
-102.75
 21
50.0645030830318305
 31
-0.0000000000000111
210
0.0
220
1.0
230
-0.0000000000000002
  0
LINE
  5
41B1
  8
0
  6
CONTINUOUS
 62
     3
 10
147.5
 20
-48.9999999999998792
 30
0.0000000000000109
 11
102.75
 21
-48.9999999999999787
 31
0.0000000000000109
210
0.0
220
1.0
230
-0.0000000000000002
  0
LINE
  5
41B2
  8
0
  6
CONTINUOUS
 62
     3
 10
102.75
 20
-48.9999999999999787
 30
0.0000000000000109
 11
102.7499999999999005
 21
-50.4999999999996305
 31
0.0000000000000112
210
0.0
220
1.0
230
-0.0000000000000002
  0
LINE
  5
41B3
  8
0
  6
CONTINUOUS
 62
     3
 10
102.7499999999999005
 20
-50.4999999999996305
 30
0.0000000000000112
 11
97.2499999999999574
 21
-50.4999999999996518
 31
0.0000000000000112
210
0.0
220
1.0
230
-0.0000000000000002
  0
LINE
  5
41B4
  8
0
  6
CONTINUOUS
 62
     3
 10
97.2499999999999574
 20
-50.4999999999996518
 30
0.0000000000000112
 11
97.2500000000000284
 21
-49.0000000000000426
 31
0.0000000000000109
210
0.0
220
1.0
230
-0.0000000000000002
  0
LINE
  5
41B5
  8
0
  6
CONTINUOUS
 62
     3
 10
97.2500000000000284
 20
-49.0000000000000497
 30
0.0000000000000109
 11
2.750000000000056
 21
-48.9999999999999503
 31
0.0000000000000109
210
0.0
220
1.0
230
-0.0000000000000002
  0
LINE
  5
41B6
  8
0
  6
CONTINUOUS
 62
     3
 10
2.7500000000000488
 20
-48.9999999999999503
 30
0.0000000000000109
 11
2.749999999999996
 21
-50.4999999999999787
 31
0.0000000000000112
210
0.0
220
1.0
230
-0.0000000000000002
  0
LINE
  5
41B7
  8
0
  6
CONTINUOUS
 62
     3
 10
2.7499999999999969
 20
-50.4999999999999787
 30
0.0000000000000112
 11
-2.7500000000000022
 21
-50.4999999999999787
 31
0.0000000000000112
210
0.0
220
1.0
230
-0.0000000000000002
  0
LINE
  5
41B8
  8
0
  6
CONTINUOUS
 62
     3
 10
-2.7500000000000022
 20
-50.4999999999999787
 30
0.0000000000000112
 11
-2.7499999999999498
 21
-48.9999999999999503
 31
0.0000000000000109
210
0.0
220
1.0
230
-0.0000000000000002
  0
LINE
  5
41B9
  8
0
  6
CONTINUOUS
 62
     3
 10
-2.7499999999999498
 20
-48.9999999999999503
 30
0.0000000000000109
 11
-97.2500000000000426
 21
-49.0000000000000711
 31
0.0000000000000109
210
0.0
220
1.0
230
-0.0000000000000002
  0
LINE
  5
41BA
  8
0
  6
CONTINUOUS
 62
     3
 10
-97.2500000000000284
 20
-49.0000000000000711
 30
0.0000000000000109
 11
-97.2499999999999574
 21
-50.4999999999996589
 31
0.0000000000000112
210
0.0
220
1.0
230
-0.0000000000000002
  0
LINE
  5
41BB
  8
0
  6
CONTINUOUS
 62
     3
 10
-97.2499999999999716
 20
-50.4999999999996589
 30
0.0000000000000112
 11
-102.7499999999999005
 21
-50.4999999999996589
 31
0.0000000000000112
210
0.0
220
1.0
230
-0.0000000000000002
  0
LINE
  5
41BC
  8
0
  6
CONTINUOUS
 62
     3
 10
-102.7499999999999005
 20
-50.4999999999996589
 30
0.0000000000000112
 11
-102.7499999999999005
 21
-48.9999999999996305
 31
0.0000000000000109
210
0.0
220
1.0
230
-0.0000000000000002
  0
LINE
  5
41BD
  8
0
  6
CONTINUOUS
 62
     3
 10
-102.7499999999999005
 20
-48.9999999999996305
 30
0.0000000000000109
 11
-147.5
 21
-49.0
 31
0.0000000000000109
210
0.0
220
1.0
230
-0.0000000000000002
  0
ARC
  5
41BE
  8
0
  6
CONTINUOUS
 62
     3
 10
147.5
 20
-47.4999999999999787
 30
0.0
 40
1.500000000000028
210
0.0
220
-0.0000000000000002
230
-1.0
 50
270.0
 51
359.9999999999961915
  0
LINE
  5
41BF
  8
0
  6
CONTINUOUS
 62
     3
 10
-149.0
 20
-47.5000000000000711
 30
0.0000000000000105
 11
-149.0
 21
-2.7500000000000431
 31
0.0000000000000006
210
0.0
220
1.0
230
-0.0000000000000002
  0
LINE
  5
41C0
  8
0
  6
CONTINUOUS
 62
     3
 10
-149.0
 20
-2.7500000000000449
 30
0.0000000000000006
 11
-150.5
 21
-2.7500000000000449
 31
0.0000000000000006
210
0.0
220
1.0
230
-0.0000000000000002
  0
LINE
  5
41C1
  8
0
  6
CONTINUOUS
 62
     3
 10
-150.5
 20
-2.7500000000000449
 30
0.0000000000000006
 11
-150.5
 21
2.749999999999956
 31
-0.0000000000000006
210
0.0
220
1.0
230
-0.0000000000000002
  0
LINE
  5
41C2
  8
0
  6
CONTINUOUS
 62
     3
 10
-150.5
 20
2.749999999999956
 30
-0.0000000000000006
 11
-149.0
 21
2.7499999999999551
 31
-0.0000000000000006
210
0.0
220
1.0
230
-0.0000000000000002
  0
LINE
  5
41C3
  8
0
  6
CONTINUOUS
 62
     3
 10
-149.0
 20
2.7499999999999551
 30
-0.0000000000000006
 11
-149.0
 21
47.5
 31
-0.0000000000000105
210
0.0
220
1.0
230
-0.0000000000000002
  0
ARC
  5
41C4
  8
0
  6
CONTINUOUS
 62
     3
 10
147.5
 20
47.4999999999999076
 30
0.0
 40
1.500000000000028
210
0.0
220
-0.0000000000000002
230
-1.0
 50
0.0000000000038039
 51
90.0000000000000284
  0
LINE
  5
41C5
  8
0
  6
CONTINUOUS
 62
     3
 10
-147.5
 20
48.9999999999999289
 30
-0.0000000000000109
 11
-102.75
 21
48.9999999999995524
 31
-0.0000000000000109
210
0.0
220
1.0
230
-0.0000000000000002
  0
LINE
  5
41C6
  8
0
  6
CONTINUOUS
 62
     3
 10
-102.75
 20
48.9999999999995524
 30
-0.0000000000000109
 11
-102.75
 21
50.4999999999995666
 31
-0.0000000000000112
210
0.0
220
1.0
230
-0.0000000000000002
  0
LINE
  5
41C7
  8
0
  6
CONTINUOUS
 62
     3
 10
-102.75
 20
50.4999999999995595
 30
-0.0000000000000112
 11
-97.2500000000000142
 21
50.4999999999995808
 31
-0.0000000000000112
210
0.0
220
1.0
230
-0.0000000000000002
  0
LINE
  5
41C8
  8
0
  6
CONTINUOUS
 62
     3
 10
-97.2500000000000142
 20
50.4999999999995808
 30
-0.0000000000000112
 11
-97.2500000000000142
 21
49.0000000000000711
 31
-0.0000000000000109
210
0.0
220
1.0
230
-0.0000000000000002
  0
LINE
  5
41C9
  8
0
  6
CONTINUOUS
 62
     3
 10
-97.2500000000000142
 20
49.0000000000000711
 30
-0.0000000000000109
 11
-2.7499999999999711
 21
48.9999999999999503
 31
-0.0000000000000109
210
0.0
220
1.0
230
-0.0000000000000002
  0
LINE
  5
41CA
  8
0
  6
CONTINUOUS
 62
     3
 10
-2.7499999999999738
 20
48.9999999999999503
 30
-0.0000000000000109
 11
-2.7500000000000271
 21
50.4999999999999787
 31
-0.0000000000000112
210
0.0
220
1.0
230
-0.0000000000000002
  0
LINE
  5
41CB
  8
0
  6
CONTINUOUS
 62
     3
 10
-2.7500000000000271
 20
50.4999999999999787
 30
-0.0000000000000112
 11
2.749999999999972
 21
50.4999999999999787
 31
-0.0000000000000112
210
0.0
220
1.0
230
-0.0000000000000002
  0
LINE
  5
41CC
  8
0
  6
CONTINUOUS
 62
     3
 10
2.749999999999972
 20
50.4999999999999787
 30
-0.0000000000000112
 11
2.7500000000000249
 21
48.9999999999999503
 31
-0.0000000000000109
210
0.0
220
1.0
230
-0.0000000000000002
  0
LINE
  5
41CD
  8
0
  6
CONTINUOUS
 62
     3
 10
2.7500000000000249
 20
48.9999999999999503
 30
-0.0000000000000109
 11
97.2499999999999858
 21
49.0000000000000995
 31
-0.0000000000000109
210
0.0
220
1.0
230
-0.0000000000000002
  0
LINE
  5
41CE
  8
0
  6
CONTINUOUS
 62
     3
 10
97.2500000000000142
 20
49.0000000000000995
 30
-0.0000000000000109
 11
97.2500000000000142
 21
50.4999999999995879
 31
-0.0000000000000112
210
0.0
220
1.0
230
-0.0000000000000002
  0
LINE
  5
41CF
  8
0
  6
CONTINUOUS
 62
     3
 10
97.2500000000000142
 20
50.4999999999995879
 30
-0.0000000000000112
 11
102.75
 21
50.4999999999995879
 31
-0.0000000000000112
210
0.0
220
1.0
230
-0.0000000000000002
  0
LINE
  5
41D0
  8
0
  6
CONTINUOUS
 62
     3
 10
102.75
 20
50.4999999999995879
 30
-0.0000000000000112
 11
102.75
 21
49.0000000000000284
 31
-0.0000000000000109
210
0.0
220
1.0
230
-0.0000000000000002
  0
LINE
  5
41D1
  8
0
  6
CONTINUOUS
 62
     3
 10
102.75
 20
49.0000000000000284
 30
-0.0000000000000109
 11
147.5
 21
48.9999999999999574
 31
-0.0000000000000109
210
0.0
220
1.0
230
-0.0000000000000002
  0
ARC
  5
41D2
  8
0
  6
CONTINUOUS
 62
     3
 10
-147.5
 20
47.5000000000000568
 30
0.0
 40
1.4999999999999849
210
0.0
220
-0.0000000000000002
230
-1.0
 50
89.9999999999989342
 51
180.0000000000005116
  0
LINE
  5
41D3
  8
0
  6
CONTINUOUS
 62
     3
 10
149.0
 20
47.5000000000000426
 30
-0.0000000000000105
 11
149.0
 21
2.7499999999999929
 31
-0.0000000000000006
210
0.0
220
1.0
230
-0.0000000000000002
  0
LINE
  5
41D4
  8
0
  6
CONTINUOUS
 62
     3
 10
149.0
 20
2.7499999999999911
 30
-0.0000000000000006
 11
150.5
 21
2.749999999999992
 31
-0.0000000000000006
210
0.0
220
1.0
230
-0.0000000000000002
  0
LINE
  5
41D5
  8
0
  6
CONTINUOUS
 62
     3
 10
150.5
 20
2.749999999999992
 30
-0.0000000000000006
 11
150.5
 21
-2.750000000000008
 31
0.0000000000000006
210
0.0
220
1.0
230
-0.0000000000000002
  0
LINE
  5
41D6
  8
0
  6
CONTINUOUS
 62
     3
 10
150.5
 20
-2.750000000000008
 30
0.0000000000000006
 11
149.0
 21
-2.750000000000008
 31
0.0000000000000006
210
0.0
220
1.0
230
-0.0000000000000002
  0
LINE
  5
41D7
  8
0
  6
CONTINUOUS
 62
     3
 10
149.0
 20
-2.7500000000000089
 30
0.0000000000000006
 11
149.0
 21
-47.4999999999999716
 31
0.0000000000000105
210
0.0
220
1.0
230
-0.0000000000000002
  0
ARC
  5
41D8
  8
0
  6
CONTINUOUS
 62
     3
 10
-147.5
 20
-47.4999999999999929
 30
0.0
 40
1.4999999999999709
210
0.0
220
-0.0000000000000002
230
-1.0
 50
179.9999999999994031
 51
270.00000000000108
  0
CIRCLE
  5
41D9
  8
0
  6
CONTINUOUS
 62
     3
 10
-0.000000000000109
 20
-150.0
 30
0.0
 40
3.5
210
0.0
220
-0.0000000000000002
230
-1.0
  0
CIRCLE
  5
41DA
  8
0
  6
CONTINUOUS
 62
     3
 10
-0.0000000000000355
 20
150.0
 30
0.0
 40
3.5
210
0.0
220
-0.0000000000000002
230
-1.0
  0
CIRCLE
  5
41DB
  8
0
  6
CONTINUOUS
 62
     3
 10
-250.0
 20
150.0
 30
0.0
 40
3.4999999999999898
210
0.0
220
-0.0000000000000002
230
-1.0
  0
CIRCLE
  5
41DC
  8
0
  6
CONTINUOUS
 62
     3
 10
-250.0
 20
-150.0
 30
0.0
 40
3.499999999999992
210
0.0
220
-0.0000000000000002
230
-1.0
  0
CIRCLE
  5
41DD
  8
0
  6
CONTINUOUS
 62
     3
 10
250.0
 20
-150.0
 30
0.0
 40
3.5000000000000089
210
0.0
220
-0.0000000000000002
230
-1.0
  0
CIRCLE
  5
41DE
  8
0
  6
CONTINUOUS
 62
     3
 10
250.0
 20
150.0
 30
0.0
 40
3.4999999999999871
210
0.0
220
-0.0000000000000002
230
-1.0
  0
ARC
  5
41DF
  8
0
  6
CONTINUOUS
 62
     3
 10
250.0
 20
-150.0
 30
0.0
 40
20.0
210
0.0
220
-0.0000000000000002
230
-1.0
 50
270.0
 51
0.0
  0
LINE
  5
41E0
  8
0
  6
CONTINUOUS
 62
     3
 10
-269.9999999999998863
 20
-150.0
 30
0.0000000000000333
 11
-270.0
 21
150.0
 31
-0.0000000000000333
210
0.0
220
1.0
230
-0.0000000000000002
  0
ARC
  5
41E1
  8
0
  6
CONTINUOUS
 62
     3
 10
250.0
 20
150.0
 30
0.0
 40
20.0
210
0.0
220
-0.0000000000000002
230
-1.0
 50
0.0
 51
90.0
  0
LINE
  5
41E2
  8
0
  6
CONTINUOUS
 62
     3
 10
-250.0
 20
170.0
 30
-0.0000000000000377
 11
250.0
 21
170.0
 31
-0.0000000000000377
210
0.0
220
1.0
230
-0.0000000000000002
  0
ARC
  5
41E3
  8
0
  6
CONTINUOUS
 62
     3
 10
-250.0
 20
150.0
 30
0.0
 40
20.0
210
0.0
220
-0.0000000000000002
230
-1.0
 50
90.0
 51
180.0
  0
LINE
  5
41E4
  8
0
  6
CONTINUOUS
 62
     3
 10
270.0
 20
150.0
 30
-0.0000000000000333
 11
270.0
 21
-150.0000000000001137
 31
0.0000000000000333
210
0.0
220
1.0
230
-0.0000000000000002
  0
ARC
  5
41E5
  8
0
  6
CONTINUOUS
 62
     3
 10
-250.0
 20
-150.0
 30
0.0
 40
20.0
210
0.0
220
-0.0000000000000002
230
-1.0
 50
180.0
 51
269.9999999999998863
  0
LINE
  5
41E6
  8
0
  6
CONTINUOUS
 62
     3
 10
250.0
 20
-170.0
 30
0.0000000000000377
 11
-250.0
 21
-170.0
 31
0.0000000000000377
210
0.0
220
1.0
230
-0.0000000000000002
  0
LINE
  5
41E7
  8
0
  6
CONTINUOUS
 62
     3
 10
-102.4999999999999005
 20
-50.0162813436523308
 30
0.0000000000000111
 11
-102.4999999999999005
 21
-50.0686172998952799
 31
0.0000000000000111
210
0.0
220
1.0
230
-0.0000000000000002
  0
LINE
  5
41E8
  8
0
  6
CONTINUOUS
 62
     3
 10
-102.4999999999999005
 20
-50.0162813436523308
 30
0.0000000000000111
 11
-102.4999999999999005
 21
-48.5183370415204678
 31
0.0000000000000108
210
0.0
220
1.0
230
-0.0000000000000002
  0
LINE
  5
41E9
  8
0
  6
CONTINUOUS
 62
     3
 10
-97.4999999999999432
 20
-48.518337041520482
 30
0.0000000000000108
 11
-102.4999999999999005
 21
-48.518337041520482
 31
0.0000000000000108
210
0.0
220
1.0
230
-0.0000000000000002
  0
LINE
  5
41EA
  8
0
  6
CONTINUOUS
 62
     3
 10
-97.4999999999999432
 20
-50.0162813436523308
 30
0.0000000000000111
 11
-102.4999999999999005
 21
-50.0162813436523308
 31
0.0000000000000111
210
0.0
220
1.0
230
-0.0000000000000002
  0
LINE
  5
41EB
  8
0
  6
CONTINUOUS
 62
     3
 10
-97.4999999999999432
 20
-50.0162813436523308
 30
0.0000000000000111
 11
-97.4999999999999432
 21
-48.5183370415204678
 31
0.0000000000000108
210
0.0
220
1.0
230
-0.0000000000000002
  0
LINE
  5
41EC
  8
0
  6
CONTINUOUS
 62
     3
 10
-97.4999999999999147
 20
-50.068617299895287
 30
0.0000000000000111
 11
-97.4999999999999432
 21
-50.0162813436523379
 31
0.0000000000000111
210
0.0
220
1.0
230
-0.0000000000000002
  0
LINE
  5
41ED
  8
0
  6
CONTINUOUS
 62
     3
 10
97.5000000000000711
 20
-50.0162813436523308
 30
0.0000000000000111
 11
97.5000000000000711
 21
-50.0686172998952799
 31
0.0000000000000111
210
0.0
220
1.0
230
-0.0000000000000002
  0
LINE
  5
41EE
  8
0
  6
CONTINUOUS
 62
     3
 10
97.5000000000000711
 20
-50.0162813436523308
 30
0.0000000000000111
 11
97.5000000000000711
 21
-48.5183370415204678
 31
0.0000000000000108
210
0.0
220
1.0
230
-0.0000000000000002
  0
LINE
  5
41EF
  8
0
  6
CONTINUOUS
 62
     3
 10
102.5
 20
-50.0162813436523308
 30
0.0000000000000111
 11
102.5
 21
-48.5183370415204678
 31
0.0000000000000108
210
0.0
220
1.0
230
-0.0000000000000002
  0
LINE
  5
41F0
  8
0
  6
CONTINUOUS
 62
     3
 10
102.5
 20
-50.068617299895287
 30
0.0000000000000111
 11
102.5
 21
-50.0162813436523379
 31
0.0000000000000111
210
0.0
220
1.0
230
-0.0000000000000002
  0
LINE
  5
41F1
  8
0
  6
CONTINUOUS
 62
     3
 10
102.5
 20
-48.518337041520482
 30
0.0000000000000108
 11
97.5000000000000711
 21
-48.518337041520482
 31
0.0000000000000108
210
0.0
220
1.0
230
-0.0000000000000002
  0
LINE
  5
41F2
  8
0
  6
CONTINUOUS
 62
     3
 10
102.5
 20
-50.0162813436523308
 30
0.0000000000000111
 11
97.5000000000000711
 21
-50.0162813436523308
 31
0.0000000000000111
210
0.0
220
1.0
230
-0.0000000000000002
  0
LINE
  5
41F3
  8
0
  6
CONTINUOUS
 62
     3
 10
-2.500000000000143
 20
-49.9901133655308669
 30
0.0000000000000111
 11
-2.5000000000001439
 21
-50.068617299895287
 31
0.0000000000000111
210
0.0
220
1.0
230
-0.0000000000000002
  0
LINE
  5
41F4
  8
0
  6
CONTINUOUS
 62
     3
 10
-2.500000000000143
 20
-49.9901133655308669
 30
0.0000000000000111
 11
-2.500000000000143
 21
-48.492169063399011
 31
0.0000000000000108
210
0.0
220
1.0
230
-0.0000000000000002
  0
LINE
  5
41F5
  8
0
  6
CONTINUOUS
 62
     3
 10
2.4999999999998561
 20
-48.492169063399011
 30
0.0000000000000108
 11
-2.500000000000143
 21
-48.492169063399011
 31
0.0000000000000108
210
0.0
220
1.0
230
-0.0000000000000002
  0
LINE
  5
41F6
  8
0
  6
CONTINUOUS
 62
     3
 10
2.4999999999998561
 20
-49.9901133655308669
 30
0.0000000000000111
 11
-2.500000000000143
 21
-49.9901133655308669
 31
0.0000000000000111
210
0.0
220
1.0
230
-0.0000000000000002
  0
LINE
  5
41F7
  8
0
  6
CONTINUOUS
 62
     3
 10
2.4999999999998561
 20
-49.9901133655308669
 30
0.0000000000000111
 11
2.4999999999998561
 21
-48.492169063399011
 31
0.0000000000000108
210
0.0
220
1.0
230
-0.0000000000000002
  0
LINE
  5
41F8
  8
0
  6
CONTINUOUS
 62
     3
 10
2.4999999999998561
 20
-50.068617299895287
 30
0.0000000000000111
 11
2.4999999999998561
 21
-49.9901133655308669
 31
0.0000000000000111
210
0.0
220
1.0
230
-0.0000000000000002
  0
LINE
  5
41F9
  8
0
  6
CONTINUOUS
 62
     3
 10
2.4999999999998561
 20
-48.5665587808983972
 30
0.0000000000000108
 11
97.5000000000000711
 21
-48.5665587808983972
 31
0.0000000000000108
210
0.0
220
1.0
230
-0.0000000000000002
  0
LINE
  5
41FA
  8
0
  6
CONTINUOUS
 62
     3
 10
97.5000000000000711
 20
-50.068617299895287
 30
0.0000000000000111
 11
97.2499999999999716
 21
-50.068617299895287
 31
0.0000000000000111
210
0.0
220
1.0
230
-0.0000000000000002
  0
LINE
  5
41FB
  8
0
  6
CONTINUOUS
 62
     3
 10
2.7500000000000142
 20
-50.068617299895287
 30
0.0000000000000111
 11
2.4999999999998561
 21
-50.068617299895287
 31
0.0000000000000111
210
0.0
220
1.0
230
-0.0000000000000002
  0
LINE
  5
41FC
  8
0
  6
CONTINUOUS
 62
     3
 10
102.75
 20
-50.068617299895287
 30
0.0000000000000111
 11
102.5
 21
-50.068617299895287
 31
0.0000000000000111
210
0.0
220
1.0
230
-0.0000000000000002
  0
LINE
  5
41FD
  8
0
  6
CONTINUOUS
 62
     3
 10
150.0000000000003126
 20
-2.4999999999984941
 30
0.0000000000000006
 11
150.0000000000003126
 21
-2.7500000000000071
 31
0.0000000000000006
210
0.0
220
1.0
230
-0.0000000000000002
  0
LINE
  5
41FE
  8
0
  6
CONTINUOUS
 62
     3
 10
148.5
 20
-47.06450026190155
 30
0.0000000000000105
 11
148.5000000000003126
 21
-2.4999999999984861
 31
0.0000000000000006
210
0.0
220
1.0
230
-0.0000000000000002
  0
POLYLINE
  5
41FF
  8
0
  6
CONTINUOUS
 62
     3
 10
147.0000000000000853
 20
-48.5665587808984043
 30
0.0000000000000108
 66
     1
 70
     8
  0
VERTEX
  8
0
  5
4560
 10
147.000
 20
-48.5666
 30
1.08000e-14
  70
    32
  0
VERTEX
  8
0
  5
4561
 10
147.018
 20
-48.5664
 30
1.08000e-14
  70
    32
  0
VERTEX
  8
0
  5
4562
 10
147.037
 20
-48.5661
 30
1.07999e-14
  70
    32
  0
VERTEX
  8
0
  5
4563
 10
147.055
 20
-48.5655
 30
1.07998e-14
  70
    32
  0
VERTEX
  8
0
  5
4564
 10
147.074
 20
-48.5647
 30
1.07996e-14
  70
    32
  0
VERTEX
  8
0
  5
4565
 10
147.092
 20
-48.5637
 30
1.07994e-14
  70
    32
  0
VERTEX
  8
0
  5
4566
 10
147.110
 20
-48.5625
 30
1.07992e-14
  70
    32
  0
VERTEX
  8
0
  5
4567
 10
147.129
 20
-48.5610
 30
1.07989e-14
  70
    32
  0
VERTEX
  8
0
  5
4568
 10
147.147
 20
-48.5593
 30
1.07986e-14
  70
    32
  0
VERTEX
  8
0
  5
4569
 10
147.165
 20
-48.5574
 30
1.07982e-14
  70
    32
  0
VERTEX
  8
0
  5
456A
 10
147.184
 20
-48.5553
 30
1.07977e-14
  70
    32
  0
VERTEX
  8
0
  5
456B
 10
147.202
 20
-48.5529
 30
1.07973e-14
  70
    32
  0
VERTEX
  8
0
  5
456C
 10
147.220
 20
-48.5503
 30
1.07968e-14
  70
    32
  0
VERTEX
  8
0
  5
456D
 10
147.238
 20
-48.5475
 30
1.07962e-14
  70
    32
  0
VERTEX
  8
0
  5
456E
 10
147.256
 20
-48.5444
 30
1.07956e-14
  70
    32
  0
VERTEX
  8
0
  5
456F
 10
147.275
 20
-48.5412
 30
1.07949e-14
  70
    32
  0
VERTEX
  8
0
  5
4570
 10
147.293
 20
-48.5377
 30
1.07942e-14
  70
    32
  0
VERTEX
  8
0
  5
4571
 10
147.311
 20
-48.5340
 30
1.07935e-14
  70
    32
  0
VERTEX
  8
0
  5
4572
 10
147.329
 20
-48.5301
 30
1.07927e-14
  70
    32
  0
VERTEX
  8
0
  5
4573
 10
147.347
 20
-48.5259
 30
1.07919e-14
  70
    32
  0
VERTEX
  8
0
  5
4574
 10
147.364
 20
-48.5215
 30
1.07910e-14
  70
    32
  0
VERTEX
  8
0
  5
4575
 10
147.382
 20
-48.5170
 30
1.07901e-14
  70
    32
  0
VERTEX
  8
0
  5
4576
 10
147.400
 20
-48.5121
 30
1.07891e-14
  70
    32
  0
VERTEX
  8
0
  5
4577
 10
147.418
 20
-48.5071
 30
1.07881e-14
  70
    32
  0
VERTEX
  8
0
  5
4578
 10
147.435
 20
-48.5019
 30
1.07871e-14
  70
    32
  0
VERTEX
  8
0
  5
4579
 10
147.453
 20
-48.4964
 30
1.07860e-14
  70
    32
  0
VERTEX
  8
0
  5
457A
 10
147.471
 20
-48.4907
 30
1.07849e-14
  70
    32
  0
VERTEX
  8
0
  5
457B
 10
147.488
 20
-48.4849
 30
1.07837e-14
  70
    32
  0
VERTEX
  8
0
  5
457C
 10
147.505
 20
-48.4788
 30
1.07825e-14
  70
    32
  0
VERTEX
  8
0
  5
457D
 10
147.523
 20
-48.4724
 30
1.07812e-14
  70
    32
  0
VERTEX
  8
0
  5
457E
 10
147.540
 20
-48.4659
 30
1.07799e-14
  70
    32
  0
VERTEX
  8
0
  5
457F
 10
147.557
 20
-48.4592
 30
1.07786e-14
  70
    32
  0
VERTEX
  8
0
  5
4580
 10
147.574
 20
-48.4522
 30
1.07772e-14
  70
    32
  0
VERTEX
  8
0
  5
4581
 10
147.591
 20
-48.4451
 30
1.07757e-14
  70
    32
  0
VERTEX
  8
0
  5
4582
 10
147.608
 20
-48.4377
 30
1.07743e-14
  70
    32
  0
VERTEX
  8
0
  5
4583
 10
147.625
 20
-48.4301
 30
1.07728e-14
  70
    32
  0
VERTEX
  8
0
  5
4584
 10
147.641
 20
-48.4223
 30
1.07712e-14
  70
    32
  0
VERTEX
  8
0
  5
4585
 10
147.658
 20
-48.4144
 30
1.07696e-14
  70
    32
  0
VERTEX
  8
0
  5
4586
 10
147.674
 20
-48.4062
 30
1.07680e-14
  70
    32
  0
VERTEX
  8
0
  5
4587
 10
147.691
 20
-48.3978
 30
1.07663e-14
  70
    32
  0
VERTEX
  8
0
  5
4588
 10
147.707
 20
-48.3892
 30
1.07646e-14
  70
    32
  0
VERTEX
  8
0
  5
4589
 10
147.723
 20
-48.3804
 30
1.07628e-14
  70
    32
  0
VERTEX
  8
0
  5
458A
 10
147.739
 20
-48.3714
 30
1.07610e-14
  70
    32
  0
VERTEX
  8
0
  5
458B
 10
147.755
 20
-48.3622
 30
1.07592e-14
  70
    32
  0
VERTEX
  8
0
  5
458C
 10
147.771
 20
-48.3529
 30
1.07573e-14
  70
    32
  0
VERTEX
  8
0
  5
458D
 10
147.787
 20
-48.3433
 30
1.07554e-14
  70
    32
  0
VERTEX
  8
0
  5
458E
 10
147.802
 20
-48.3335
 30
1.07535e-14
  70
    32
  0
VERTEX
  8
0
  5
458F
 10
147.818
 20
-48.3236
 30
1.07515e-14
  70
    32
  0
VERTEX
  8
0
  5
4590
 10
147.833
 20
-48.3134
 30
1.07494e-14
  70
    32
  0
VERTEX
  8
0
  5
4591
 10
147.849
 20
-48.3031
 30
1.07474e-14
  70
    32
  0
VERTEX
  8
0
  5
4592
 10
147.864
 20
-48.2926
 30
1.07453e-14
  70
    32
  0
VERTEX
  8
0
  5
4593
 10
147.879
 20
-48.2819
 30
1.07431e-14
  70
    32
  0
VERTEX
  8
0
  5
4594
 10
147.894
 20
-48.2710
 30
1.07410e-14
  70
    32
  0
VERTEX
  8
0
  5
4595
 10
147.908
 20
-48.2599
 30
1.07388e-14
  70
    32
  0
VERTEX
  8
0
  5
4596
 10
147.923
 20
-48.2486
 30
1.07365e-14
  70
    32
  0
VERTEX
  8
0
  5
4597
 10
147.937
 20
-48.2372
 30
1.07342e-14
  70
    32
  0
VERTEX
  8
0
  5
4598
 10
147.952
 20
-48.2256
 30
1.07319e-14
  70
    32
  0
VERTEX
  8
0
  5
4599
 10
147.966
 20
-48.2138
 30
1.07296e-14
  70
    32
  0
VERTEX
  8
0
  5
459A
 10
147.980
 20
-48.2019
 30
1.07272e-14
  70
    32
  0
VERTEX
  8
0
  5
459B
 10
147.994
 20
-48.1897
 30
1.07247e-14
  70
    32
  0
VERTEX
  8
0
  5
459C
 10
148.007
 20
-48.1775
 30
1.07223e-14
  70
    32
  0
VERTEX
  8
0
  5
459D
 10
148.021
 20
-48.1650
 30
1.07198e-14
  70
    32
  0
VERTEX
  8
0
  5
459E
 10
148.034
 20
-48.1524
 30
1.07173e-14
  70
    32
  0
VERTEX
  8
0
  5
459F
 10
148.048
 20
-48.1396
 30
1.07147e-14
  70
    32
  0
VERTEX
  8
0
  5
45A0
 10
148.061
 20
-48.1266
 30
1.07121e-14
  70
    32
  0
VERTEX
  8
0
  5
45A1
 10
148.074
 20
-48.1135
 30
1.07095e-14
  70
    32
  0
VERTEX
  8
0
  5
45A2
 10
148.086
 20
-48.1002
 30
1.07069e-14
  70
    32
  0
VERTEX
  8
0
  5
45A3
 10
148.099
 20
-48.0868
 30
1.07042e-14
  70
    32
  0
VERTEX
  8
0
  5
45A4
 10
148.111
 20
-48.0732
 30
1.07015e-14
  70
    32
  0
VERTEX
  8
0
  5
45A5
 10
148.124
 20
-48.0595
 30
1.06987e-14
  70
    32
  0
VERTEX
  8
0
  5
45A6
 10
148.136
 20
-48.0456
 30
1.06960e-14
  70
    32
  0
VERTEX
  8
0
  5
45A7
 10
148.148
 20
-48.0316
 30
1.06931e-14
  70
    32
  0
VERTEX
  8
0
  5
45A8
 10
148.160
 20
-48.0174
 30
1.06903e-14
  70
    32
  0
VERTEX
  8
0
  5
45A9
 10
148.171
 20
-48.0031
 30
1.06875e-14
  70
    32
  0
VERTEX
  8
0
  5
45AA
 10
148.183
 20
-47.9886
 30
1.06846e-14
  70
    32
  0
VERTEX
  8
0
  5
45AB
 10
148.194
 20
-47.9740
 30
1.06817e-14
  70
    32
  0
VERTEX
  8
0
  5
45AC
 10
148.205
 20
-47.9593
 30
1.06787e-14
  70
    32
  0
VERTEX
  8
0
  5
45AD
 10
148.216
 20
-47.9444
 30
1.06757e-14
  70
    32
  0
VERTEX
  8
0
  5
45AE
 10
148.226
 20
-47.9294
 30
1.06727e-14
  70
    32
  0
VERTEX
  8
0
  5
45AF
 10
148.237
 20
-47.9143
 30
1.06697e-14
  70
    32
  0
VERTEX
  8
0
  5
45B0
 10
148.247
 20
-47.8990
 30
1.06667e-14
  70
    32
  0
VERTEX
  8
0
  5
45B1
 10
148.257
 20
-47.8836
 30
1.06636e-14
  70
    32
  0
VERTEX
  8
0
  5
45B2
 10
148.267
 20
-47.8681
 30
1.06605e-14
  70
    32
  0
VERTEX
  8
0
  5
45B3
 10
148.277
 20
-47.8525
 30
1.06574e-14
  70
    32
  0
VERTEX
  8
0
  5
45B4
 10
148.287
 20
-47.8367
 30
1.06542e-14
  70
    32
  0
VERTEX
  8
0
  5
45B5
 10
148.296
 20
-47.8208
 30
1.06511e-14
  70
    32
  0
VERTEX
  8
0
  5
45B6
 10
148.305
 20
-47.8049
 30
1.06479e-14
  70
    32
  0
VERTEX
  8
0
  5
45B7
 10
148.314
 20
-47.7888
 30
1.06447e-14
  70
    32
  0
VERTEX
  8
0
  5
45B8
 10
148.323
 20
-47.7726
 30
1.06414e-14
  70
    32
  0
VERTEX
  8
0
  5
45B9
 10
148.331
 20
-47.7563
 30
1.06382e-14
  70
    32
  0
VERTEX
  8
0
  5
45BA
 10
148.340
 20
-47.7398
 30
1.06349e-14
  70
    32
  0
VERTEX
  8
0
  5
45BB
 10
148.348
 20
-47.7233
 30
1.06316e-14
  70
    32
  0
VERTEX
  8
0
  5
45BC
 10
148.356
 20
-47.7067
 30
1.06283e-14
  70
    32
  0
VERTEX
  8
0
  5
45BD
 10
148.364
 20
-47.6900
 30
1.06249e-14
  70
    32
  0
VERTEX
  8
0
  5
45BE
 10
148.371
 20
-47.6732
 30
1.06216e-14
  70
    32
  0
VERTEX
  8
0
  5
45BF
 10
148.379
 20
-47.6563
 30
1.06182e-14
  70
    32
  0
VERTEX
  8
0
  5
45C0
 10
148.386
 20
-47.6393
 30
1.06148e-14
  70
    32
  0
VERTEX
  8
0
  5
45C1
 10
148.393
 20
-47.6222
 30
1.06114e-14
  70
    32
  0
VERTEX
  8
0
  5
45C2
 10
148.399
 20
-47.6051
 30
1.06080e-14
  70
    32
  0
VERTEX
  8
0
  5
45C3
 10
148.406
 20
-47.5878
 30
1.06045e-14
  70
    32
  0
VERTEX
  8
0
  5
45C4
 10
148.412
 20
-47.5705
 30
1.06011e-14
  70
    32
  0
VERTEX
  8
0
  5
45C5
 10
148.418
 20
-47.5531
 30
1.05976e-14
  70
    32
  0
VERTEX
  8
0
  5
45C6
 10
148.424
 20
-47.5357
 30
1.05941e-14
  70
    32
  0
VERTEX
  8
0
  5
45C7
 10
148.430
 20
-47.5181
 30
1.05906e-14
  70
    32
  0
VERTEX
  8
0
  5
45C8
 10
148.435
 20
-47.5005
 30
1.05871e-14
  70
    32
  0
VERTEX
  8
0
  5
45C9
 10
148.441
 20
-47.4829
 30
1.05836e-14
  70
    32
  0
VERTEX
  8
0
  5
45CA
 10
148.446
 20
-47.4651
 30
1.05800e-14
  70
    32
  0
VERTEX
  8
0
  5
45CB
 10
148.450
 20
-47.4473
 30
1.05765e-14
  70
    32
  0
VERTEX
  8
0
  5
45CC
 10
148.455
 20
-47.4295
 30
1.05729e-14
  70
    32
  0
VERTEX
  8
0
  5
45CD
 10
148.459
 20
-47.4116
 30
1.05693e-14
  70
    32
  0
VERTEX
  8
0
  5
45CE
 10
148.464
 20
-47.3936
 30
1.05657e-14
  70
    32
  0
VERTEX
  8
0
  5
45CF
 10
148.467
 20
-47.3756
 30
1.05621e-14
  70
    32
  0
VERTEX
  8
0
  5
45D0
 10
148.471
 20
-47.3575
 30
1.05585e-14
  70
    32
  0
VERTEX
  8
0
  5
45D1
 10
148.475
 20
-47.3394
 30
1.05549e-14
  70
    32
  0
VERTEX
  8
0
  5
45D2
 10
148.478
 20
-47.3213
 30
1.05513e-14
  70
    32
  0
VERTEX
  8
0
  5
45D3
 10
148.481
 20
-47.3031
 30
1.05477e-14
  70
    32
  0
VERTEX
  8
0
  5
45D4
 10
148.484
 20
-47.2849
 30
1.05440e-14
  70
    32
  0
VERTEX
  8
0
  5
45D5
 10
148.486
 20
-47.2666
 30
1.05404e-14
  70
    32
  0
VERTEX
  8
0
  5
45D6
 10
148.489
 20
-47.2484
 30
1.05367e-14
  70
    32
  0
VERTEX
  8
0
  5
45D7
 10
148.491
 20
-47.2301
 30
1.05331e-14
  70
    32
  0
VERTEX
  8
0
  5
45D8
 10
148.493
 20
-47.2117
 30
1.05294e-14
  70
    32
  0
VERTEX
  8
0
  5
45D9
 10
148.494
 20
-47.1934
 30
1.05257e-14
  70
    32
  0
VERTEX
  8
0
  5
45DA
 10
148.496
 20
-47.1750
 30
1.05221e-14
  70
    32
  0
VERTEX
  8
0
  5
45DB
 10
148.497
 20
-47.1566
 30
1.05184e-14
  70
    32
  0
VERTEX
  8
0
  5
45DC
 10
148.498
 20
-47.1382
 30
1.05147e-14
  70
    32
  0
VERTEX
  8
0
  5
45DD
 10
148.499
 20
-47.1198
 30
1.05110e-14
  70
    32
  0
VERTEX
  8
0
  5
45DE
 10
148.500
 20
-47.1014
 30
1.05074e-14
  70
    32
  0
VERTEX
  8
0
  5
45DF
 10
148.500
 20
-47.0829
 30
1.05037e-14
  70
    32
  0
VERTEX
  8
0
  5
45E0
 10
148.500
 20
-47.0645
 30
1.05000e-14
  70
    32
  0
SEQEND
  8
0
  5
45E1
  0
LINE
  5
4200
  8
0
  6
CONTINUOUS
 62
     3
 10
102.5
 20
-48.5665587808983972
 30
0.0000000000000108
 11
147.0
 21
-48.5665587808983972
 31
0.0000000000000108
210
0.0
220
1.0
230
-0.0000000000000002
  0
LINE
  5
4201
  8
0
  6
CONTINUOUS
 62
     3
 10
-146.9999999999998863
 20
-48.5665587808983972
 30
0.0000000000000108
 11
-102.4999999999999005
 21
-48.5665587808983972
 31
0.0000000000000108
210
0.0
220
1.0
230
-0.0000000000000002
  0
POLYLINE
  5
4202
  8
0
  6
CONTINUOUS
 62
     3
 10
-148.4999999999998863
 20
-47.0645002619015003
 30
0.0000000000000105
 66
     1
 70
     8
  0
VERTEX
  8
0
  5
45E2
 10
-148.500
 20
-47.0645
 30
1.05000e-14
  70
    32
  0
VERTEX
  8
0
  5
45E3
 10
-148.500
 20
-47.0829
 30
1.05037e-14
  70
    32
  0
VERTEX
  8
0
  5
45E4
 10
-148.500
 20
-47.1014
 30
1.05074e-14
  70
    32
  0
VERTEX
  8
0
  5
45E5
 10
-148.499
 20
-47.1198
 30
1.05110e-14
  70
    32
  0
VERTEX
  8
0
  5
45E6
 10
-148.498
 20
-47.1382
 30
1.05147e-14
  70
    32
  0
VERTEX
  8
0
  5
45E7
 10
-148.497
 20
-47.1566
 30
1.05184e-14
  70
    32
  0
VERTEX
  8
0
  5
45E8
 10
-148.496
 20
-47.1750
 30
1.05221e-14
  70
    32
  0
VERTEX
  8
0
  5
45E9
 10
-148.494
 20
-47.1934
 30
1.05257e-14
  70
    32
  0
VERTEX
  8
0
  5
45EA
 10
-148.493
 20
-47.2117
 30
1.05294e-14
  70
    32
  0
VERTEX
  8
0
  5
45EB
 10
-148.491
 20
-47.2301
 30
1.05331e-14
  70
    32
  0
VERTEX
  8
0
  5
45EC
 10
-148.489
 20
-47.2484
 30
1.05367e-14
  70
    32
  0
VERTEX
  8
0
  5
45ED
 10
-148.486
 20
-47.2666
 30
1.05404e-14
  70
    32
  0
VERTEX
  8
0
  5
45EE
 10
-148.484
 20
-47.2849
 30
1.05440e-14
  70
    32
  0
VERTEX
  8
0
  5
45EF
 10
-148.481
 20
-47.3031
 30
1.05477e-14
  70
    32
  0
VERTEX
  8
0
  5
45F0
 10
-148.478
 20
-47.3213
 30
1.05513e-14
  70
    32
  0
VERTEX
  8
0
  5
45F1
 10
-148.475
 20
-47.3394
 30
1.05549e-14
  70
    32
  0
VERTEX
  8
0
  5
45F2
 10
-148.471
 20
-47.3575
 30
1.05585e-14
  70
    32
  0
VERTEX
  8
0
  5
45F3
 10
-148.467
 20
-47.3756
 30
1.05621e-14
  70
    32
  0
VERTEX
  8
0
  5
45F4
 10
-148.464
 20
-47.3936
 30
1.05657e-14
  70
    32
  0
VERTEX
  8
0
  5
45F5
 10
-148.459
 20
-47.4116
 30
1.05693e-14
  70
    32
  0
VERTEX
  8
0
  5
45F6
 10
-148.455
 20
-47.4295
 30
1.05729e-14
  70
    32
  0
VERTEX
  8
0
  5
45F7
 10
-148.450
 20
-47.4473
 30
1.05765e-14
  70
    32
  0
VERTEX
  8
0
  5
45F8
 10
-148.446
 20
-47.4651
 30
1.05800e-14
  70
    32
  0
VERTEX
  8
0
  5
45F9
 10
-148.441
 20
-47.4829
 30
1.05836e-14
  70
    32
  0
VERTEX
  8
0
  5
45FA
 10
-148.435
 20
-47.5005
 30
1.05871e-14
  70
    32
  0
VERTEX
  8
0
  5
45FB
 10
-148.430
 20
-47.5181
 30
1.05906e-14
  70
    32
  0
VERTEX
  8
0
  5
45FC
 10
-148.424
 20
-47.5357
 30
1.05941e-14
  70
    32
  0
VERTEX
  8
0
  5
45FD
 10
-148.418
 20
-47.5531
 30
1.05976e-14
  70
    32
  0
VERTEX
  8
0
  5
45FE
 10
-148.412
 20
-47.5705
 30
1.06011e-14
  70
    32
  0
VERTEX
  8
0
  5
45FF
 10
-148.406
 20
-47.5878
 30
1.06045e-14
  70
    32
  0
VERTEX
  8
0
  5
4600
 10
-148.399
 20
-47.6051
 30
1.06080e-14
  70
    32
  0
VERTEX
  8
0
  5
4601
 10
-148.393
 20
-47.6222
 30
1.06114e-14
  70
    32
  0
VERTEX
  8
0
  5
4602
 10
-148.386
 20
-47.6393
 30
1.06148e-14
  70
    32
  0
VERTEX
  8
0
  5
4603
 10
-148.379
 20
-47.6563
 30
1.06182e-14
  70
    32
  0
VERTEX
  8
0
  5
4604
 10
-148.371
 20
-47.6732
 30
1.06216e-14
  70
    32
  0
VERTEX
  8
0
  5
4605
 10
-148.364
 20
-47.6900
 30
1.06249e-14
  70
    32
  0
VERTEX
  8
0
  5
4606
 10
-148.356
 20
-47.7067
 30
1.06283e-14
  70
    32
  0
VERTEX
  8
0
  5
4607
 10
-148.348
 20
-47.7233
 30
1.06316e-14
  70
    32
  0
VERTEX
  8
0
  5
4608
 10
-148.340
 20
-47.7398
 30
1.06349e-14
  70
    32
  0
VERTEX
  8
0
  5
4609
 10
-148.331
 20
-47.7563
 30
1.06382e-14
  70
    32
  0
VERTEX
  8
0
  5
460A
 10
-148.323
 20
-47.7726
 30
1.06414e-14
  70
    32
  0
VERTEX
  8
0
  5
460B
 10
-148.314
 20
-47.7888
 30
1.06447e-14
  70
    32
  0
VERTEX
  8
0
  5
460C
 10
-148.305
 20
-47.8049
 30
1.06479e-14
  70
    32
  0
VERTEX
  8
0
  5
460D
 10
-148.296
 20
-47.8208
 30
1.06511e-14
  70
    32
  0
VERTEX
  8
0
  5
460E
 10
-148.287
 20
-47.8367
 30
1.06542e-14
  70
    32
  0
VERTEX
  8
0
  5
460F
 10
-148.277
 20
-47.8525
 30
1.06574e-14
  70
    32
  0
VERTEX
  8
0
  5
4610
 10
-148.267
 20
-47.8681
 30
1.06605e-14
  70
    32
  0
VERTEX
  8
0
  5
4611
 10
-148.257
 20
-47.8836
 30
1.06636e-14
  70
    32
  0
VERTEX
  8
0
  5
4612
 10
-148.247
 20
-47.8990
 30
1.06667e-14
  70
    32
  0
VERTEX
  8
0
  5
4613
 10
-148.237
 20
-47.9143
 30
1.06697e-14
  70
    32
  0
VERTEX
  8
0
  5
4614
 10
-148.226
 20
-47.9294
 30
1.06727e-14
  70
    32
  0
VERTEX
  8
0
  5
4615
 10
-148.216
 20
-47.9444
 30
1.06757e-14
  70
    32
  0
VERTEX
  8
0
  5
4616
 10
-148.205
 20
-47.9593
 30
1.06787e-14
  70
    32
  0
VERTEX
  8
0
  5
4617
 10
-148.194
 20
-47.9740
 30
1.06817e-14
  70
    32
  0
VERTEX
  8
0
  5
4618
 10
-148.183
 20
-47.9886
 30
1.06846e-14
  70
    32
  0
VERTEX
  8
0
  5
4619
 10
-148.171
 20
-48.0031
 30
1.06875e-14
  70
    32
  0
VERTEX
  8
0
  5
461A
 10
-148.160
 20
-48.0174
 30
1.06903e-14
  70
    32
  0
VERTEX
  8
0
  5
461B
 10
-148.148
 20
-48.0316
 30
1.06931e-14
  70
    32
  0
VERTEX
  8
0
  5
461C
 10
-148.136
 20
-48.0456
 30
1.06960e-14
  70
    32
  0
VERTEX
  8
0
  5
461D
 10
-148.124
 20
-48.0595
 30
1.06987e-14
  70
    32
  0
VERTEX
  8
0
  5
461E
 10
-148.111
 20
-48.0732
 30
1.07015e-14
  70
    32
  0
VERTEX
  8
0
  5
461F
 10
-148.099
 20
-48.0868
 30
1.07042e-14
  70
    32
  0
VERTEX
  8
0
  5
4620
 10
-148.086
 20
-48.1002
 30
1.07069e-14
  70
    32
  0
VERTEX
  8
0
  5
4621
 10
-148.074
 20
-48.1135
 30
1.07095e-14
  70
    32
  0
VERTEX
  8
0
  5
4622
 10
-148.061
 20
-48.1266
 30
1.07121e-14
  70
    32
  0
VERTEX
  8
0
  5
4623
 10
-148.048
 20
-48.1396
 30
1.07147e-14
  70
    32
  0
VERTEX
  8
0
  5
4624
 10
-148.034
 20
-48.1524
 30
1.07173e-14
  70
    32
  0
VERTEX
  8
0
  5
4625
 10
-148.021
 20
-48.1650
 30
1.07198e-14
  70
    32
  0
VERTEX
  8
0
  5
4626
 10
-148.007
 20
-48.1775
 30
1.07223e-14
  70
    32
  0
VERTEX
  8
0
  5
4627
 10
-147.994
 20
-48.1897
 30
1.07247e-14
  70
    32
  0
VERTEX
  8
0
  5
4628
 10
-147.980
 20
-48.2019
 30
1.07272e-14
  70
    32
  0
VERTEX
  8
0
  5
4629
 10
-147.966
 20
-48.2138
 30
1.07296e-14
  70
    32
  0
VERTEX
  8
0
  5
462A
 10
-147.952
 20
-48.2256
 30
1.07319e-14
  70
    32
  0
VERTEX
  8
0
  5
462B
 10
-147.937
 20
-48.2372
 30
1.07342e-14
  70
    32
  0
VERTEX
  8
0
  5
462C
 10
-147.923
 20
-48.2486
 30
1.07365e-14
  70
    32
  0
VERTEX
  8
0
  5
462D
 10
-147.908
 20
-48.2599
 30
1.07388e-14
  70
    32
  0
VERTEX
  8
0
  5
462E
 10
-147.894
 20
-48.2710
 30
1.07410e-14
  70
    32
  0
VERTEX
  8
0
  5
462F
 10
-147.879
 20
-48.2819
 30
1.07431e-14
  70
    32
  0
VERTEX
  8
0
  5
4630
 10
-147.864
 20
-48.2926
 30
1.07453e-14
  70
    32
  0
VERTEX
  8
0
  5
4631
 10
-147.849
 20
-48.3031
 30
1.07474e-14
  70
    32
  0
VERTEX
  8
0
  5
4632
 10
-147.833
 20
-48.3134
 30
1.07494e-14
  70
    32
  0
VERTEX
  8
0
  5
4633
 10
-147.818
 20
-48.3236
 30
1.07515e-14
  70
    32
  0
VERTEX
  8
0
  5
4634
 10
-147.802
 20
-48.3335
 30
1.07535e-14
  70
    32
  0
VERTEX
  8
0
  5
4635
 10
-147.787
 20
-48.3433
 30
1.07554e-14
  70
    32
  0
VERTEX
  8
0
  5
4636
 10
-147.771
 20
-48.3529
 30
1.07573e-14
  70
    32
  0
VERTEX
  8
0
  5
4637
 10
-147.755
 20
-48.3622
 30
1.07592e-14
  70
    32
  0
VERTEX
  8
0
  5
4638
 10
-147.739
 20
-48.3714
 30
1.07610e-14
  70
    32
  0
VERTEX
  8
0
  5
4639
 10
-147.723
 20
-48.3804
 30
1.07628e-14
  70
    32
  0
VERTEX
  8
0
  5
463A
 10
-147.707
 20
-48.3892
 30
1.07646e-14
  70
    32
  0
VERTEX
  8
0
  5
463B
 10
-147.691
 20
-48.3978
 30
1.07663e-14
  70
    32
  0
VERTEX
  8
0
  5
463C
 10
-147.674
 20
-48.4062
 30
1.07680e-14
  70
    32
  0
VERTEX
  8
0
  5
463D
 10
-147.658
 20
-48.4144
 30
1.07696e-14
  70
    32
  0
VERTEX
  8
0
  5
463E
 10
-147.641
 20
-48.4223
 30
1.07712e-14
  70
    32
  0
VERTEX
  8
0
  5
463F
 10
-147.625
 20
-48.4301
 30
1.07728e-14
  70
    32
  0
VERTEX
  8
0
  5
4640
 10
-147.608
 20
-48.4377
 30
1.07743e-14
  70
    32
  0
VERTEX
  8
0
  5
4641
 10
-147.591
 20
-48.4451
 30
1.07757e-14
  70
    32
  0
VERTEX
  8
0
  5
4642
 10
-147.574
 20
-48.4522
 30
1.07772e-14
  70
    32
  0
VERTEX
  8
0
  5
4643
 10
-147.557
 20
-48.4592
 30
1.07786e-14
  70
    32
  0
VERTEX
  8
0
  5
4644
 10
-147.540
 20
-48.4659
 30
1.07799e-14
  70
    32
  0
VERTEX
  8
0
  5
4645
 10
-147.523
 20
-48.4724
 30
1.07812e-14
  70
    32
  0
VERTEX
  8
0
  5
4646
 10
-147.505
 20
-48.4788
 30
1.07825e-14
  70
    32
  0
VERTEX
  8
0
  5
4647
 10
-147.488
 20
-48.4849
 30
1.07837e-14
  70
    32
  0
VERTEX
  8
0
  5
4648
 10
-147.471
 20
-48.4907
 30
1.07849e-14
  70
    32
  0
VERTEX
  8
0
  5
4649
 10
-147.453
 20
-48.4964
 30
1.07860e-14
  70
    32
  0
VERTEX
  8
0
  5
464A
 10
-147.435
 20
-48.5019
 30
1.07871e-14
  70
    32
  0
VERTEX
  8
0
  5
464B
 10
-147.418
 20
-48.5071
 30
1.07881e-14
  70
    32
  0
VERTEX
  8
0
  5
464C
 10
-147.400
 20
-48.5121
 30
1.07891e-14
  70
    32
  0
VERTEX
  8
0
  5
464D
 10
-147.382
 20
-48.5170
 30
1.07901e-14
  70
    32
  0
VERTEX
  8
0
  5
464E
 10
-147.364
 20
-48.5215
 30
1.07910e-14
  70
    32
  0
VERTEX
  8
0
  5
464F
 10
-147.347
 20
-48.5259
 30
1.07919e-14
  70
    32
  0
VERTEX
  8
0
  5
4650
 10
-147.329
 20
-48.5301
 30
1.07927e-14
  70
    32
  0
VERTEX
  8
0
  5
4651
 10
-147.311
 20
-48.5340
 30
1.07935e-14
  70
    32
  0
VERTEX
  8
0
  5
4652
 10
-147.293
 20
-48.5377
 30
1.07942e-14
  70
    32
  0
VERTEX
  8
0
  5
4653
 10
-147.275
 20
-48.5412
 30
1.07949e-14
  70
    32
  0
VERTEX
  8
0
  5
4654
 10
-147.256
 20
-48.5444
 30
1.07956e-14
  70
    32
  0
VERTEX
  8
0
  5
4655
 10
-147.238
 20
-48.5475
 30
1.07962e-14
  70
    32
  0
VERTEX
  8
0
  5
4656
 10
-147.220
 20
-48.5503
 30
1.07968e-14
  70
    32
  0
VERTEX
  8
0
  5
4657
 10
-147.202
 20
-48.5529
 30
1.07973e-14
  70
    32
  0
VERTEX
  8
0
  5
4658
 10
-147.184
 20
-48.5553
 30
1.07977e-14
  70
    32
  0
VERTEX
  8
0
  5
4659
 10
-147.165
 20
-48.5574
 30
1.07982e-14
  70
    32
  0
VERTEX
  8
0
  5
465A
 10
-147.147
 20
-48.5593
 30
1.07986e-14
  70
    32
  0
VERTEX
  8
0
  5
465B
 10
-147.129
 20
-48.5610
 30
1.07989e-14
  70
    32
  0
VERTEX
  8
0
  5
465C
 10
-147.110
 20
-48.5625
 30
1.07992e-14
  70
    32
  0
VERTEX
  8
0
  5
465D
 10
-147.092
 20
-48.5637
 30
1.07994e-14
  70
    32
  0
VERTEX
  8
0
  5
465E
 10
-147.074
 20
-48.5647
 30
1.07996e-14
  70
    32
  0
VERTEX
  8
0
  5
465F
 10
-147.055
 20
-48.5655
 30
1.07998e-14
  70
    32
  0
VERTEX
  8
0
  5
4660
 10
-147.037
 20
-48.5661
 30
1.07999e-14
  70
    32
  0
VERTEX
  8
0
  5
4661
 10
-147.018
 20
-48.5664
 30
1.08000e-14
  70
    32
  0
VERTEX
  8
0
  5
4662
 10
-147.000
 20
-48.5666
 30
1.08000e-14
  70
    32
  0
SEQEND
  8
0
  5
4663
  0
LINE
  5
4203
  8
0
  6
CONTINUOUS
 62
     3
 10
-148.500000000000199
 20
-2.4999999999984861
 30
0.0000000000000006
 11
-148.4999999999998863
 21
-47.0645002619015074
 31
0.0000000000000105
210
0.0
220
1.0
230
-0.0000000000000002
  0
LINE
  5
4204
  8
0
  6
CONTINUOUS
 62
     3
 10
-150.000000000000199
 20
-2.7500000000000431
 30
0.0000000000000006
 11
-150.000000000000199
 21
-2.4999999999984901
 31
0.0000000000000006
210
0.0
220
1.0
230
-0.0000000000000002
  0
LINE
  5
4205
  8
0
  6
CONTINUOUS
 62
     3
 10
-102.4999999999999005
 20
-50.068617299895287
 30
0.0000000000000111
 11
-102.7499999999999005
 21
-50.068617299895287
 31
0.0000000000000111
210
0.0
220
1.0
230
-0.0000000000000002
  0
LINE
  5
4206
  8
0
  6
CONTINUOUS
 62
     3
 10
-2.5000000000001439
 20
-50.068617299895287
 30
0.0000000000000111
 11
-2.749999999999988
 21
-50.068617299895287
 31
0.0000000000000111
210
0.0
220
1.0
230
-0.0000000000000002
  0
LINE
  5
4207
  8
0
  6
CONTINUOUS
 62
     3
 10
-97.2499999999999716
 20
-50.068617299895287
 30
0.0000000000000111
 11
-97.4999999999999147
 21
-50.068617299895287
 31
0.0000000000000111
210
0.0
220
1.0
230
-0.0000000000000002
  0
LINE
  5
4208
  8
0
  6
CONTINUOUS
 62
     3
 10
-97.4999999999999147
 20
-48.5665587808983972
 30
0.0000000000000108
 11
-2.5000000000001421
 21
-48.5665587808983972
 31
0.0000000000000108
210
0.0
220
1.0
230
-0.0000000000000002
  0
LINE
  5
4209
  8
0
  6
CONTINUOUS
 62
     3
 10
148.5000000000005969
 20
48.5665587808999391
 30
-0.0000000000000108
 11
148.5547285749827893
 21
48.5665587808999391
 31
-0.0000000000000108
210
0.0
220
1.0
230
-0.0000000000000002
  0
LINE
  5
420A
  8
0
  6
CONTINUOUS
 62
     3
 10
148.5000000000003126
 20
2.5000000000015099
 30
-0.0000000000000006
 11
148.5000000000005969
 21
48.5665587808999391
 31
-0.0000000000000108
210
0.0
220
1.0
230
-0.0000000000000002
  0
LINE
  5
420B
  8
0
  6
CONTINUOUS
 62
     3
 10
150.0000000000003126
 20
2.7499999999999929
 30
-0.0000000000000006
 11
150.0000000000003126
 21
2.5000000000015099
 31
-0.0000000000000006
210
0.0
220
1.0
230
-0.0000000000000002
  0
LINE
  5
420C
  8
0
  6
CONTINUOUS
 62
     3
 10
148.5000000000003126
 20
2.5000000000007958
 30
-0.0000000000000006
 11
150.0000000000003126
 21
2.5000000000007958
 31
-0.0000000000000006
210
0.0
220
1.0
230
-0.0000000000000002
  0
LINE
  5
420D
  8
0
  6
CONTINUOUS
 62
     3
 10
148.5000000000003126
 20
-2.499999999999186
 30
0.0000000000000006
 11
148.5000000000003126
 21
2.500000000000806
 31
-0.0000000000000006
210
0.0
220
1.0
230
-0.0000000000000002
  0
LINE
  5
420E
  8
0
  6
CONTINUOUS
 62
     3
 10
148.5000000000003126
 20
-2.49999999999919
 30
0.0000000000000006
 11
150.0000000000003126
 21
-2.49999999999919
 31
0.0000000000000006
210
0.0
220
1.0
230
-0.0000000000000002
  0
LINE
  5
420F
  8
0
  6
CONTINUOUS
 62
     3
 10
150.0000000000003126
 20
2.500000000000794
 30
-0.0000000000000006
 11
150.0000000000003126
 21
-2.4999999999991989
 31
0.0000000000000006
210
0.0
220
1.0
230
-0.0000000000000002
  0
LINE
  5
4210
  8
0
  6
CONTINUOUS
 62
     3
 10
-148.554728574982704
 20
48.5665587808999391
 30
-0.0000000000000108
 11
-148.5000000000003979
 21
48.5665587808999391
 31
-0.0000000000000108
210
0.0
220
1.0
230
-0.0000000000000002
  0
LINE
  5
4211
  8
0
  6
CONTINUOUS
 62
     3
 10
-148.5000000000003979
 20
48.5665587808999533
 30
-0.0000000000000108
 11
-148.500000000000199
 21
2.500000000001513
 31
-0.0000000000000006
210
0.0
220
1.0
230
-0.0000000000000002
  0
LINE
  5
4212
  8
0
  6
CONTINUOUS
 62
     3
 10
-150.000000000000199
 20
2.5000000000015099
 30
-0.0000000000000006
 11
-150.000000000000199
 21
2.749999999999956
 31
-0.0000000000000006
210
0.0
220
1.0
230
-0.0000000000000002
  0
LINE
  5
4213
  8
0
  6
CONTINUOUS
 62
     3
 10
-150.000000000000199
 20
2.5000000000007958
 30
-0.0000000000000006
 11
-148.500000000000199
 21
2.5000000000007958
 31
-0.0000000000000006
210
0.0
220
1.0
230
-0.0000000000000002
  0
LINE
  5
4214
  8
0
  6
CONTINUOUS
 62
     3
 10
-148.500000000000199
 20
2.500000000000794
 30
-0.0000000000000006
 11
-148.5000000000001137
 21
-2.4999999999991989
 31
0.0000000000000006
210
0.0
220
1.0
230
-0.0000000000000002
  0
LINE
  5
4215
  8
0
  6
CONTINUOUS
 62
     3
 10
-150.0000000000001137
 20
-2.499999999999186
 30
0.0000000000000006
 11
-150.000000000000199
 21
2.500000000000806
 31
-0.0000000000000006
210
0.0
220
1.0
230
-0.0000000000000002
  0
LINE
  5
4216
  8
0
  6
CONTINUOUS
 62
     3
 10
-150.000000000000199
 20
-2.49999999999919
 30
0.0000000000000006
 11
-148.500000000000199
 21
-2.49999999999919
 31
0.0000000000000006
210
0.0
220
1.0
230
-0.0000000000000002
  0
LINE
  5
4217
  8
0
  6
VERDECKT
 62
     1
 10
149.2499999999998863
 20
23.5368877077122711
 30
-0.0000000000000052
 11
149.2499999999998863
 21
23.2490399483760797
 31
-0.0000000000000052
210
0.0
220
1.0
230
-0.0000000000000002
  0
LINE
  5
4218
  8
0
  6
VERDECKT
 62
     1
 10
149.2499999999998863
 20
23.2490399483760797
 30
-0.0000000000000052
 11
149.2499999999998863
 21
22.0067936909935788
 31
-0.0000000000000049
210
0.0
220
1.0
230
-0.0000000000000002
  0
LINE
  5
4219
  8
0
  6
VERDECKT
 62
     1
 10
149.2499999999998863
 20
50.0645030830318305
 30
-0.0000000000000111
 11
149.2499999999998863
 21
48.5665587808999817
 31
-0.0000000000000108
210
0.0
220
1.0
230
-0.0000000000000002
  0
LINE
  5
421A
  8
0
  6
VERDECKT
 62
     1
 10
149.2499999999998863
 20
48.5665587808999817
 30
-0.0000000000000108
 11
149.2499999999998863
 21
47.6114275794662518
 31
-0.0000000000000106
210
0.0
220
1.0
230
-0.0000000000000002
  0
LINE
  5
421B
  8
0
  6
VERDECKT
 62
     1
 10
149.2499999999998863
 20
47.6114275794662518
 30
-0.0000000000000106
 11
149.2499999999998863
 21
47.323579820130071
 31
-0.0000000000000105
210
0.0
220
1.0
230
-0.0000000000000002
  0
LINE
  5
421C
  8
0
  6
VERDECKT
 62
     1
 10
149.2499999999998863
 20
47.323579820130071
 30
-0.0000000000000105
 11
149.2499999999998863
 21
41.5927926115277629
 31
-0.0000000000000092
210
0.0
220
1.0
230
-0.0000000000000002
  0
LINE
  5
421D
  8
0
  6
VERDECKT
 62
     1
 10
149.2499999999998863
 20
41.5927926115277486
 30
-0.0000000000000092
 11
149.2499999999998863
 21
41.3049448521915608
 31
-0.0000000000000092
210
0.0
220
1.0
230
-0.0000000000000002
  0
LINE
  5
421E
  8
0
  6
VERDECKT
 62
     1
 10
149.2499999999998863
 20
41.3049448521915679
 30
-0.0000000000000092
 11
149.2499999999998863
 21
35.5741576435892668
 31
-0.0000000000000079
210
0.0
220
1.0
230
-0.0000000000000002
  0
LINE
  5
421F
  8
0
  6
VERDECKT
 62
     1
 10
149.2499999999998863
 20
35.5741576435892597
 30
-0.0000000000000079
 11
149.2499999999998863
 21
35.2863098842530718
 31
-0.0000000000000078
210
0.0
220
1.0
230
-0.0000000000000002
  0
LINE
  5
4220
  8
0
  6
VERDECKT
 62
     1
 10
149.2499999999998863
 20
35.2863098842530789
 30
-0.0000000000000078
 11
149.2499999999998863
 21
29.5555226756507707
 31
-0.0000000000000066
210
0.0
220
1.0
230
-0.0000000000000002
  0
LINE
  5
4221
  8
0
  6
VERDECKT
 62
     1
 10
149.2499999999998863
 20
29.5555226756507707
 30
-0.0000000000000066
 11
149.2499999999998863
 21
29.2676749163145793
 31
-0.0000000000000065
210
0.0
220
1.0
230
-0.0000000000000002
  0
LINE
  5
4222
  8
0
  6
VERDECKT
 62
     1
 10
149.2499999999998863
 20
29.2676749163145793
 30
-0.0000000000000065
 11
149.2499999999998863
 21
23.5368877077122711
 31
-0.0000000000000052
210
0.0
220
1.0
230
-0.0000000000000002
  0
LINE
  5
4223
  8
0
  6
VERDECKT
 62
     1
 10
149.2499999999998863
 20
30.7656192184464388
 30
-0.0000000000000068
 11
148.4999999999998863
 21
30.7656192184464388
 31
-0.0000000000000068
210
0.0
220
1.0
230
-0.0000000000000002
  0
LINE
  5
4224
  8
0
  6
VERDECKT
 62
     1
 10
149.2499999999998863
 20
29.2676749163145793
 30
-0.0000000000000065
 11
148.4999999999998863
 21
29.2676749163145793
 31
-0.0000000000000065
210
0.0
220
1.0
230
-0.0000000000000002
  0
LINE
  5
4225
  8
0
  6
VERDECKT
 62
     1
 10
149.2499999999998863
 20
36.7842541863849277
 30
-0.0000000000000082
 11
148.4999999999998863
 21
36.7842541863849277
 31
-0.0000000000000082
210
0.0
220
1.0
230
-0.0000000000000002
  0
LINE
  5
4226
  8
0
  6
VERDECKT
 62
     1
 10
149.2499999999998863
 20
35.2863098842530718
 30
-0.0000000000000078
 11
148.4999999999998863
 21
35.2863098842530718
 31
-0.0000000000000078
210
0.0
220
1.0
230
-0.0000000000000002
  0
LINE
  5
4227
  8
0
  6
VERDECKT
 62
     1
 10
149.2499999999998863
 20
42.8028891543234167
 30
-0.0000000000000095
 11
148.4999999999998863
 21
42.8028891543234167
 31
-0.0000000000000095
210
0.0
220
1.0
230
-0.0000000000000002
  0
LINE
  5
4228
  8
0
  6
VERDECKT
 62
     1
 10
149.2499999999998863
 20
41.3049448521915608
 30
-0.0000000000000092
 11
148.4999999999998863
 21
41.3049448521915608
 31
-0.0000000000000092
210
0.0
220
1.0
230
-0.0000000000000002
  0
LINE
  5
4229
  8
0
  6
VERDECKT
 62
     1
 10
149.2499999999998863
 20
48.8215241222619412
 30
-0.0000000000000108
 11
148.5
 21
48.8215241222619412
 31
-0.0000000000000108
210
0.0
220
1.0
230
-0.0000000000000002
  0
LINE
  5
422A
  8
0
  6
VERDECKT
 62
     1
 10
149.2499999999998863
 20
47.323579820130071
 30
-0.0000000000000105
 11
148.5
 21
47.323579820130071
 31
-0.0000000000000105
210
0.0
220
1.0
230
-0.0000000000000002
  0
LINE
  5
422B
  8
0
  6
VERDECKT
 62
     1
 10
149.2499999999998863
 20
50.0645030830318305
 30
-0.0000000000000111
 11
102.75
 21
50.0645030830318305
 31
-0.0000000000000111
210
0.0
220
1.0
230
-0.0000000000000002
  0
LINE
  5
422C
  8
0
  6
VERDECKT
 62
     1
 10
149.2499999999998863
 20
48.5665587808999817
 30
-0.0000000000000108
 11
148.5547285749827893
 21
48.5665587808999817
 31
-0.0000000000000108
210
0.0
220
1.0
230
-0.0000000000000002
  0
LINE
  5
422D
  8
0
  6
VERDECKT
 62
     1
 10
-149.2499999999998863
 20
47.6114275794662589
 30
-0.0000000000000106
 11
-149.2499999999998863
 21
48.5665587808999817
 31
-0.0000000000000108
210
0.0
220
1.0
230
-0.0000000000000002
  0
LINE
  5
422E
  8
0
  6
VERDECKT
 62
     1
 10
-149.2499999999998863
 20
47.6114275794662518
 30
-0.0000000000000106
 11
-148.5
 21
47.6114275794662518
 31
-0.0000000000000106
210
0.0
220
1.0
230
-0.0000000000000002
  0
LINE
  5
422F
  8
0
  6
VERDECKT
 62
     1
 10
-148.5
 20
47.323579820130071
 30
-0.0000000000000105
 11
-149.2499999999998863
 21
47.323579820130071
 31
-0.0000000000000105
210
0.0
220
1.0
230
-0.0000000000000002
  0
LINE
  5
4230
  8
0
  6
VERDECKT
 62
     1
 10
-149.2499999999998863
 20
41.5927926115277629
 30
-0.0000000000000092
 11
-149.2499999999998863
 21
47.323579820130071
 31
-0.0000000000000105
210
0.0
220
1.0
230
-0.0000000000000002
  0
LINE
  5
4231
  8
0
  6
VERDECKT
 62
     1
 10
-149.2499999999998863
 20
41.5927926115277486
 30
-0.0000000000000092
 11
-148.4999999999998863
 21
41.5927926115277486
 31
-0.0000000000000092
210
0.0
220
1.0
230
-0.0000000000000002
  0
LINE
  5
4232
  8
0
  6
VERDECKT
 62
     1
 10
-148.4999999999998863
 20
41.3049448521915608
 30
-0.0000000000000092
 11
-149.2499999999998863
 21
41.3049448521915608
 31
-0.0000000000000092
210
0.0
220
1.0
230
-0.0000000000000002
  0
LINE
  5
4233
  8
0
  6
VERDECKT
 62
     1
 10
-149.2499999999998863
 20
35.5741576435892668
 30
-0.0000000000000079
 11
-149.2499999999998863
 21
41.3049448521915679
 31
-0.0000000000000092
210
0.0
220
1.0
230
-0.0000000000000002
  0
LINE
  5
4234
  8
0
  6
VERDECKT
 62
     1
 10
-149.2499999999998863
 20
35.5741576435892597
 30
-0.0000000000000079
 11
-148.4999999999998863
 21
35.5741576435892597
 31
-0.0000000000000079
210
0.0
220
1.0
230
-0.0000000000000002
  0
LINE
  5
4235
  8
0
  6
VERDECKT
 62
     1
 10
-148.4999999999998863
 20
35.2863098842530718
 30
-0.0000000000000078
 11
-149.2499999999998863
 21
35.2863098842530718
 31
-0.0000000000000078
210
0.0
220
1.0
230
-0.0000000000000002
  0
LINE
  5
4236
  8
0
  6
VERDECKT
 62
     1
 10
-149.2499999999998863
 20
29.5555226756507707
 30
-0.0000000000000066
 11
-149.2499999999998863
 21
35.2863098842530789
 31
-0.0000000000000078
210
0.0
220
1.0
230
-0.0000000000000002
  0
LINE
  5
4237
  8
0
  6
VERDECKT
 62
     1
 10
-149.2499999999998863
 20
29.5555226756507707
 30
-0.0000000000000066
 11
-148.4999999999998863
 21
29.5555226756507707
 31
-0.0000000000000066
210
0.0
220
1.0
230
-0.0000000000000002
  0
LINE
  5
4238
  8
0
  6
VERDECKT
 62
     1
 10
-148.4999999999998863
 20
29.2676749163145793
 30
-0.0000000000000065
 11
-149.2499999999998863
 21
29.2676749163145793
 31
-0.0000000000000065
210
0.0
220
1.0
230
-0.0000000000000002
  0
LINE
  5
4239
  8
0
  6
VERDECKT
 62
     1
 10
-149.2499999999998863
 20
23.5368877077122782
 30
-0.0000000000000052
 11
-149.2499999999998863
 21
29.2676749163145793
 31
-0.0000000000000065
210
0.0
220
1.0
230
-0.0000000000000002
  0
LINE
  5
423A
  8
0
  6
VERDECKT
 62
     1
 10
-149.2499999999998863
 20
23.5368877077122711
 30
-0.0000000000000052
 11
-148.4999999999998863
 21
23.5368877077122711
 31
-0.0000000000000052
210
0.0
220
1.0
230
-0.0000000000000002
  0
LINE
  5
423B
  8
0
  6
VERDECKT
 62
     1
 10
-148.4999999999998863
 20
23.2490399483760797
 30
-0.0000000000000052
 11
-149.2499999999998863
 21
23.2490399483760797
 31
-0.0000000000000052
210
0.0
220
1.0
230
-0.0000000000000002
  0
LINE
  5
423C
  8
0
  6
VERDECKT
 62
     1
 10
-149.2499999999998863
 20
22.0067936909935788
 30
-0.0000000000000049
 11
-149.2499999999998863
 21
23.2490399483760797
 31
-0.0000000000000052
210
0.0
220
1.0
230
-0.0000000000000002
  0
LINE
  5
423D
  8
0
  6
VERDECKT
 62
     1
 10
-149.2499999999998863
 20
22.0067936909935717
 30
-0.0000000000000049
 11
-148.5000000000003126
 21
22.0067936909935717
 31
-0.0000000000000049
210
0.0
220
1.0
230
-0.0000000000000002
  0
LINE
  5
423E
  8
0
  6
VERDECKT
 62
     1
 10
148.5000000000003979
 20
22.0067936909935717
 30
-0.0000000000000049
 11
149.249999999999801
 21
22.0067936909935717
 31
-0.0000000000000049
210
0.0
220
1.0
230
-0.0000000000000002
  0
LINE
  5
423F
  8
0
  6
VERDECKT
 62
     1
 10
149.2499999999998863
 20
23.2490399483760797
 30
-0.0000000000000052
 11
148.4999999999998863
 21
23.2490399483760797
 31
-0.0000000000000052
210
0.0
220
1.0
230
-0.0000000000000002
  0
LINE
  5
4240
  8
0
  6
VERDECKT
 62
     1
 10
148.4999999999998863
 20
23.5368877077122711
 30
-0.0000000000000052
 11
149.2499999999998863
 21
23.5368877077122711
 31
-0.0000000000000052
210
0.0
220
1.0
230
-0.0000000000000002
  0
LINE
  5
4241
  8
0
  6
VERDECKT
 62
     1
 10
148.4999999999998863
 20
29.5555226756507707
 30
-0.0000000000000066
 11
149.2499999999998863
 21
29.5555226756507707
 31
-0.0000000000000066
210
0.0
220
1.0
230
-0.0000000000000002
  0
LINE
  5
4242
  8
0
  6
VERDECKT
 62
     1
 10
148.4999999999998863
 20
35.5741576435892597
 30
-0.0000000000000079
 11
149.2499999999998863
 21
35.5741576435892597
 31
-0.0000000000000079
210
0.0
220
1.0
230
-0.0000000000000002
  0
LINE
  5
4243
  8
0
  6
VERDECKT
 62
     1
 10
148.4999999999998863
 20
41.5927926115277486
 30
-0.0000000000000092
 11
149.2499999999998863
 21
41.5927926115277486
 31
-0.0000000000000092
210
0.0
220
1.0
230
-0.0000000000000002
  0
LINE
  5
4244
  8
0
  6
VERDECKT
 62
     1
 10
148.5
 20
47.6114275794662518
 30
-0.0000000000000106
 11
149.2499999999998863
 21
47.6114275794662518
 31
-0.0000000000000106
210
0.0
220
1.0
230
-0.0000000000000002
  0
LINE
  5
4245
  8
0
  6
VERDECKT
 62
     1
 10
-148.554728574982704
 20
48.5665587808999817
 30
-0.0000000000000108
 11
-149.2499999999998863
 21
48.5665587808999817
 31
-0.0000000000000108
210
0.0
220
1.0
230
-0.0000000000000002
  0
LINE
  5
4246
  8
0
  6
VERDECKT
 62
     1
 10
149.2499999999998863
 20
24.7469842505079498
 30
-0.0000000000000055
 11
148.4999999999998863
 21
24.7469842505079498
 31
-0.0000000000000055
210
0.0
220
1.0
230
-0.0000000000000002
  0
LINE
  5
4247
  8
0
  6
VERDECKT
 62
     1
 10
148.4999999999998863
 20
25.0348320098441306
 30
-0.0000000000000056
 11
149.2499999999998863
 21
25.0348320098441306
 31
-0.0000000000000056
210
0.0
220
1.0
230
-0.0000000000000002
  0
LINE
  5
4248
  8
0
  6
VERDECKT
 62
     1
 10
148.4999999999998863
 20
31.0534669777826302
 30
-0.0000000000000069
 11
149.2499999999998863
 21
31.0534669777826302
 31
-0.0000000000000069
210
0.0
220
1.0
230
-0.0000000000000002
  0
LINE
  5
4249
  8
0
  6
VERDECKT
 62
     1
 10
148.4999999999998863
 20
37.0721019457211227
 30
-0.0000000000000082
 11
149.2499999999998863
 21
37.0721019457211227
 31
-0.0000000000000082
210
0.0
220
1.0
230
-0.0000000000000002
  0
LINE
  5
424A
  8
0
  6
VERDECKT
 62
     1
 10
148.4999999999998863
 20
43.0907369136596188
 30
-0.0000000000000096
 11
149.2499999999998863
 21
43.0907369136596188
 31
-0.0000000000000096
210
0.0
220
1.0
230
-0.0000000000000002
  0
LINE
  5
424B
  8
0
  6
VERDECKT
 62
     1
 10
148.5
 20
48.5665587808999391
 30
-0.0000000000000108
 11
148.5
 21
49.1093718815981291
 31
-0.0000000000000109
210
0.0
220
1.0
230
-0.0000000000000002
  0
LINE
  5
424C
  8
0
  6
VERDECKT
 62
     1
 10
148.5
 20
49.1093718815981291
 30
-0.0000000000000109
 11
149.2499999999998863
 21
49.1093718815981291
 31
-0.0000000000000109
210
0.0
220
1.0
230
-0.0000000000000002
  0
LINE
  5
424D
  8
0
  6
VERDECKT
 62
     1
 10
97.2500000000000142
 20
50.0645030830318305
 30
-0.0000000000000111
 11
2.7499999999999849
 21
50.0645030830318305
 31
-0.0000000000000111
210
0.0
220
1.0
230
-0.0000000000000002
  0
LINE
  5
424E
  8
0
  6
VERDECKT
 62
     1
 10
-2.750000000000012
 20
50.0645030830318305
 30
-0.0000000000000111
 11
-97.2500000000000142
 21
50.0645030830318305
 31
-0.0000000000000111
210
0.0
220
1.0
230
-0.0000000000000002
  0
LINE
  5
424F
  8
0
  6
VERDECKT
 62
     1
 10
-149.2499999999998863
 20
48.5665587808999817
 30
-0.0000000000000108
 11
-149.2499999999998863
 21
50.0645030830318305
 31
-0.0000000000000111
210
0.0
220
1.0
230
-0.0000000000000002
  0
LINE
  5
4250
  8
0
  6
VERDECKT
 62
     1
 10
-102.75
 20
50.0645030830318305
 30
-0.0000000000000111
 11
-149.2499999999998863
 21
50.0645030830318305
 31
-0.0000000000000111
210
0.0
220
1.0
230
-0.0000000000000002
  0
LINE
  5
4251
  8
0
  6
VERDECKT
 62
     1
 10
-148.5
 20
48.5665587808999391
 30
-0.0000000000000108
 11
-148.5
 21
49.1093718815981291
 31
-0.0000000000000109
210
0.0
220
1.0
230
-0.0000000000000002
  0
LINE
  5
4252
  8
0
  6
VERDECKT
 62
     1
 10
-149.2499999999998863
 20
47.323579820130071
 30
-0.0000000000000105
 11
-149.2499999999998863
 21
47.6114275794662518
 31
-0.0000000000000106
210
0.0
220
1.0
230
-0.0000000000000002
  0
LINE
  5
4253
  8
0
  6
VERDECKT
 62
     1
 10
-148.5
 20
48.8215241222619412
 30
-0.0000000000000108
 11
-149.2499999999998863
 21
48.8215241222619412
 31
-0.0000000000000108
210
0.0
220
1.0
230
-0.0000000000000002
  0
LINE
  5
4254
  8
0
  6
VERDECKT
 62
     1
 10
-149.2499999999998863
 20
41.3049448521915608
 30
-0.0000000000000092
 11
-149.2499999999998863
 21
41.5927926115277486
 31
-0.0000000000000092
210
0.0
220
1.0
230
-0.0000000000000002
  0
LINE
  5
4255
  8
0
  6
VERDECKT
 62
     1
 10
-148.4999999999998863
 20
42.8028891543234167
 30
-0.0000000000000095
 11
-149.2499999999998863
 21
42.8028891543234167
 31
-0.0000000000000095
210
0.0
220
1.0
230
-0.0000000000000002
  0
LINE
  5
4256
  8
0
  6
VERDECKT
 62
     1
 10
-149.2499999999998863
 20
35.2863098842530718
 30
-0.0000000000000078
 11
-149.2499999999998863
 21
35.5741576435892597
 31
-0.0000000000000079
210
0.0
220
1.0
230
-0.0000000000000002
  0
LINE
  5
4257
  8
0
  6
VERDECKT
 62
     1
 10
-148.4999999999998863
 20
36.7842541863849277
 30
-0.0000000000000082
 11
-149.2499999999998863
 21
36.7842541863849277
 31
-0.0000000000000082
210
0.0
220
1.0
230
-0.0000000000000002
  0
LINE
  5
4258
  8
0
  6
VERDECKT
 62
     1
 10
-149.2499999999998863
 20
29.2676749163145793
 30
-0.0000000000000065
 11
-149.2499999999998863
 21
29.5555226756507707
 31
-0.0000000000000066
210
0.0
220
1.0
230
-0.0000000000000002
  0
LINE
  5
4259
  8
0
  6
VERDECKT
 62
     1
 10
-148.4999999999998863
 20
30.7656192184464388
 30
-0.0000000000000068
 11
-149.2499999999998863
 21
30.7656192184464388
 31
-0.0000000000000068
210
0.0
220
1.0
230
-0.0000000000000002
  0
LINE
  5
425A
  8
0
  6
VERDECKT
 62
     1
 10
-149.2499999999998863
 20
23.2490399483760797
 30
-0.0000000000000052
 11
-149.2499999999998863
 21
23.5368877077122711
 31
-0.0000000000000052
210
0.0
220
1.0
230
-0.0000000000000002
  0
LINE
  5
425B
  8
0
  6
VERDECKT
 62
     1
 10
-148.4999999999998863
 20
24.7469842505079498
 30
-0.0000000000000055
 11
-149.2499999999998863
 21
24.7469842505079498
 31
-0.0000000000000055
210
0.0
220
1.0
230
-0.0000000000000002
  0
LINE
  5
425C
  8
0
  6
VERDECKT
 62
     1
 10
-149.2499999999998863
 20
23.5047379931254312
 30
-0.0000000000000052
 11
149.2499999999998863
 21
23.5047379931254312
 31
-0.0000000000000052
210
0.0
220
1.0
230
-0.0000000000000002
  0
LINE
  5
425D
  8
0
  6
VERDECKT
 62
     1
 10
-149.2499999999998863
 20
25.0348320098441413
 30
-0.0000000000000056
 11
-148.4999999999998863
 21
25.0348320098441306
 31
-0.0000000000000056
210
0.0
220
1.0
230
-0.0000000000000002
  0
LINE
  5
425E
  8
0
  6
VERDECKT
 62
     1
 10
-149.2499999999998863
 20
31.0534669777826302
 30
-0.0000000000000069
 11
-148.4999999999998863
 21
31.0534669777826302
 31
-0.0000000000000069
210
0.0
220
1.0
230
-0.0000000000000002
  0
LINE
  5
425F
  8
0
  6
VERDECKT
 62
     1
 10
-149.2499999999998863
 20
37.0721019457211227
 30
-0.0000000000000082
 11
-148.4999999999998863
 21
37.0721019457211227
 31
-0.0000000000000082
210
0.0
220
1.0
230
-0.0000000000000002
  0
LINE
  5
4260
  8
0
  6
VERDECKT
 62
     1
 10
-149.2499999999998863
 20
43.0907369136596188
 30
-0.0000000000000096
 11
-148.4999999999998863
 21
43.0907369136596188
 31
-0.0000000000000096
210
0.0
220
1.0
230
-0.0000000000000002
  0
LINE
  5
4261
  8
0
  6
VERDECKT
 62
     1
 10
-149.2499999999998863
 20
49.1093718815981219
 30
-0.0000000000000109
 11
-148.5
 21
49.1093718815981219
 31
-0.0000000000000109
210
0.0
220
1.0
230
-0.0000000000000002
  0
LINE
  5
4262
  8
0
  6
VERDECKT
 62
     1
 10
97.2499999999999716
 20
-50.068617299895287
 30
0.0000000000000111
 11
2.7500000000000142
 21
-50.068617299895287
 31
0.0000000000000111
210
0.0
220
1.0
230
-0.0000000000000002
  0
LINE
  5
4263
  8
0
  6
VERDECKT
 62
     1
 10
147.0000000000001137
 20
-50.068617299895287
 30
0.0000000000000111
 11
102.75
 21
-50.068617299895287
 31
0.0000000000000111
210
0.0
220
1.0
230
-0.0000000000000002
  0
POLYLINE
  5
4264
  8
0
  6
VERDECKT
 62
     1
 10
150.0000000000001137
 20
-47.06450026190155
 30
0.0000000000000105
 66
     1
 70
     8
  0
VERTEX
  8
0
  5
4664
 10
150.000
 20
-47.0645
 30
1.05000e-14
  70
    32
  0
VERTEX
  8
0
  5
4665
 10
150.000
 20
-47.1014
 30
1.05086e-14
  70
    32
  0
VERTEX
  8
0
  5
4666
 10
149.999
 20
-47.1382
 30
1.05172e-14
  70
    32
  0
VERTEX
  8
0
  5
4667
 10
149.998
 20
-47.1751
 30
1.05258e-14
  70
    32
  0
VERTEX
  8
0
  5
4668
 10
149.996
 20
-47.2119
 30
1.05343e-14
  70
    32
  0
VERTEX
  8
0
  5
4669
 10
149.994
 20
-47.2487
 30
1.05429e-14
  70
    32
  0
VERTEX
  8
0
  5
466A
 10
149.992
 20
-47.2855
 30
1.05515e-14
  70
    32
  0
VERTEX
  8
0
  5
466B
 10
149.989
 20
-47.3222
 30
1.05601e-14
  70
    32
  0
VERTEX
  8
0
  5
466C
 10
149.986
 20
-47.3590
 30
1.05686e-14
  70
    32
  0
VERTEX
  8
0
  5
466D
 10
149.982
 20
-47.3956
 30
1.05772e-14
  70
    32
  0
VERTEX
  8
0
  5
466E
 10
149.977
 20
-47.4322
 30
1.05857e-14
  70
    32
  0
VERTEX
  8
0
  5
466F
 10
149.973
 20
-47.4688
 30
1.05942e-14
  70
    32
  0
VERTEX
  8
0
  5
4670
 10
149.968
 20
-47.5053
 30
1.06027e-14
  70
    32
  0
VERTEX
  8
0
  5
4671
 10
149.962
 20
-47.5417
 30
1.06112e-14
  70
    32
  0
VERTEX
  8
0
  5
4672
 10
149.956
 20
-47.5781
 30
1.06197e-14
  70
    32
  0
VERTEX
  8
0
  5
4673
 10
149.949
 20
-47.6144
 30
1.06281e-14
  70
    32
  0
VERTEX
  8
0
  5
4674
 10
149.942
 20
-47.6506
 30
1.06366e-14
  70
    32
  0
VERTEX
  8
0
  5
4675
 10
149.935
 20
-47.6867
 30
1.06450e-14
  70
    32
  0
VERTEX
  8
0
  5
4676
 10
149.927
 20
-47.7227
 30
1.06534e-14
  70
    32
  0
VERTEX
  8
0
  5
4677
 10
149.919
 20
-47.7586
 30
1.06617e-14
  70
    32
  0
VERTEX
  8
0
  5
4678
 10
149.910
 20
-47.7944
 30
1.06701e-14
  70
    32
  0
VERTEX
  8
0
  5
4679
 10
149.901
 20
-47.8301
 30
1.06784e-14
  70
    32
  0
VERTEX
  8
0
  5
467A
 10
149.891
 20
-47.8657
 30
1.06867e-14
  70
    32
  0
VERTEX
  8
0
  5
467B
 10
149.881
 20
-47.9012
 30
1.06950e-14
  70
    32
  0
VERTEX
  8
0
  5
467C
 10
149.871
 20
-47.9365
 30
1.07032e-14
  70
    32
  0
VERTEX
  8
0
  5
467D
 10
149.860
 20
-47.9718
 30
1.07114e-14
  70
    32
  0
VERTEX
  8
0
  5
467E
 10
149.849
 20
-48.0068
 30
1.07196e-14
  70
    32
  0
VERTEX
  8
0
  5
467F
 10
149.837
 20
-48.0418
 30
1.07277e-14
  70
    32
  0
VERTEX
  8
0
  5
4680
 10
149.825
 20
-48.0766
 30
1.07358e-14
  70
    32
  0
VERTEX
  8
0
  5
4681
 10
149.812
 20
-48.1112
 30
1.07439e-14
  70
    32
  0
VERTEX
  8
0
  5
4682
 10
149.799
 20
-48.1457
 30
1.07519e-14
  70
    32
  0
VERTEX
  8
0
  5
4683
 10
149.786
 20
-48.1800
 30
1.07599e-14
  70
    32
  0
VERTEX
  8
0
  5
4684
 10
149.772
 20
-48.2141
 30
1.07679e-14
  70
    32
  0
VERTEX
  8
0
  5
4685
 10
149.757
 20
-48.2481
 30
1.07758e-14
  70
    32
  0
VERTEX
  8
0
  5
4686
 10
149.743
 20
-48.2819
 30
1.07837e-14
  70
    32
  0
VERTEX
  8
0
  5
4687
 10
149.728
 20
-48.3155
 30
1.07915e-14
  70
    32
  0
VERTEX
  8
0
  5
4688
 10
149.712
 20
-48.3489
 30
1.07993e-14
  70
    32
  0
VERTEX
  8
0
  5
4689
 10
149.696
 20
-48.3822
 30
1.08070e-14
  70
    32
  0
VERTEX
  8
0
  5
468A
 10
149.680
 20
-48.4152
 30
1.08147e-14
  70
    32
  0
VERTEX
  8
0
  5
468B
 10
149.663
 20
-48.4480
 30
1.08224e-14
  70
    32
  0
VERTEX
  8
0
  5
468C
 10
149.646
 20
-48.4806
 30
1.08300e-14
  70
    32
  0
VERTEX
  8
0
  5
468D
 10
149.628
 20
-48.5130
 30
1.08375e-14
  70
    32
  0
VERTEX
  8
0
  5
468E
 10
149.610
 20
-48.5452
 30
1.08450e-14
  70
    32
  0
VERTEX
  8
0
  5
468F
 10
149.592
 20
-48.5772
 30
1.08525e-14
  70
    32
  0
VERTEX
  8
0
  5
4690
 10
149.573
 20
-48.6089
 30
1.08599e-14
  70
    32
  0
VERTEX
  8
0
  5
4691
 10
149.554
 20
-48.6404
 30
1.08672e-14
  70
    32
  0
VERTEX
  8
0
  5
4692
 10
149.535
 20
-48.6717
 30
1.08745e-14
  70
    32
  0
VERTEX
  8
0
  5
4693
 10
149.515
 20
-48.7027
 30
1.08817e-14
  70
    32
  0
VERTEX
  8
0
  5
4694
 10
149.494
 20
-48.7335
 30
1.08889e-14
  70
    32
  0
VERTEX
  8
0
  5
4695
 10
149.474
 20
-48.7640
 30
1.08960e-14
  70
    32
  0
VERTEX
  8
0
  5
4696
 10
149.453
 20
-48.7943
 30
1.09031e-14
  70
    32
  0
VERTEX
  8
0
  5
4697
 10
149.431
 20
-48.8243
 30
1.09101e-14
  70
    32
  0
VERTEX
  8
0
  5
4698
 10
149.410
 20
-48.8541
 30
1.09170e-14
  70
    32
  0
VERTEX
  8
0
  5
4699
 10
149.388
 20
-48.8835
 30
1.09239e-14
  70
    32
  0
VERTEX
  8
0
  5
469A
 10
149.365
 20
-48.9127
 30
1.09307e-14
  70
    32
  0
VERTEX
  8
0
  5
469B
 10
149.342
 20
-48.9417
 30
1.09374e-14
  70
    32
  0
VERTEX
  8
0
  5
469C
 10
149.319
 20
-48.9703
 30
1.09441e-14
  70
    32
  0
VERTEX
  8
0
  5
469D
 10
149.296
 20
-48.9986
 30
1.09507e-14
  70
    32
  0
VERTEX
  8
0
  5
469E
 10
149.272
 20
-49.0267
 30
1.09572e-14
  70
    32
  0
VERTEX
  8
0
  5
469F
 10
149.247
 20
-49.0545
 30
1.09637e-14
  70
    32
  0
VERTEX
  8
0
  5
46A0
 10
149.223
 20
-49.0819
 30
1.09701e-14
  70
    32
  0
VERTEX
  8
0
  5
46A1
 10
149.198
 20
-49.1091
 30
1.09764e-14
  70
    32
  0
VERTEX
  8
0
  5
46A2
 10
149.173
 20
-49.1360
 30
1.09827e-14
  70
    32
  0
VERTEX
  8
0
  5
46A3
 10
149.147
 20
-49.1625
 30
1.09889e-14
  70
    32
  0
VERTEX
  8
0
  5
46A4
 10
149.121
 20
-49.1887
 30
1.09950e-14
  70
    32
  0
VERTEX
  8
0
  5
46A5
 10
149.095
 20
-49.2146
 30
1.10010e-14
  70
    32
  0
VERTEX
  8
0
  5
46A6
 10
149.069
 20
-49.2402
 30
1.10070e-14
  70
    32
  0
VERTEX
  8
0
  5
46A7
 10
149.042
 20
-49.2655
 30
1.10129e-14
  70
    32
  0
VERTEX
  8
0
  5
46A8
 10
149.015
 20
-49.2904
 30
1.10187e-14
  70
    32
  0
VERTEX
  8
0
  5
46A9
 10
148.987
 20
-49.3150
 30
1.10244e-14
  70
    32
  0
VERTEX
  8
0
  5
46AA
 10
148.960
 20
-49.3392
 30
1.10300e-14
  70
    32
  0
VERTEX
  8
0
  5
46AB
 10
148.931
 20
-49.3632
 30
1.10356e-14
  70
    32
  0
VERTEX
  8
0
  5
46AC
 10
148.903
 20
-49.3867
 30
1.10411e-14
  70
    32
  0
VERTEX
  8
0
  5
46AD
 10
148.875
 20
-49.4099
 30
1.10465e-14
  70
    32
  0
VERTEX
  8
0
  5
46AE
 10
148.846
 20
-49.4328
 30
1.10518e-14
  70
    32
  0
VERTEX
  8
0
  5
46AF
 10
148.817
 20
-49.4553
 30
1.10571e-14
  70
    32
  0
VERTEX
  8
0
  5
46B0
 10
148.787
 20
-49.4774
 30
1.10622e-14
  70
    32
  0
VERTEX
  8
0
  5
46B1
 10
148.757
 20
-49.4992
 30
1.10673e-14
  70
    32
  0
VERTEX
  8
0
  5
46B2
 10
148.727
 20
-49.5206
 30
1.10723e-14
  70
    32
  0
VERTEX
  8
0
  5
46B3
 10
148.697
 20
-49.5417
 30
1.10772e-14
  70
    32
  0
VERTEX
  8
0
  5
46B4
 10
148.667
 20
-49.5623
 30
1.10820e-14
  70
    32
  0
VERTEX
  8
0
  5
46B5
 10
148.636
 20
-49.5826
 30
1.10868e-14
  70
    32
  0
VERTEX
  8
0
  5
46B6
 10
148.605
 20
-49.6025
 30
1.10914e-14
  70
    32
  0
VERTEX
  8
0
  5
46B7
 10
148.574
 20
-49.6221
 30
1.10959e-14
  70
    32
  0
VERTEX
  8
0
  5
46B8
 10
148.542
 20
-49.6412
 30
1.11004e-14
  70
    32
  0
VERTEX
  8
0
  5
46B9
 10
148.511
 20
-49.6600
 30
1.11048e-14
  70
    32
  0
VERTEX
  8
0
  5
46BA
 10
148.479
 20
-49.6783
 30
1.11091e-14
  70
    32
  0
VERTEX
  8
0
  5
46BB
 10
148.447
 20
-49.6963
 30
1.11132e-14
  70
    32
  0
VERTEX
  8
0
  5
46BC
 10
148.414
 20
-49.7139
 30
1.11173e-14
  70
    32
  0
VERTEX
  8
0
  5
46BD
 10
148.382
 20
-49.7311
 30
1.11213e-14
  70
    32
  0
VERTEX
  8
0
  5
46BE
 10
148.349
 20
-49.7479
 30
1.11253e-14
  70
    32
  0
VERTEX
  8
0
  5
46BF
 10
148.316
 20
-49.7642
 30
1.11291e-14
  70
    32
  0
VERTEX
  8
0
  5
46C0
 10
148.283
 20
-49.7802
 30
1.11328e-14
  70
    32
  0
VERTEX
  8
0
  5
46C1
 10
148.249
 20
-49.7957
 30
1.11364e-14
  70
    32
  0
VERTEX
  8
0
  5
46C2
 10
148.216
 20
-49.8109
 30
1.11399e-14
  70
    32
  0
VERTEX
  8
0
  5
46C3
 10
148.182
 20
-49.8256
 30
1.11434e-14
  70
    32
  0
VERTEX
  8
0
  5
46C4
 10
148.148
 20
-49.8399
 30
1.11467e-14
  70
    32
  0
VERTEX
  8
0
  5
46C5
 10
148.114
 20
-49.8538
 30
1.11500e-14
  70
    32
  0
VERTEX
  8
0
  5
46C6
 10
148.080
 20
-49.8673
 30
1.11531e-14
  70
    32
  0
VERTEX
  8
0
  5
46C7
 10
148.045
 20
-49.8804
 30
1.11561e-14
  70
    32
  0
VERTEX
  8
0
  5
46C8
 10
148.011
 20
-49.8930
 30
1.11591e-14
  70
    32
  0
VERTEX
  8
0
  5
46C9
 10
147.976
 20
-49.9052
 30
1.11619e-14
  70
    32
  0
VERTEX
  8
0
  5
46CA
 10
147.941
 20
-49.9170
 30
1.11647e-14
  70
    32
  0
VERTEX
  8
0
  5
46CB
 10
147.906
 20
-49.9283
 30
1.11673e-14
  70
    32
  0
VERTEX
  8
0
  5
46CC
 10
147.871
 20
-49.9393
 30
1.11699e-14
  70
    32
  0
VERTEX
  8
0
  5
46CD
 10
147.836
 20
-49.9497
 30
1.11723e-14
  70
    32
  0
VERTEX
  8
0
  5
46CE
 10
147.800
 20
-49.9598
 30
1.11746e-14
  70
    32
  0
VERTEX
  8
0
  5
46CF
 10
147.765
 20
-49.9694
 30
1.11769e-14
  70
    32
  0
VERTEX
  8
0
  5
46D0
 10
147.729
 20
-49.9786
 30
1.11790e-14
  70
    32
  0
VERTEX
  8
0
  5
46D1
 10
147.693
 20
-49.9873
 30
1.11811e-14
  70
    32
  0
VERTEX
  8
0
  5
46D2
 10
147.657
 20
-49.9956
 30
1.11830e-14
  70
    32
  0
VERTEX
  8
0
  5
46D3
 10
147.621
 20
-50.0035
 30
1.11848e-14
  70
    32
  0
VERTEX
  8
0
  5
46D4
 10
147.585
 20
-50.0109
 30
1.11865e-14
  70
    32
  0
VERTEX
  8
0
  5
46D5
 10
147.549
 20
-50.0179
 30
1.11882e-14
  70
    32
  0
VERTEX
  8
0
  5
46D6
 10
147.513
 20
-50.0244
 30
1.11897e-14
  70
    32
  0
VERTEX
  8
0
  5
46D7
 10
147.477
 20
-50.0305
 30
1.11911e-14
  70
    32
  0
VERTEX
  8
0
  5
46D8
 10
147.440
 20
-50.0361
 30
1.11924e-14
  70
    32
  0
VERTEX
  8
0
  5
46D9
 10
147.404
 20
-50.0413
 30
1.11936e-14
  70
    32
  0
VERTEX
  8
0
  5
46DA
 10
147.367
 20
-50.0460
 30
1.11947e-14
  70
    32
  0
VERTEX
  8
0
  5
46DB
 10
147.331
 20
-50.0503
 30
1.11957e-14
  70
    32
  0
VERTEX
  8
0
  5
46DC
 10
147.294
 20
-50.0542
 30
1.11966e-14
  70
    32
  0
VERTEX
  8
0
  5
46DD
 10
147.257
 20
-50.0575
 30
1.11974e-14
  70
    32
  0
VERTEX
  8
0
  5
46DE
 10
147.221
 20
-50.0605
 30
1.11981e-14
  70
    32
  0
VERTEX
  8
0
  5
46DF
 10
147.184
 20
-50.0630
 30
1.11987e-14
  70
    32
  0
VERTEX
  8
0
  5
46E0
 10
147.147
 20
-50.0650
 30
1.11992e-14
  70
    32
  0
VERTEX
  8
0
  5
46E1
 10
147.110
 20
-50.0666
 30
1.11995e-14
  70
    32
  0
VERTEX
  8
0
  5
46E2
 10
147.074
 20
-50.0677
 30
1.11998e-14
  70
    32
  0
VERTEX
  8
0
  5
46E3
 10
147.037
 20
-50.0684
 30
1.11999e-14
  70
    32
  0
VERTEX
  8
0
  5
46E4
 10
147.000
 20
-50.0686
 30
1.12000e-14
  70
    32
  0
SEQEND
  8
0
  5
46E5
  0
LINE
  5
4265
  8
0
  6
VERDECKT
 62
     1
 10
150.0000000000003126
 20
-2.7500000000000071
 30
0.0000000000000006
 11
150.0
 21
-47.06450026190155
 31
0.0000000000000105
210
0.0
220
1.0
230
-0.0000000000000002
  0
LINE
  5
4266
  8
0
  6
VERDECKT
 62
     1
 10
-150.0
 20
-47.0645002619014932
 30
0.0000000000000105
 11
-150.000000000000199
 21
-2.7500000000000431
 31
0.0000000000000006
210
0.0
220
1.0
230
-0.0000000000000002
  0
POLYLINE
  5
4267
  8
0
  6
VERDECKT
 62
     1
 10
-146.9999999999998863
 20
-50.0686172998952657
 30
0.0000000000000112
 66
     1
 70
     8
  0
VERTEX
  8
0
  5
46E6
 10
-147.000
 20
-50.0686
 30
1.12000e-14
  70
    32
  0
VERTEX
  8
0
  5
46E7
 10
-147.037
 20
-50.0684
 30
1.11999e-14
  70
    32
  0
VERTEX
  8
0
  5
46E8
 10
-147.074
 20
-50.0677
 30
1.11998e-14
  70
    32
  0
VERTEX
  8
0
  5
46E9
 10
-147.110
 20
-50.0666
 30
1.11995e-14
  70
    32
  0
VERTEX
  8
0
  5
46EA
 10
-147.147
 20
-50.0650
 30
1.11992e-14
  70
    32
  0
VERTEX
  8
0
  5
46EB
 10
-147.184
 20
-50.0630
 30
1.11987e-14
  70
    32
  0
VERTEX
  8
0
  5
46EC
 10
-147.221
 20
-50.0605
 30
1.11981e-14
  70
    32
  0
VERTEX
  8
0
  5
46ED
 10
-147.257
 20
-50.0575
 30
1.11974e-14
  70
    32
  0
VERTEX
  8
0
  5
46EE
 10
-147.294
 20
-50.0542
 30
1.11966e-14
  70
    32
  0
VERTEX
  8
0
  5
46EF
 10
-147.331
 20
-50.0503
 30
1.11957e-14
  70
    32
  0
VERTEX
  8
0
  5
46F0
 10
-147.367
 20
-50.0460
 30
1.11947e-14
  70
    32
  0
VERTEX
  8
0
  5
46F1
 10
-147.404
 20
-50.0413
 30
1.11936e-14
  70
    32
  0
VERTEX
  8
0
  5
46F2
 10
-147.440
 20
-50.0361
 30
1.11924e-14
  70
    32
  0
VERTEX
  8
0
  5
46F3
 10
-147.477
 20
-50.0305
 30
1.11911e-14
  70
    32
  0
VERTEX
  8
0
  5
46F4
 10
-147.513
 20
-50.0244
 30
1.11897e-14
  70
    32
  0
VERTEX
  8
0
  5
46F5
 10
-147.549
 20
-50.0179
 30
1.11882e-14
  70
    32
  0
VERTEX
  8
0
  5
46F6
 10
-147.585
 20
-50.0109
 30
1.11865e-14
  70
    32
  0
VERTEX
  8
0
  5
46F7
 10
-147.621
 20
-50.0035
 30
1.11848e-14
  70
    32
  0
VERTEX
  8
0
  5
46F8
 10
-147.657
 20
-49.9956
 30
1.11830e-14
  70
    32
  0
VERTEX
  8
0
  5
46F9
 10
-147.693
 20
-49.9873
 30
1.11811e-14
  70
    32
  0
VERTEX
  8
0
  5
46FA
 10
-147.729
 20
-49.9786
 30
1.11790e-14
  70
    32
  0
VERTEX
  8
0
  5
46FB
 10
-147.765
 20
-49.9694
 30
1.11769e-14
  70
    32
  0
VERTEX
  8
0
  5
46FC
 10
-147.800
 20
-49.9598
 30
1.11746e-14
  70
    32
  0
VERTEX
  8
0
  5
46FD
 10
-147.836
 20
-49.9497
 30
1.11723e-14
  70
    32
  0
VERTEX
  8
0
  5
46FE
 10
-147.871
 20
-49.9393
 30
1.11699e-14
  70
    32
  0
VERTEX
  8
0
  5
46FF
 10
-147.906
 20
-49.9283
 30
1.11673e-14
  70
    32
  0
VERTEX
  8
0
  5
4700
 10
-147.941
 20
-49.9170
 30
1.11647e-14
  70
    32
  0
VERTEX
  8
0
  5
4701
 10
-147.976
 20
-49.9052
 30
1.11619e-14
  70
    32
  0
VERTEX
  8
0
  5
4702
 10
-148.011
 20
-49.8930
 30
1.11591e-14
  70
    32
  0
VERTEX
  8
0
  5
4703
 10
-148.045
 20
-49.8804
 30
1.11561e-14
  70
    32
  0
VERTEX
  8
0
  5
4704
 10
-148.080
 20
-49.8673
 30
1.11531e-14
  70
    32
  0
VERTEX
  8
0
  5
4705
 10
-148.114
 20
-49.8538
 30
1.11500e-14
  70
    32
  0
VERTEX
  8
0
  5
4706
 10
-148.148
 20
-49.8399
 30
1.11467e-14
  70
    32
  0
VERTEX
  8
0
  5
4707
 10
-148.182
 20
-49.8256
 30
1.11434e-14
  70
    32
  0
VERTEX
  8
0
  5
4708
 10
-148.216
 20
-49.8109
 30
1.11399e-14
  70
    32
  0
VERTEX
  8
0
  5
4709
 10
-148.249
 20
-49.7957
 30
1.11364e-14
  70
    32
  0
VERTEX
  8
0
  5
470A
 10
-148.283
 20
-49.7802
 30
1.11328e-14
  70
    32
  0
VERTEX
  8
0
  5
470B
 10
-148.316
 20
-49.7642
 30
1.11291e-14
  70
    32
  0
VERTEX
  8
0
  5
470C
 10
-148.349
 20
-49.7479
 30
1.11253e-14
  70
    32
  0
VERTEX
  8
0
  5
470D
 10
-148.382
 20
-49.7311
 30
1.11213e-14
  70
    32
  0
VERTEX
  8
0
  5
470E
 10
-148.414
 20
-49.7139
 30
1.11173e-14
  70
    32
  0
VERTEX
  8
0
  5
470F
 10
-148.447
 20
-49.6963
 30
1.11132e-14
  70
    32
  0
VERTEX
  8
0
  5
4710
 10
-148.479
 20
-49.6783
 30
1.11091e-14
  70
    32
  0
VERTEX
  8
0
  5
4711
 10
-148.511
 20
-49.6600
 30
1.11048e-14
  70
    32
  0
VERTEX
  8
0
  5
4712
 10
-148.542
 20
-49.6412
 30
1.11004e-14
  70
    32
  0
VERTEX
  8
0
  5
4713
 10
-148.574
 20
-49.6221
 30
1.10959e-14
  70
    32
  0
VERTEX
  8
0
  5
4714
 10
-148.605
 20
-49.6025
 30
1.10914e-14
  70
    32
  0
VERTEX
  8
0
  5
4715
 10
-148.636
 20
-49.5826
 30
1.10868e-14
  70
    32
  0
VERTEX
  8
0
  5
4716
 10
-148.667
 20
-49.5623
 30
1.10820e-14
  70
    32
  0
VERTEX
  8
0
  5
4717
 10
-148.697
 20
-49.5417
 30
1.10772e-14
  70
    32
  0
VERTEX
  8
0
  5
4718
 10
-148.727
 20
-49.5206
 30
1.10723e-14
  70
    32
  0
VERTEX
  8
0
  5
4719
 10
-148.757
 20
-49.4992
 30
1.10673e-14
  70
    32
  0
VERTEX
  8
0
  5
471A
 10
-148.787
 20
-49.4774
 30
1.10622e-14
  70
    32
  0
VERTEX
  8
0
  5
471B
 10
-148.817
 20
-49.4553
 30
1.10571e-14
  70
    32
  0
VERTEX
  8
0
  5
471C
 10
-148.846
 20
-49.4328
 30
1.10518e-14
  70
    32
  0
VERTEX
  8
0
  5
471D
 10
-148.875
 20
-49.4099
 30
1.10465e-14
  70
    32
  0
VERTEX
  8
0
  5
471E
 10
-148.903
 20
-49.3867
 30
1.10411e-14
  70
    32
  0
VERTEX
  8
0
  5
471F
 10
-148.931
 20
-49.3632
 30
1.10356e-14
  70
    32
  0
VERTEX
  8
0
  5
4720
 10
-148.960
 20
-49.3392
 30
1.10300e-14
  70
    32
  0
VERTEX
  8
0
  5
4721
 10
-148.987
 20
-49.3150
 30
1.10244e-14
  70
    32
  0
VERTEX
  8
0
  5
4722
 10
-149.015
 20
-49.2904
 30
1.10187e-14
  70
    32
  0
VERTEX
  8
0
  5
4723
 10
-149.042
 20
-49.2655
 30
1.10129e-14
  70
    32
  0
VERTEX
  8
0
  5
4724
 10
-149.069
 20
-49.2402
 30
1.10070e-14
  70
    32
  0
VERTEX
  8
0
  5
4725
 10
-149.095
 20
-49.2146
 30
1.10010e-14
  70
    32
  0
VERTEX
  8
0
  5
4726
 10
-149.121
 20
-49.1887
 30
1.09950e-14
  70
    32
  0
VERTEX
  8
0
  5
4727
 10
-149.147
 20
-49.1625
 30
1.09889e-14
  70
    32
  0
VERTEX
  8
0
  5
4728
 10
-149.173
 20
-49.1360
 30
1.09827e-14
  70
    32
  0
VERTEX
  8
0
  5
4729
 10
-149.198
 20
-49.1091
 30
1.09764e-14
  70
    32
  0
VERTEX
  8
0
  5
472A
 10
-149.223
 20
-49.0819
 30
1.09701e-14
  70
    32
  0
VERTEX
  8
0
  5
472B
 10
-149.247
 20
-49.0545
 30
1.09637e-14
  70
    32
  0
VERTEX
  8
0
  5
472C
 10
-149.272
 20
-49.0267
 30
1.09572e-14
  70
    32
  0
VERTEX
  8
0
  5
472D
 10
-149.296
 20
-48.9986
 30
1.09507e-14
  70
    32
  0
VERTEX
  8
0
  5
472E
 10
-149.319
 20
-48.9703
 30
1.09441e-14
  70
    32
  0
VERTEX
  8
0
  5
472F
 10
-149.342
 20
-48.9417
 30
1.09374e-14
  70
    32
  0
VERTEX
  8
0
  5
4730
 10
-149.365
 20
-48.9127
 30
1.09307e-14
  70
    32
  0
VERTEX
  8
0
  5
4731
 10
-149.388
 20
-48.8835
 30
1.09239e-14
  70
    32
  0
VERTEX
  8
0
  5
4732
 10
-149.410
 20
-48.8541
 30
1.09170e-14
  70
    32
  0
VERTEX
  8
0
  5
4733
 10
-149.431
 20
-48.8243
 30
1.09101e-14
  70
    32
  0
VERTEX
  8
0
  5
4734
 10
-149.453
 20
-48.7943
 30
1.09031e-14
  70
    32
  0
VERTEX
  8
0
  5
4735
 10
-149.474
 20
-48.7640
 30
1.08960e-14
  70
    32
  0
VERTEX
  8
0
  5
4736
 10
-149.494
 20
-48.7335
 30
1.08889e-14
  70
    32
  0
VERTEX
  8
0
  5
4737
 10
-149.515
 20
-48.7027
 30
1.08817e-14
  70
    32
  0
VERTEX
  8
0
  5
4738
 10
-149.535
 20
-48.6717
 30
1.08745e-14
  70
    32
  0
VERTEX
  8
0
  5
4739
 10
-149.554
 20
-48.6404
 30
1.08672e-14
  70
    32
  0
VERTEX
  8
0
  5
473A
 10
-149.573
 20
-48.6089
 30
1.08599e-14
  70
    32
  0
VERTEX
  8
0
  5
473B
 10
-149.592
 20
-48.5772
 30
1.08525e-14
  70
    32
  0
VERTEX
  8
0
  5
473C
 10
-149.610
 20
-48.5452
 30
1.08450e-14
  70
    32
  0
VERTEX
  8
0
  5
473D
 10
-149.628
 20
-48.5130
 30
1.08375e-14
  70
    32
  0
VERTEX
  8
0
  5
473E
 10
-149.646
 20
-48.4806
 30
1.08300e-14
  70
    32
  0
VERTEX
  8
0
  5
473F
 10
-149.663
 20
-48.4480
 30
1.08224e-14
  70
    32
  0
VERTEX
  8
0
  5
4740
 10
-149.680
 20
-48.4152
 30
1.08147e-14
  70
    32
  0
VERTEX
  8
0
  5
4741
 10
-149.696
 20
-48.3822
 30
1.08070e-14
  70
    32
  0
VERTEX
  8
0
  5
4742
 10
-149.712
 20
-48.3489
 30
1.07993e-14
  70
    32
  0
VERTEX
  8
0
  5
4743
 10
-149.728
 20
-48.3155
 30
1.07915e-14
  70
    32
  0
VERTEX
  8
0
  5
4744
 10
-149.743
 20
-48.2819
 30
1.07837e-14
  70
    32
  0
VERTEX
  8
0
  5
4745
 10
-149.757
 20
-48.2481
 30
1.07758e-14
  70
    32
  0
VERTEX
  8
0
  5
4746
 10
-149.772
 20
-48.2141
 30
1.07679e-14
  70
    32
  0
VERTEX
  8
0
  5
4747
 10
-149.786
 20
-48.1800
 30
1.07599e-14
  70
    32
  0
VERTEX
  8
0
  5
4748
 10
-149.799
 20
-48.1457
 30
1.07519e-14
  70
    32
  0
VERTEX
  8
0
  5
4749
 10
-149.812
 20
-48.1112
 30
1.07439e-14
  70
    32
  0
VERTEX
  8
0
  5
474A
 10
-149.825
 20
-48.0766
 30
1.07358e-14
  70
    32
  0
VERTEX
  8
0
  5
474B
 10
-149.837
 20
-48.0418
 30
1.07277e-14
  70
    32
  0
VERTEX
  8
0
  5
474C
 10
-149.849
 20
-48.0068
 30
1.07196e-14
  70
    32
  0
VERTEX
  8
0
  5
474D
 10
-149.860
 20
-47.9718
 30
1.07114e-14
  70
    32
  0
VERTEX
  8
0
  5
474E
 10
-149.871
 20
-47.9365
 30
1.07032e-14
  70
    32
  0
VERTEX
  8
0
  5
474F
 10
-149.881
 20
-47.9012
 30
1.06950e-14
  70
    32
  0
VERTEX
  8
0
  5
4750
 10
-149.891
 20
-47.8657
 30
1.06867e-14
  70
    32
  0
VERTEX
  8
0
  5
4751
 10
-149.901
 20
-47.8301
 30
1.06784e-14
  70
    32
  0
VERTEX
  8
0
  5
4752
 10
-149.910
 20
-47.7944
 30
1.06701e-14
  70
    32
  0
VERTEX
  8
0
  5
4753
 10
-149.919
 20
-47.7586
 30
1.06617e-14
  70
    32
  0
VERTEX
  8
0
  5
4754
 10
-149.927
 20
-47.7227
 30
1.06534e-14
  70
    32
  0
VERTEX
  8
0
  5
4755
 10
-149.935
 20
-47.6867
 30
1.06450e-14
  70
    32
  0
VERTEX
  8
0
  5
4756
 10
-149.942
 20
-47.6506
 30
1.06366e-14
  70
    32
  0
VERTEX
  8
0
  5
4757
 10
-149.949
 20
-47.6144
 30
1.06281e-14
  70
    32
  0
VERTEX
  8
0
  5
4758
 10
-149.956
 20
-47.5781
 30
1.06197e-14
  70
    32
  0
VERTEX
  8
0
  5
4759
 10
-149.962
 20
-47.5417
 30
1.06112e-14
  70
    32
  0
VERTEX
  8
0
  5
475A
 10
-149.968
 20
-47.5053
 30
1.06027e-14
  70
    32
  0
VERTEX
  8
0
  5
475B
 10
-149.973
 20
-47.4688
 30
1.05942e-14
  70
    32
  0
VERTEX
  8
0
  5
475C
 10
-149.977
 20
-47.4322
 30
1.05857e-14
  70
    32
  0
VERTEX
  8
0
  5
475D
 10
-149.982
 20
-47.3956
 30
1.05772e-14
  70
    32
  0
VERTEX
  8
0
  5
475E
 10
-149.986
 20
-47.3590
 30
1.05686e-14
  70
    32
  0
VERTEX
  8
0
  5
475F
 10
-149.989
 20
-47.3222
 30
1.05601e-14
  70
    32
  0
VERTEX
  8
0
  5
4760
 10
-149.992
 20
-47.2855
 30
1.05515e-14
  70
    32
  0
VERTEX
  8
0
  5
4761
 10
-149.994
 20
-47.2487
 30
1.05429e-14
  70
    32
  0
VERTEX
  8
0
  5
4762
 10
-149.996
 20
-47.2119
 30
1.05343e-14
  70
    32
  0
VERTEX
  8
0
  5
4763
 10
-149.998
 20
-47.1751
 30
1.05258e-14
  70
    32
  0
VERTEX
  8
0
  5
4764
 10
-149.999
 20
-47.1382
 30
1.05172e-14
  70
    32
  0
VERTEX
  8
0
  5
4765
 10
-150.000
 20
-47.1014
 30
1.05086e-14
  70
    32
  0
VERTEX
  8
0
  5
4766
 10
-150.000
 20
-47.0645
 30
1.05000e-14
  70
    32
  0
SEQEND
  8
0
  5
4767
  0
LINE
  5
4268
  8
0
  6
VERDECKT
 62
     1
 10
-102.7499999999999005
 20
-50.068617299895287
 30
0.0000000000000111
 11
-146.9999999999998863
 21
-50.068617299895287
 31
0.0000000000000111
210
0.0
220
1.0
230
-0.0000000000000002
  0
LINE
  5
4269
  8
0
  6
VERDECKT
 62
     1
 10
-2.749999999999988
 20
-50.068617299895287
 30
0.0000000000000111
 11
-97.2499999999999716
 21
-50.068617299895287
 31
0.0000000000000111
210
0.0
220
1.0
230
-0.0000000000000002
  0
LINE
  5
426A
  8
0
  6
VERDECKT
 62
     1
 10
150.0000000000005969
 20
36.7973381754455318
 30
-0.0000000000000082
 11
148.5000000000005969
 21
36.7973381754455389
 31
-0.0000000000000082
210
0.0
220
1.0
230
-0.0000000000000002
  0
LINE
  5
426B
  8
0
  6
VERDECKT
 62
     1
 10
148.5000000000005969
 20
35.2993938733136972
 30
-0.0000000000000078
 11
150.0000000000005969
 21
35.2993938733136972
 31
-0.0000000000000078
210
0.0
220
1.0
230
-0.0000000000000002
  0
LINE
  5
426C
  8
0
  6
VERDECKT
 62
     1
 10
-150.0000000000005116
 20
35.2993938733136972
 30
-0.0000000000000078
 11
-148.5000000000003979
 21
35.2993938733136972
 31
-0.0000000000000078
210
0.0
220
1.0
230
-0.0000000000000002
  0
LINE
  5
426D
  8
0
  6
VERDECKT
 62
     1
 10
-148.5000000000005116
 20
36.7973381754456099
 30
-0.0000000000000082
 11
-150.0000000000005116
 21
36.7973381754456099
 31
-0.0000000000000082
210
0.0
220
1.0
230
-0.0000000000000002
  0
LINE
  5
426E
  8
0
  6
VERDECKT
 62
     1
 10
150.0000000000005969
 20
29.5424386865898789
 30
-0.0000000000000066
 11
148.5000000000005969
 21
29.5424386865898789
 31
-0.0000000000000066
210
0.0
220
1.0
230
-0.0000000000000002
  0
LINE
  5
426F
  8
0
  6
VERDECKT
 62
     1
 10
148.5000000000005969
 20
31.0403829887217597
 30
-0.0000000000000069
 11
150.0000000000005969
 21
31.0403829887217491
 31
-0.0000000000000069
210
0.0
220
1.0
230
-0.0000000000000002
  0
LINE
  5
4270
  8
0
  6
VERDECKT
 62
     1
 10
-148.5000000000003979
 20
29.5424386865898789
 30
-0.0000000000000066
 11
-150.0000000000005116
 21
29.5424386865898789
 31
-0.0000000000000066
210
0.0
220
1.0
230
-0.0000000000000002
  0
LINE
  5
4271
  8
0
  6
VERDECKT
 62
     1
 10
-150.0000000000005116
 20
31.0403829887217917
 30
-0.0000000000000069
 11
-148.5000000000005116
 21
31.0403829887217988
 31
-0.0000000000000069
210
0.0
220
1.0
230
-0.0000000000000002
  0
LINE
  5
4272
  8
0
  6
VERDECKT
 62
     1
 10
148.5000000000005969
 20
23.2621239374366588
 30
-0.0000000000000052
 11
150.0000000000005969
 21
23.2621239374366588
 31
-0.0000000000000052
210
0.0
220
1.0
230
-0.0000000000000002
  0
LINE
  5
4273
  8
0
  6
VERDECKT
 62
     1
 10
150.0000000000005969
 20
22.0068159935355716
 30
-0.0000000000000049
 11
148.5000000000005969
 21
22.0068159935355716
 31
-0.0000000000000049
210
0.0
220
1.0
230
-0.0000000000000002
  0
LINE
  5
4274
  8
0
  6
VERDECKT
 62
     1
 10
-148.5000000000003979
 20
22.0068159935355716
 30
-0.0000000000000049
 11
-150.0000000000005116
 21
22.0068159935355716
 31
-0.0000000000000049
210
0.0
220
1.0
230
-0.0000000000000002
  0
LINE
  5
4275
  8
0
  6
VERDECKT
 62
     1
 10
-150.0000000000005116
 20
23.2621239374366588
 30
-0.0000000000000052
 11
-148.5000000000003979
 21
23.2621239374366588
 31
-0.0000000000000052
210
0.0
220
1.0
230
-0.0000000000000002
  0
LINE
  5
4276
  8
0
  6
VERDECKT
 62
     1
 10
150.0000000000005969
 20
24.7600682395684792
 30
-0.0000000000000055
 11
148.5000000000005969
 21
24.7600682395684899
 31
-0.0000000000000055
210
0.0
220
1.0
230
-0.0000000000000002
  0
LINE
  5
4277
  8
0
  6
VERDECKT
 62
     1
 10
-148.5000000000005116
 20
24.7600682395685503
 30
-0.0000000000000055
 11
-150.0000000000005116
 21
24.7600682395685396
 31
-0.0000000000000055
210
0.0
220
1.0
230
-0.0000000000000002
  0
POLYLINE
  5
4278
  8
0
  6
VERDECKT
 62
     1
 10
-146.9999999999998579
 20
-79.9368366332236491
 30
0.0000000000000178
 66
     1
 70
     8
  0
VERTEX
  8
0
  5
4768
 10
-147.000
 20
-79.9368
 30
1.78000e-14
  70
    32
  0
VERTEX
  8
0
  5
4769
 10
-147.018
 20
-79.9367
 30
1.78000e-14
  70
    32
  0
VERTEX
  8
0
  5
476A
 10
-147.037
 20
-79.9364
 30
1.77999e-14
  70
    32
  0
VERTEX
  8
0
  5
476B
 10
-147.055
 20
-79.9358
 30
1.77997e-14
  70
    32
  0
VERTEX
  8
0
  5
476C
 10
-147.074
 20
-79.9349
 30
1.77995e-14
  70
    32
  0
VERTEX
  8
0
  5
476D
 10
-147.092
 20
-79.9339
 30
1.77992e-14
  70
    32
  0
VERTEX
  8
0
  5
476E
 10
-147.110
 20
-79.9326
 30
1.77989e-14
  70
    32
  0
VERTEX
  8
0
  5
476F
 10
-147.129
 20
-79.9310
 30
1.77985e-14
  70
    32
  0
VERTEX
  8
0
  5
4770
 10
-147.147
 20
-79.9292
 30
1.77981e-14
  70
    32
  0
VERTEX
  8
0
  5
4771
 10
-147.165
 20
-79.9272
 30
1.77976e-14
  70
    32
  0
VERTEX
  8
0
  5
4772
 10
-147.184
 20
-79.9250
 30
1.77970e-14
  70
    32
  0
VERTEX
  8
0
  5
4773
 10
-147.202
 20
-79.9225
 30
1.77964e-14
  70
    32
  0
VERTEX
  8
0
  5
4774
 10
-147.220
 20
-79.9198
 30
1.77957e-14
  70
    32
  0
VERTEX
  8
0
  5
4775
 10
-147.238
 20
-79.9168
 30
1.77949e-14
  70
    32
  0
VERTEX
  8
0
  5
4776
 10
-147.256
 20
-79.9136
 30
1.77941e-14
  70
    32
  0
VERTEX
  8
0
  5
4777
 10
-147.275
 20
-79.9102
 30
1.77932e-14
  70
    32
  0
VERTEX
  8
0
  5
4778
 10
-147.293
 20
-79.9065
 30
1.77923e-14
  70
    32
  0
VERTEX
  8
0
  5
4779
 10
-147.311
 20
-79.9027
 30
1.77913e-14
  70
    32
  0
VERTEX
  8
0
  5
477A
 10
-147.329
 20
-79.8985
 30
1.77903e-14
  70
    32
  0
VERTEX
  8
0
  5
477B
 10
-147.347
 20
-79.8942
 30
1.77892e-14
  70
    32
  0
VERTEX
  8
0
  5
477C
 10
-147.364
 20
-79.8896
 30
1.77880e-14
  70
    32
  0
VERTEX
  8
0
  5
477D
 10
-147.382
 20
-79.8848
 30
1.77868e-14
  70
    32
  0
VERTEX
  8
0
  5
477E
 10
-147.400
 20
-79.8797
 30
1.77855e-14
  70
    32
  0
VERTEX
  8
0
  5
477F
 10
-147.418
 20
-79.8745
 30
1.77842e-14
  70
    32
  0
VERTEX
  8
0
  5
4780
 10
-147.435
 20
-79.8690
 30
1.77828e-14
  70
    32
  0
VERTEX
  8
0
  5
4781
 10
-147.453
 20
-79.8632
 30
1.77813e-14
  70
    32
  0
VERTEX
  8
0
  5
4782
 10
-147.471
 20
-79.8573
 30
1.77798e-14
  70
    32
  0
VERTEX
  8
0
  5
4783
 10
-147.488
 20
-79.8511
 30
1.77782e-14
  70
    32
  0
VERTEX
  8
0
  5
4784
 10
-147.505
 20
-79.8447
 30
1.77766e-14
  70
    32
  0
VERTEX
  8
0
  5
4785
 10
-147.523
 20
-79.8381
 30
1.77749e-14
  70
    32
  0
VERTEX
  8
0
  5
4786
 10
-147.540
 20
-79.8312
 30
1.77732e-14
  70
    32
  0
VERTEX
  8
0
  5
4787
 10
-147.557
 20
-79.8241
 30
1.77714e-14
  70
    32
  0
VERTEX
  8
0
  5
4788
 10
-147.574
 20
-79.8168
 30
1.77696e-14
  70
    32
  0
VERTEX
  8
0
  5
4789
 10
-147.591
 20
-79.8093
 30
1.77676e-14
  70
    32
  0
VERTEX
  8
0
  5
478A
 10
-147.608
 20
-79.8016
 30
1.77657e-14
  70
    32
  0
VERTEX
  8
0
  5
478B
 10
-147.625
 20
-79.7936
 30
1.77637e-14
  70
    32
  0
VERTEX
  8
0
  5
478C
 10
-147.641
 20
-79.7855
 30
1.77616e-14
  70
    32
  0
VERTEX
  8
0
  5
478D
 10
-147.658
 20
-79.7771
 30
1.77595e-14
  70
    32
  0
VERTEX
  8
0
  5
478E
 10
-147.674
 20
-79.7685
 30
1.77573e-14
  70
    32
  0
VERTEX
  8
0
  5
478F
 10
-147.691
 20
-79.7597
 30
1.77551e-14
  70
    32
  0
VERTEX
  8
0
  5
4790
 10
-147.707
 20
-79.7507
 30
1.77528e-14
  70
    32
  0
VERTEX
  8
0
  5
4791
 10
-147.723
 20
-79.7415
 30
1.77504e-14
  70
    32
  0
VERTEX
  8
0
  5
4792
 10
-147.739
 20
-79.7320
 30
1.77480e-14
  70
    32
  0
VERTEX
  8
0
  5
4793
 10
-147.755
 20
-79.7224
 30
1.77456e-14
  70
    32
  0
VERTEX
  8
0
  5
4794
 10
-147.771
 20
-79.7126
 30
1.77431e-14
  70
    32
  0
VERTEX
  8
0
  5
4795
 10
-147.787
 20
-79.7025
 30
1.77405e-14
  70
    32
  0
VERTEX
  8
0
  5
4796
 10
-147.802
 20
-79.6923
 30
1.77379e-14
  70
    32
  0
VERTEX
  8
0
  5
4797
 10
-147.818
 20
-79.6818
 30
1.77353e-14
  70
    32
  0
VERTEX
  8
0
  5
4798
 10
-147.833
 20
-79.6712
 30
1.77326e-14
  70
    32
  0
VERTEX
  8
0
  5
4799
 10
-147.849
 20
-79.6603
 30
1.77298e-14
  70
    32
  0
VERTEX
  8
0
  5
479A
 10
-147.864
 20
-79.6493
 30
1.77270e-14
  70
    32
  0
VERTEX
  8
0
  5
479B
 10
-147.879
 20
-79.6380
 30
1.77242e-14
  70
    32
  0
VERTEX
  8
0
  5
479C
 10
-147.894
 20
-79.6266
 30
1.77213e-14
  70
    32
  0
VERTEX
  8
0
  5
479D
 10
-147.908
 20
-79.6150
 30
1.77183e-14
  70
    32
  0
VERTEX
  8
0
  5
479E
 10
-147.923
 20
-79.6032
 30
1.77153e-14
  70
    32
  0
VERTEX
  8
0
  5
479F
 10
-147.937
 20
-79.5912
 30
1.77123e-14
  70
    32
  0
VERTEX
  8
0
  5
47A0
 10
-147.952
 20
-79.5790
 30
1.77092e-14
  70
    32
  0
VERTEX
  8
0
  5
47A1
 10
-147.966
 20
-79.5666
 30
1.77061e-14
  70
    32
  0
VERTEX
  8
0
  5
47A2
 10
-147.980
 20
-79.5541
 30
1.77029e-14
  70
    32
  0
VERTEX
  8
0
  5
47A3
 10
-147.994
 20
-79.5414
 30
1.76997e-14
  70
    32
  0
VERTEX
  8
0
  5
47A4
 10
-148.007
 20
-79.5285
 30
1.76964e-14
  70
    32
  0
VERTEX
  8
0
  5
47A5
 10
-148.021
 20
-79.5154
 30
1.76931e-14
  70
    32
  0
VERTEX
  8
0
  5
47A6
 10
-148.034
 20
-79.5021
 30
1.76897e-14
  70
    32
  0
VERTEX
  8
0
  5
47A7
 10
-148.048
 20
-79.4887
 30
1.76863e-14
  70
    32
  0
VERTEX
  8
0
  5
47A8
 10
-148.061
 20
-79.4751
 30
1.76828e-14
  70
    32
  0
VERTEX
  8
0
  5
47A9
 10
-148.074
 20
-79.4613
 30
1.76794e-14
  70
    32
  0
VERTEX
  8
0
  5
47AA
 10
-148.086
 20
-79.4474
 30
1.76758e-14
  70
    32
  0
VERTEX
  8
0
  5
47AB
 10
-148.099
 20
-79.4333
 30
1.76722e-14
  70
    32
  0
VERTEX
  8
0
  5
47AC
 10
-148.111
 20
-79.4191
 30
1.76686e-14
  70
    32
  0
VERTEX
  8
0
  5
47AD
 10
-148.124
 20
-79.4047
 30
1.76650e-14
  70
    32
  0
VERTEX
  8
0
  5
47AE
 10
-148.136
 20
-79.3901
 30
1.76613e-14
  70
    32
  0
VERTEX
  8
0
  5
47AF
 10
-148.148
 20
-79.3754
 30
1.76575e-14
  70
    32
  0
VERTEX
  8
0
  5
47B0
 10
-148.160
 20
-79.3605
 30
1.76538e-14
  70
    32
  0
VERTEX
  8
0
  5
47B1
 10
-148.171
 20
-79.3454
 30
1.76499e-14
  70
    32
  0
VERTEX
  8
0
  5
47B2
 10
-148.183
 20
-79.3303
 30
1.76461e-14
  70
    32
  0
VERTEX
  8
0
  5
47B3
 10
-148.194
 20
-79.3149
 30
1.76422e-14
  70
    32
  0
VERTEX
  8
0
  5
47B4
 10
-148.205
 20
-79.2995
 30
1.76383e-14
  70
    32
  0
VERTEX
  8
0
  5
47B5
 10
-148.216
 20
-79.2839
 30
1.76343e-14
  70
    32
  0
VERTEX
  8
0
  5
47B6
 10
-148.226
 20
-79.2681
 30
1.76303e-14
  70
    32
  0
VERTEX
  8
0
  5
47B7
 10
-148.237
 20
-79.2522
 30
1.76263e-14
  70
    32
  0
VERTEX
  8
0
  5
47B8
 10
-148.247
 20
-79.2362
 30
1.76222e-14
  70
    32
  0
VERTEX
  8
0
  5
47B9
 10
-148.257
 20
-79.2201
 30
1.76181e-14
  70
    32
  0
VERTEX
  8
0
  5
47BA
 10
-148.267
 20
-79.2038
 30
1.76140e-14
  70
    32
  0
VERTEX
  8
0
  5
47BB
 10
-148.277
 20
-79.1874
 30
1.76098e-14
  70
    32
  0
VERTEX
  8
0
  5
47BC
 10
-148.287
 20
-79.1708
 30
1.76056e-14
  70
    32
  0
VERTEX
  8
0
  5
47BD
 10
-148.296
 20
-79.1542
 30
1.76014e-14
  70
    32
  0
VERTEX
  8
0
  5
47BE
 10
-148.305
 20
-79.1374
 30
1.75972e-14
  70
    32
  0
VERTEX
  8
0
  5
47BF
 10
-148.314
 20
-79.1205
 30
1.75929e-14
  70
    32
  0
VERTEX
  8
0
  5
47C0
 10
-148.323
 20
-79.1035
 30
1.75886e-14
  70
    32
  0
VERTEX
  8
0
  5
47C1
 10
-148.331
 20
-79.0864
 30
1.75842e-14
  70
    32
  0
VERTEX
  8
0
  5
47C2
 10
-148.340
 20
-79.0692
 30
1.75798e-14
  70
    32
  0
VERTEX
  8
0
  5
47C3
 10
-148.348
 20
-79.0518
 30
1.75754e-14
  70
    32
  0
VERTEX
  8
0
  5
47C4
 10
-148.356
 20
-79.0344
 30
1.75710e-14
  70
    32
  0
VERTEX
  8
0
  5
47C5
 10
-148.364
 20
-79.0169
 30
1.75666e-14
  70
    32
  0
VERTEX
  8
0
  5
47C6
 10
-148.371
 20
-78.9992
 30
1.75621e-14
  70
    32
  0
VERTEX
  8
0
  5
47C7
 10
-148.379
 20
-78.9815
 30
1.75576e-14
  70
    32
  0
VERTEX
  8
0
  5
47C8
 10
-148.386
 20
-78.9637
 30
1.75531e-14
  70
    32
  0
VERTEX
  8
0
  5
47C9
 10
-148.393
 20
-78.9458
 30
1.75485e-14
  70
    32
  0
VERTEX
  8
0
  5
47CA
 10
-148.399
 20
-78.9277
 30
1.75440e-14
  70
    32
  0
VERTEX
  8
0
  5
47CB
 10
-148.406
 20
-78.9097
 30
1.75394e-14
  70
    32
  0
VERTEX
  8
0
  5
47CC
 10
-148.412
 20
-78.8915
 30
1.75348e-14
  70
    32
  0
VERTEX
  8
0
  5
47CD
 10
-148.418
 20
-78.8732
 30
1.75301e-14
  70
    32
  0
VERTEX
  8
0
  5
47CE
 10
-148.424
 20
-78.8549
 30
1.75255e-14
  70
    32
  0
VERTEX
  8
0
  5
47CF
 10
-148.430
 20
-78.8365
 30
1.75208e-14
  70
    32
  0
VERTEX
  8
0
  5
47D0
 10
-148.435
 20
-78.8180
 30
1.75161e-14
  70
    32
  0
VERTEX
  8
0
  5
47D1
 10
-148.441
 20
-78.7995
 30
1.75114e-14
  70
    32
  0
VERTEX
  8
0
  5
47D2
 10
-148.446
 20
-78.7808
 30
1.75067e-14
  70
    32
  0
VERTEX
  8
0
  5
47D3
 10
-148.450
 20
-78.7622
 30
1.75019e-14
  70
    32
  0
VERTEX
  8
0
  5
47D4
 10
-148.455
 20
-78.7434
 30
1.74972e-14
  70
    32
  0
VERTEX
  8
0
  5
47D5
 10
-148.459
 20
-78.7246
 30
1.74924e-14
  70
    32
  0
VERTEX
  8
0
  5
47D6
 10
-148.464
 20
-78.7058
 30
1.74876e-14
  70
    32
  0
VERTEX
  8
0
  5
47D7
 10
-148.467
 20
-78.6869
 30
1.74828e-14
  70
    32
  0
VERTEX
  8
0
  5
47D8
 10
-148.471
 20
-78.6679
 30
1.74780e-14
  70
    32
  0
VERTEX
  8
0
  5
47D9
 10
-148.475
 20
-78.6489
 30
1.74732e-14
  70
    32
  0
VERTEX
  8
0
  5
47DA
 10
-148.478
 20
-78.6299
 30
1.74684e-14
  70
    32
  0
VERTEX
  8
0
  5
47DB
 10
-148.481
 20
-78.6108
 30
1.74635e-14
  70
    32
  0
VERTEX
  8
0
  5
47DC
 10
-148.484
 20
-78.5917
 30
1.74587e-14
  70
    32
  0
VERTEX
  8
0
  5
47DD
 10
-148.486
 20
-78.5725
 30
1.74538e-14
  70
    32
  0
VERTEX
  8
0
  5
47DE
 10
-148.489
 20
-78.5534
 30
1.74490e-14
  70
    32
  0
VERTEX
  8
0
  5
47DF
 10
-148.491
 20
-78.5341
 30
1.74441e-14
  70
    32
  0
VERTEX
  8
0
  5
47E0
 10
-148.493
 20
-78.5149
 30
1.74392e-14
  70
    32
  0
VERTEX
  8
0
  5
47E1
 10
-148.494
 20
-78.4956
 30
1.74343e-14
  70
    32
  0
VERTEX
  8
0
  5
47E2
 10
-148.496
 20
-78.4764
 30
1.74294e-14
  70
    32
  0
VERTEX
  8
0
  5
47E3
 10
-148.497
 20
-78.4571
 30
1.74245e-14
  70
    32
  0
VERTEX
  8
0
  5
47E4
 10
-148.498
 20
-78.4377
 30
1.74196e-14
  70
    32
  0
VERTEX
  8
0
  5
47E5
 10
-148.499
 20
-78.4184
 30
1.74147e-14
  70
    32
  0
VERTEX
  8
0
  5
47E6
 10
-148.500
 20
-78.3991
 30
1.74098e-14
  70
    32
  0
VERTEX
  8
0
  5
47E7
 10
-148.500
 20
-78.3797
 30
1.74049e-14
  70
    32
  0
VERTEX
  8
0
  5
47E8
 10
-148.500
 20
-78.3604
 30
1.74000e-14
  70
    32
  0
SEQEND
  8
0
  5
47E9
  0
LINE
  5
4279
  8
0
  6
VERDECKT
 62
     1
 10
147.0000000000001137
 20
-79.9368366332236775
 30
0.0000000000000177
 11
-146.9999999999998863
 21
-79.9368366332236775
 31
0.0000000000000177
210
0.0
220
1.0
230
-0.0000000000000002
  0
POLYLINE
  5
427A
  8
0
  6
VERDECKT
 62
     1
 10
148.5000000000001137
 20
-78.3603883967274157
 30
0.0000000000000174
 66
     1
 70
     8
  0
VERTEX
  8
0
  5
47EA
 10
148.500
 20
-78.3604
 30
1.74000e-14
  70
    32
  0
VERTEX
  8
0
  5
47EB
 10
148.500
 20
-78.3797
 30
1.74049e-14
  70
    32
  0
VERTEX
  8
0
  5
47EC
 10
148.500
 20
-78.3991
 30
1.74098e-14
  70
    32
  0
VERTEX
  8
0
  5
47ED
 10
148.499
 20
-78.4184
 30
1.74147e-14
  70
    32
  0
VERTEX
  8
0
  5
47EE
 10
148.498
 20
-78.4377
 30
1.74196e-14
  70
    32
  0
VERTEX
  8
0
  5
47EF
 10
148.497
 20
-78.4571
 30
1.74245e-14
  70
    32
  0
VERTEX
  8
0
  5
47F0
 10
148.496
 20
-78.4764
 30
1.74294e-14
  70
    32
  0
VERTEX
  8
0
  5
47F1
 10
148.494
 20
-78.4956
 30
1.74343e-14
  70
    32
  0
VERTEX
  8
0
  5
47F2
 10
148.493
 20
-78.5149
 30
1.74392e-14
  70
    32
  0
VERTEX
  8
0
  5
47F3
 10
148.491
 20
-78.5341
 30
1.74441e-14
  70
    32
  0
VERTEX
  8
0
  5
47F4
 10
148.489
 20
-78.5534
 30
1.74490e-14
  70
    32
  0
VERTEX
  8
0
  5
47F5
 10
148.486
 20
-78.5725
 30
1.74538e-14
  70
    32
  0
VERTEX
  8
0
  5
47F6
 10
148.484
 20
-78.5917
 30
1.74587e-14
  70
    32
  0
VERTEX
  8
0
  5
47F7
 10
148.481
 20
-78.6108
 30
1.74635e-14
  70
    32
  0
VERTEX
  8
0
  5
47F8
 10
148.478
 20
-78.6299
 30
1.74684e-14
  70
    32
  0
VERTEX
  8
0
  5
47F9
 10
148.475
 20
-78.6489
 30
1.74732e-14
  70
    32
  0
VERTEX
  8
0
  5
47FA
 10
148.471
 20
-78.6679
 30
1.74780e-14
  70
    32
  0
VERTEX
  8
0
  5
47FB
 10
148.467
 20
-78.6869
 30
1.74828e-14
  70
    32
  0
VERTEX
  8
0
  5
47FC
 10
148.464
 20
-78.7058
 30
1.74876e-14
  70
    32
  0
VERTEX
  8
0
  5
47FD
 10
148.459
 20
-78.7246
 30
1.74924e-14
  70
    32
  0
VERTEX
  8
0
  5
47FE
 10
148.455
 20
-78.7434
 30
1.74972e-14
  70
    32
  0
VERTEX
  8
0
  5
47FF
 10
148.450
 20
-78.7622
 30
1.75019e-14
  70
    32
  0
VERTEX
  8
0
  5
4800
 10
148.446
 20
-78.7808
 30
1.75067e-14
  70
    32
  0
VERTEX
  8
0
  5
4801
 10
148.441
 20
-78.7995
 30
1.75114e-14
  70
    32
  0
VERTEX
  8
0
  5
4802
 10
148.435
 20
-78.8180
 30
1.75161e-14
  70
    32
  0
VERTEX
  8
0
  5
4803
 10
148.430
 20
-78.8365
 30
1.75208e-14
  70
    32
  0
VERTEX
  8
0
  5
4804
 10
148.424
 20
-78.8549
 30
1.75255e-14
  70
    32
  0
VERTEX
  8
0
  5
4805
 10
148.418
 20
-78.8732
 30
1.75301e-14
  70
    32
  0
VERTEX
  8
0
  5
4806
 10
148.412
 20
-78.8915
 30
1.75348e-14
  70
    32
  0
VERTEX
  8
0
  5
4807
 10
148.406
 20
-78.9097
 30
1.75394e-14
  70
    32
  0
VERTEX
  8
0
  5
4808
 10
148.399
 20
-78.9277
 30
1.75440e-14
  70
    32
  0
VERTEX
  8
0
  5
4809
 10
148.393
 20
-78.9458
 30
1.75485e-14
  70
    32
  0
VERTEX
  8
0
  5
480A
 10
148.386
 20
-78.9637
 30
1.75531e-14
  70
    32
  0
VERTEX
  8
0
  5
480B
 10
148.379
 20
-78.9815
 30
1.75576e-14
  70
    32
  0
VERTEX
  8
0
  5
480C
 10
148.371
 20
-78.9992
 30
1.75621e-14
  70
    32
  0
VERTEX
  8
0
  5
480D
 10
148.364
 20
-79.0169
 30
1.75666e-14
  70
    32
  0
VERTEX
  8
0
  5
480E
 10
148.356
 20
-79.0344
 30
1.75710e-14
  70
    32
  0
VERTEX
  8
0
  5
480F
 10
148.348
 20
-79.0518
 30
1.75754e-14
  70
    32
  0
VERTEX
  8
0
  5
4810
 10
148.340
 20
-79.0692
 30
1.75798e-14
  70
    32
  0
VERTEX
  8
0
  5
4811
 10
148.331
 20
-79.0864
 30
1.75842e-14
  70
    32
  0
VERTEX
  8
0
  5
4812
 10
148.323
 20
-79.1035
 30
1.75886e-14
  70
    32
  0
VERTEX
  8
0
  5
4813
 10
148.314
 20
-79.1205
 30
1.75929e-14
  70
    32
  0
VERTEX
  8
0
  5
4814
 10
148.305
 20
-79.1374
 30
1.75972e-14
  70
    32
  0
VERTEX
  8
0
  5
4815
 10
148.296
 20
-79.1542
 30
1.76014e-14
  70
    32
  0
VERTEX
  8
0
  5
4816
 10
148.287
 20
-79.1708
 30
1.76056e-14
  70
    32
  0
VERTEX
  8
0
  5
4817
 10
148.277
 20
-79.1874
 30
1.76098e-14
  70
    32
  0
VERTEX
  8
0
  5
4818
 10
148.267
 20
-79.2038
 30
1.76140e-14
  70
    32
  0
VERTEX
  8
0
  5
4819
 10
148.257
 20
-79.2201
 30
1.76181e-14
  70
    32
  0
VERTEX
  8
0
  5
481A
 10
148.247
 20
-79.2362
 30
1.76222e-14
  70
    32
  0
VERTEX
  8
0
  5
481B
 10
148.237
 20
-79.2522
 30
1.76263e-14
  70
    32
  0
VERTEX
  8
0
  5
481C
 10
148.226
 20
-79.2681
 30
1.76303e-14
  70
    32
  0
VERTEX
  8
0
  5
481D
 10
148.216
 20
-79.2839
 30
1.76343e-14
  70
    32
  0
VERTEX
  8
0
  5
481E
 10
148.205
 20
-79.2995
 30
1.76383e-14
  70
    32
  0
VERTEX
  8
0
  5
481F
 10
148.194
 20
-79.3149
 30
1.76422e-14
  70
    32
  0
VERTEX
  8
0
  5
4820
 10
148.183
 20
-79.3303
 30
1.76461e-14
  70
    32
  0
VERTEX
  8
0
  5
4821
 10
148.171
 20
-79.3454
 30
1.76499e-14
  70
    32
  0
VERTEX
  8
0
  5
4822
 10
148.160
 20
-79.3605
 30
1.76538e-14
  70
    32
  0
VERTEX
  8
0
  5
4823
 10
148.148
 20
-79.3754
 30
1.76575e-14
  70
    32
  0
VERTEX
  8
0
  5
4824
 10
148.136
 20
-79.3901
 30
1.76613e-14
  70
    32
  0
VERTEX
  8
0
  5
4825
 10
148.124
 20
-79.4047
 30
1.76650e-14
  70
    32
  0
VERTEX
  8
0
  5
4826
 10
148.111
 20
-79.4191
 30
1.76686e-14
  70
    32
  0
VERTEX
  8
0
  5
4827
 10
148.099
 20
-79.4333
 30
1.76722e-14
  70
    32
  0
VERTEX
  8
0
  5
4828
 10
148.086
 20
-79.4474
 30
1.76758e-14
  70
    32
  0
VERTEX
  8
0
  5
4829
 10
148.074
 20
-79.4613
 30
1.76794e-14
  70
    32
  0
VERTEX
  8
0
  5
482A
 10
148.061
 20
-79.4751
 30
1.76828e-14
  70
    32
  0
VERTEX
  8
0
  5
482B
 10
148.048
 20
-79.4887
 30
1.76863e-14
  70
    32
  0
VERTEX
  8
0
  5
482C
 10
148.034
 20
-79.5021
 30
1.76897e-14
  70
    32
  0
VERTEX
  8
0
  5
482D
 10
148.021
 20
-79.5154
 30
1.76931e-14
  70
    32
  0
VERTEX
  8
0
  5
482E
 10
148.007
 20
-79.5285
 30
1.76964e-14
  70
    32
  0
VERTEX
  8
0
  5
482F
 10
147.994
 20
-79.5414
 30
1.76997e-14
  70
    32
  0
VERTEX
  8
0
  5
4830
 10
147.980
 20
-79.5541
 30
1.77029e-14
  70
    32
  0
VERTEX
  8
0
  5
4831
 10
147.966
 20
-79.5666
 30
1.77061e-14
  70
    32
  0
VERTEX
  8
0
  5
4832
 10
147.952
 20
-79.5790
 30
1.77092e-14
  70
    32
  0
VERTEX
  8
0
  5
4833
 10
147.937
 20
-79.5912
 30
1.77123e-14
  70
    32
  0
VERTEX
  8
0
  5
4834
 10
147.923
 20
-79.6032
 30
1.77153e-14
  70
    32
  0
VERTEX
  8
0
  5
4835
 10
147.908
 20
-79.6150
 30
1.77183e-14
  70
    32
  0
VERTEX
  8
0
  5
4836
 10
147.894
 20
-79.6266
 30
1.77213e-14
  70
    32
  0
VERTEX
  8
0
  5
4837
 10
147.879
 20
-79.6380
 30
1.77242e-14
  70
    32
  0
VERTEX
  8
0
  5
4838
 10
147.864
 20
-79.6493
 30
1.77270e-14
  70
    32
  0
VERTEX
  8
0
  5
4839
 10
147.849
 20
-79.6603
 30
1.77298e-14
  70
    32
  0
VERTEX
  8
0
  5
483A
 10
147.833
 20
-79.6712
 30
1.77326e-14
  70
    32
  0
VERTEX
  8
0
  5
483B
 10
147.818
 20
-79.6818
 30
1.77353e-14
  70
    32
  0
VERTEX
  8
0
  5
483C
 10
147.802
 20
-79.6923
 30
1.77379e-14
  70
    32
  0
VERTEX
  8
0
  5
483D
 10
147.787
 20
-79.7025
 30
1.77405e-14
  70
    32
  0
VERTEX
  8
0
  5
483E
 10
147.771
 20
-79.7126
 30
1.77431e-14
  70
    32
  0
VERTEX
  8
0
  5
483F
 10
147.755
 20
-79.7224
 30
1.77456e-14
  70
    32
  0
VERTEX
  8
0
  5
4840
 10
147.739
 20
-79.7320
 30
1.77480e-14
  70
    32
  0
VERTEX
  8
0
  5
4841
 10
147.723
 20
-79.7415
 30
1.77504e-14
  70
    32
  0
VERTEX
  8
0
  5
4842
 10
147.707
 20
-79.7507
 30
1.77528e-14
  70
    32
  0
VERTEX
  8
0
  5
4843
 10
147.691
 20
-79.7597
 30
1.77551e-14
  70
    32
  0
VERTEX
  8
0
  5
4844
 10
147.674
 20
-79.7685
 30
1.77573e-14
  70
    32
  0
VERTEX
  8
0
  5
4845
 10
147.658
 20
-79.7771
 30
1.77595e-14
  70
    32
  0
VERTEX
  8
0
  5
4846
 10
147.641
 20
-79.7855
 30
1.77616e-14
  70
    32
  0
VERTEX
  8
0
  5
4847
 10
147.625
 20
-79.7936
 30
1.77637e-14
  70
    32
  0
VERTEX
  8
0
  5
4848
 10
147.608
 20
-79.8016
 30
1.77657e-14
  70
    32
  0
VERTEX
  8
0
  5
4849
 10
147.591
 20
-79.8093
 30
1.77676e-14
  70
    32
  0
VERTEX
  8
0
  5
484A
 10
147.574
 20
-79.8168
 30
1.77696e-14
  70
    32
  0
VERTEX
  8
0
  5
484B
 10
147.557
 20
-79.8241
 30
1.77714e-14
  70
    32
  0
VERTEX
  8
0
  5
484C
 10
147.540
 20
-79.8312
 30
1.77732e-14
  70
    32
  0
VERTEX
  8
0
  5
484D
 10
147.523
 20
-79.8381
 30
1.77749e-14
  70
    32
  0
VERTEX
  8
0
  5
484E
 10
147.505
 20
-79.8447
 30
1.77766e-14
  70
    32
  0
VERTEX
  8
0
  5
484F
 10
147.488
 20
-79.8511
 30
1.77782e-14
  70
    32
  0
VERTEX
  8
0
  5
4850
 10
147.471
 20
-79.8573
 30
1.77798e-14
  70
    32
  0
VERTEX
  8
0
  5
4851
 10
147.453
 20
-79.8632
 30
1.77813e-14
  70
    32
  0
VERTEX
  8
0
  5
4852
 10
147.435
 20
-79.8690
 30
1.77828e-14
  70
    32
  0
VERTEX
  8
0
  5
4853
 10
147.418
 20
-79.8745
 30
1.77842e-14
  70
    32
  0
VERTEX
  8
0
  5
4854
 10
147.400
 20
-79.8797
 30
1.77855e-14
  70
    32
  0
VERTEX
  8
0
  5
4855
 10
147.382
 20
-79.8848
 30
1.77868e-14
  70
    32
  0
VERTEX
  8
0
  5
4856
 10
147.364
 20
-79.8896
 30
1.77880e-14
  70
    32
  0
VERTEX
  8
0
  5
4857
 10
147.347
 20
-79.8942
 30
1.77892e-14
  70
    32
  0
VERTEX
  8
0
  5
4858
 10
147.329
 20
-79.8985
 30
1.77903e-14
  70
    32
  0
VERTEX
  8
0
  5
4859
 10
147.311
 20
-79.9027
 30
1.77913e-14
  70
    32
  0
VERTEX
  8
0
  5
485A
 10
147.293
 20
-79.9065
 30
1.77923e-14
  70
    32
  0
VERTEX
  8
0
  5
485B
 10
147.275
 20
-79.9102
 30
1.77932e-14
  70
    32
  0
VERTEX
  8
0
  5
485C
 10
147.256
 20
-79.9136
 30
1.77941e-14
  70
    32
  0
VERTEX
  8
0
  5
485D
 10
147.238
 20
-79.9168
 30
1.77949e-14
  70
    32
  0
VERTEX
  8
0
  5
485E
 10
147.220
 20
-79.9198
 30
1.77957e-14
  70
    32
  0
VERTEX
  8
0
  5
485F
 10
147.202
 20
-79.9225
 30
1.77964e-14
  70
    32
  0
VERTEX
  8
0
  5
4860
 10
147.184
 20
-79.9250
 30
1.77970e-14
  70
    32
  0
VERTEX
  8
0
  5
4861
 10
147.165
 20
-79.9272
 30
1.77976e-14
  70
    32
  0
VERTEX
  8
0
  5
4862
 10
147.147
 20
-79.9292
 30
1.77981e-14
  70
    32
  0
VERTEX
  8
0
  5
4863
 10
147.129
 20
-79.9310
 30
1.77985e-14
  70
    32
  0
VERTEX
  8
0
  5
4864
 10
147.110
 20
-79.9326
 30
1.77989e-14
  70
    32
  0
VERTEX
  8
0
  5
4865
 10
147.092
 20
-79.9339
 30
1.77992e-14
  70
    32
  0
VERTEX
  8
0
  5
4866
 10
147.074
 20
-79.9349
 30
1.77995e-14
  70
    32
  0
VERTEX
  8
0
  5
4867
 10
147.055
 20
-79.9358
 30
1.77997e-14
  70
    32
  0
VERTEX
  8
0
  5
4868
 10
147.037
 20
-79.9364
 30
1.77999e-14
  70
    32
  0
VERTEX
  8
0
  5
4869
 10
147.018
 20
-79.9367
 30
1.78000e-14
  70
    32
  0
VERTEX
  8
0
  5
486A
 10
147.000
 20
-79.9368
 30
1.78000e-14
  70
    32
  0
SEQEND
  8
0
  5
486B
  0
POLYLINE
  5
427B
  8
0
  6
VERDECKT
 62
     1
 10
147.0000000000001137
 20
-81.513284869719925
 30
0.0000000000000181
 66
     1
 70
     8
  0
VERTEX
  8
0
  5
486C
 10
147.000
 20
-81.5133
 30
1.81000e-14
  70
    32
  0
VERTEX
  8
0
  5
486D
 10
147.037
 20
-81.5130
 30
1.80999e-14
  70
    32
  0
VERTEX
  8
0
  5
486E
 10
147.074
 20
-81.5123
 30
1.80998e-14
  70
    32
  0
VERTEX
  8
0
  5
486F
 10
147.110
 20
-81.5111
 30
1.80995e-14
  70
    32
  0
VERTEX
  8
0
  5
4870
 10
147.147
 20
-81.5095
 30
1.80992e-14
  70
    32
  0
VERTEX
  8
0
  5
4871
 10
147.184
 20
-81.5074
 30
1.80987e-14
  70
    32
  0
VERTEX
  8
0
  5
4872
 10
147.221
 20
-81.5047
 30
1.80981e-14
  70
    32
  0
VERTEX
  8
0
  5
4873
 10
147.257
 20
-81.5017
 30
1.80974e-14
  70
    32
  0
VERTEX
  8
0
  5
4874
 10
147.294
 20
-81.4981
 30
1.80966e-14
  70
    32
  0
VERTEX
  8
0
  5
4875
 10
147.331
 20
-81.4941
 30
1.80957e-14
  70
    32
  0
VERTEX
  8
0
  5
4876
 10
147.367
 20
-81.4896
 30
1.80947e-14
  70
    32
  0
VERTEX
  8
0
  5
4877
 10
147.404
 20
-81.4846
 30
1.80936e-14
  70
    32
  0
VERTEX
  8
0
  5
4878
 10
147.440
 20
-81.4792
 30
1.80924e-14
  70
    32
  0
VERTEX
  8
0
  5
4879
 10
147.477
 20
-81.4732
 30
1.80911e-14
  70
    32
  0
VERTEX
  8
0
  5
487A
 10
147.513
 20
-81.4669
 30
1.80897e-14
  70
    32
  0
VERTEX
  8
0
  5
487B
 10
147.549
 20
-81.4600
 30
1.80882e-14
  70
    32
  0
VERTEX
  8
0
  5
487C
 10
147.585
 20
-81.4527
 30
1.80865e-14
  70
    32
  0
VERTEX
  8
0
  5
487D
 10
147.621
 20
-81.4449
 30
1.80848e-14
  70
    32
  0
VERTEX
  8
0
  5
487E
 10
147.657
 20
-81.4367
 30
1.80830e-14
  70
    32
  0
VERTEX
  8
0
  5
487F
 10
147.693
 20
-81.4280
 30
1.80811e-14
  70
    32
  0
VERTEX
  8
0
  5
4880
 10
147.729
 20
-81.4188
 30
1.80790e-14
  70
    32
  0
VERTEX
  8
0
  5
4881
 10
147.765
 20
-81.4092
 30
1.80769e-14
  70
    32
  0
VERTEX
  8
0
  5
4882
 10
147.800
 20
-81.3991
 30
1.80746e-14
  70
    32
  0
VERTEX
  8
0
  5
4883
 10
147.836
 20
-81.3885
 30
1.80723e-14
  70
    32
  0
VERTEX
  8
0
  5
4884
 10
147.871
 20
-81.3775
 30
1.80699e-14
  70
    32
  0
VERTEX
  8
0
  5
4885
 10
147.906
 20
-81.3661
 30
1.80673e-14
  70
    32
  0
VERTEX
  8
0
  5
4886
 10
147.941
 20
-81.3542
 30
1.80647e-14
  70
    32
  0
VERTEX
  8
0
  5
4887
 10
147.976
 20
-81.3418
 30
1.80619e-14
  70
    32
  0
VERTEX
  8
0
  5
4888
 10
148.011
 20
-81.3290
 30
1.80591e-14
  70
    32
  0
VERTEX
  8
0
  5
4889
 10
148.045
 20
-81.3157
 30
1.80561e-14
  70
    32
  0
VERTEX
  8
0
  5
488A
 10
148.080
 20
-81.3020
 30
1.80531e-14
  70
    32
  0
VERTEX
  8
0
  5
488B
 10
148.114
 20
-81.2879
 30
1.80500e-14
  70
    32
  0
VERTEX
  8
0
  5
488C
 10
148.148
 20
-81.2733
 30
1.80467e-14
  70
    32
  0
VERTEX
  8
0
  5
488D
 10
148.182
 20
-81.2583
 30
1.80434e-14
  70
    32
  0
VERTEX
  8
0
  5
488E
 10
148.216
 20
-81.2428
 30
1.80399e-14
  70
    32
  0
VERTEX
  8
0
  5
488F
 10
148.249
 20
-81.2269
 30
1.80364e-14
  70
    32
  0
VERTEX
  8
0
  5
4890
 10
148.283
 20
-81.2106
 30
1.80328e-14
  70
    32
  0
VERTEX
  8
0
  5
4891
 10
148.316
 20
-81.1938
 30
1.80291e-14
  70
    32
  0
VERTEX
  8
0
  5
4892
 10
148.349
 20
-81.1766
 30
1.80253e-14
  70
    32
  0
VERTEX
  8
0
  5
4893
 10
148.382
 20
-81.1590
 30
1.80213e-14
  70
    32
  0
VERTEX
  8
0
  5
4894
 10
148.414
 20
-81.1410
 30
1.80173e-14
  70
    32
  0
VERTEX
  8
0
  5
4895
 10
148.447
 20
-81.1225
 30
1.80132e-14
  70
    32
  0
VERTEX
  8
0
  5
4896
 10
148.479
 20
-81.1037
 30
1.80091e-14
  70
    32
  0
VERTEX
  8
0
  5
4897
 10
148.511
 20
-81.0844
 30
1.80048e-14
  70
    32
  0
VERTEX
  8
0
  5
4898
 10
148.542
 20
-81.0647
 30
1.80004e-14
  70
    32
  0
VERTEX
  8
0
  5
4899
 10
148.574
 20
-81.0446
 30
1.79959e-14
  70
    32
  0
VERTEX
  8
0
  5
489A
 10
148.605
 20
-81.0241
 30
1.79914e-14
  70
    32
  0
VERTEX
  8
0
  5
489B
 10
148.636
 20
-81.0032
 30
1.79868e-14
  70
    32
  0
VERTEX
  8
0
  5
489C
 10
148.667
 20
-80.9819
 30
1.79820e-14
  70
    32
  0
VERTEX
  8
0
  5
489D
 10
148.697
 20
-80.9602
 30
1.79772e-14
  70
    32
  0
VERTEX
  8
0
  5
489E
 10
148.727
 20
-80.9381
 30
1.79723e-14
  70
    32
  0
VERTEX
  8
0
  5
489F
 10
148.757
 20
-80.9157
 30
1.79673e-14
  70
    32
  0
VERTEX
  8
0
  5
48A0
 10
148.787
 20
-80.8928
 30
1.79622e-14
  70
    32
  0
VERTEX
  8
0
  5
48A1
 10
148.817
 20
-80.8696
 30
1.79571e-14
  70
    32
  0
VERTEX
  8
0
  5
48A2
 10
148.846
 20
-80.8460
 30
1.79518e-14
  70
    32
  0
VERTEX
  8
0
  5
48A3
 10
148.875
 20
-80.8220
 30
1.79465e-14
  70
    32
  0
VERTEX
  8
0
  5
48A4
 10
148.903
 20
-80.7976
 30
1.79411e-14
  70
    32
  0
VERTEX
  8
0
  5
48A5
 10
148.931
 20
-80.7729
 30
1.79356e-14
  70
    32
  0
VERTEX
  8
0
  5
48A6
 10
148.960
 20
-80.7478
 30
1.79300e-14
  70
    32
  0
VERTEX
  8
0
  5
48A7
 10
148.987
 20
-80.7223
 30
1.79244e-14
  70
    32
  0
VERTEX
  8
0
  5
48A8
 10
149.015
 20
-80.6965
 30
1.79187e-14
  70
    32
  0
VERTEX
  8
0
  5
48A9
 10
149.042
 20
-80.6704
 30
1.79129e-14
  70
    32
  0
VERTEX
  8
0
  5
48AA
 10
149.069
 20
-80.6439
 30
1.79070e-14
  70
    32
  0
VERTEX
  8
0
  5
48AB
 10
149.095
 20
-80.6170
 30
1.79010e-14
  70
    32
  0
VERTEX
  8
0
  5
48AC
 10
149.121
 20
-80.5898
 30
1.78950e-14
  70
    32
  0
VERTEX
  8
0
  5
48AD
 10
149.147
 20
-80.5623
 30
1.78889e-14
  70
    32
  0
VERTEX
  8
0
  5
48AE
 10
149.173
 20
-80.5344
 30
1.78827e-14
  70
    32
  0
VERTEX
  8
0
  5
48AF
 10
149.198
 20
-80.5063
 30
1.78764e-14
  70
    32
  0
VERTEX
  8
0
  5
48B0
 10
149.223
 20
-80.4777
 30
1.78701e-14
  70
    32
  0
VERTEX
  8
0
  5
48B1
 10
149.247
 20
-80.4489
 30
1.78637e-14
  70
    32
  0
VERTEX
  8
0
  5
48B2
 10
149.272
 20
-80.4198
 30
1.78572e-14
  70
    32
  0
VERTEX
  8
0
  5
48B3
 10
149.296
 20
-80.3903
 30
1.78507e-14
  70
    32
  0
VERTEX
  8
0
  5
48B4
 10
149.319
 20
-80.3606
 30
1.78441e-14
  70
    32
  0
VERTEX
  8
0
  5
48B5
 10
149.342
 20
-80.3305
 30
1.78374e-14
  70
    32
  0
VERTEX
  8
0
  5
48B6
 10
149.365
 20
-80.3001
 30
1.78307e-14
  70
    32
  0
VERTEX
  8
0
  5
48B7
 10
149.388
 20
-80.2695
 30
1.78239e-14
  70
    32
  0
VERTEX
  8
0
  5
48B8
 10
149.410
 20
-80.2386
 30
1.78170e-14
  70
    32
  0
VERTEX
  8
0
  5
48B9
 10
149.431
 20
-80.2073
 30
1.78101e-14
  70
    32
  0
VERTEX
  8
0
  5
48BA
 10
149.453
 20
-80.1759
 30
1.78031e-14
  70
    32
  0
VERTEX
  8
0
  5
48BB
 10
149.474
 20
-80.1441
 30
1.77960e-14
  70
    32
  0
VERTEX
  8
0
  5
48BC
 10
149.494
 20
-80.1120
 30
1.77889e-14
  70
    32
  0
VERTEX
  8
0
  5
48BD
 10
149.515
 20
-80.0797
 30
1.77817e-14
  70
    32
  0
VERTEX
  8
0
  5
48BE
 10
149.535
 20
-80.0472
 30
1.77745e-14
  70
    32
  0
VERTEX
  8
0
  5
48BF
 10
149.554
 20
-80.0144
 30
1.77672e-14
  70
    32
  0
VERTEX
  8
0
  5
48C0
 10
149.573
 20
-79.9813
 30
1.77599e-14
  70
    32
  0
VERTEX
  8
0
  5
48C1
 10
149.592
 20
-79.9480
 30
1.77525e-14
  70
    32
  0
VERTEX
  8
0
  5
48C2
 10
149.610
 20
-79.9144
 30
1.77450e-14
  70
    32
  0
VERTEX
  8
0
  5
48C3
 10
149.628
 20
-79.8807
 30
1.77375e-14
  70
    32
  0
VERTEX
  8
0
  5
48C4
 10
149.646
 20
-79.8467
 30
1.77300e-14
  70
    32
  0
VERTEX
  8
0
  5
48C5
 10
149.663
 20
-79.8124
 30
1.77224e-14
  70
    32
  0
VERTEX
  8
0
  5
48C6
 10
149.680
 20
-79.7780
 30
1.77147e-14
  70
    32
  0
VERTEX
  8
0
  5
48C7
 10
149.696
 20
-79.7433
 30
1.77070e-14
  70
    32
  0
VERTEX
  8
0
  5
48C8
 10
149.712
 20
-79.7084
 30
1.76993e-14
  70
    32
  0
VERTEX
  8
0
  5
48C9
 10
149.728
 20
-79.6733
 30
1.76915e-14
  70
    32
  0
VERTEX
  8
0
  5
48CA
 10
149.743
 20
-79.6381
 30
1.76837e-14
  70
    32
  0
VERTEX
  8
0
  5
48CB
 10
149.757
 20
-79.6026
 30
1.76758e-14
  70
    32
  0
VERTEX
  8
0
  5
48CC
 10
149.772
 20
-79.5669
 30
1.76679e-14
  70
    32
  0
VERTEX
  8
0
  5
48CD
 10
149.786
 20
-79.5311
 30
1.76599e-14
  70
    32
  0
VERTEX
  8
0
  5
48CE
 10
149.799
 20
-79.4951
 30
1.76519e-14
  70
    32
  0
VERTEX
  8
0
  5
48CF
 10
149.812
 20
-79.4589
 30
1.76439e-14
  70
    32
  0
VERTEX
  8
0
  5
48D0
 10
149.825
 20
-79.4226
 30
1.76358e-14
  70
    32
  0
VERTEX
  8
0
  5
48D1
 10
149.837
 20
-79.3861
 30
1.76277e-14
  70
    32
  0
VERTEX
  8
0
  5
48D2
 10
149.849
 20
-79.3494
 30
1.76196e-14
  70
    32
  0
VERTEX
  8
0
  5
48D3
 10
149.860
 20
-79.3126
 30
1.76114e-14
  70
    32
  0
VERTEX
  8
0
  5
48D4
 10
149.871
 20
-79.2756
 30
1.76032e-14
  70
    32
  0
VERTEX
  8
0
  5
48D5
 10
149.881
 20
-79.2385
 30
1.75950e-14
  70
    32
  0
VERTEX
  8
0
  5
48D6
 10
149.891
 20
-79.2013
 30
1.75867e-14
  70
    32
  0
VERTEX
  8
0
  5
48D7
 10
149.901
 20
-79.1640
 30
1.75784e-14
  70
    32
  0
VERTEX
  8
0
  5
48D8
 10
149.910
 20
-79.1265
 30
1.75701e-14
  70
    32
  0
VERTEX
  8
0
  5
48D9
 10
149.919
 20
-79.0889
 30
1.75617e-14
  70
    32
  0
VERTEX
  8
0
  5
48DA
 10
149.927
 20
-79.0512
 30
1.75534e-14
  70
    32
  0
VERTEX
  8
0
  5
48DB
 10
149.935
 20
-79.0134
 30
1.75450e-14
  70
    32
  0
VERTEX
  8
0
  5
48DC
 10
149.942
 20
-78.9755
 30
1.75366e-14
  70
    32
  0
VERTEX
  8
0
  5
48DD
 10
149.949
 20
-78.9375
 30
1.75281e-14
  70
    32
  0
VERTEX
  8
0
  5
48DE
 10
149.956
 20
-78.8994
 30
1.75197e-14
  70
    32
  0
VERTEX
  8
0
  5
48DF
 10
149.962
 20
-78.8613
 30
1.75112e-14
  70
    32
  0
VERTEX
  8
0
  5
48E0
 10
149.968
 20
-78.8230
 30
1.75027e-14
  70
    32
  0
VERTEX
  8
0
  5
48E1
 10
149.973
 20
-78.7847
 30
1.74942e-14
  70
    32
  0
VERTEX
  8
0
  5
48E2
 10
149.977
 20
-78.7463
 30
1.74857e-14
  70
    32
  0
VERTEX
  8
0
  5
48E3
 10
149.982
 20
-78.7079
 30
1.74772e-14
  70
    32
  0
VERTEX
  8
0
  5
48E4
 10
149.986
 20
-78.6694
 30
1.74686e-14
  70
    32
  0
VERTEX
  8
0
  5
48E5
 10
149.989
 20
-78.6309
 30
1.74601e-14
  70
    32
  0
VERTEX
  8
0
  5
48E6
 10
149.992
 20
-78.5923
 30
1.74515e-14
  70
    32
  0
VERTEX
  8
0
  5
48E7
 10
149.994
 20
-78.5537
 30
1.74429e-14
  70
    32
  0
VERTEX
  8
0
  5
48E8
 10
149.996
 20
-78.5151
 30
1.74343e-14
  70
    32
  0
VERTEX
  8
0
  5
48E9
 10
149.998
 20
-78.4764
 30
1.74258e-14
  70
    32
  0
VERTEX
  8
0
  5
48EA
 10
149.999
 20
-78.4378
 30
1.74172e-14
  70
    32
  0
VERTEX
  8
0
  5
48EB
 10
150.000
 20
-78.3991
 30
1.74086e-14
  70
    32
  0
VERTEX
  8
0
  5
48EC
 10
150.000
 20
-78.3604
 30
1.74000e-14
  70
    32
  0
SEQEND
  8
0
  5
48ED
  0
LINE
  5
427C
  8
0
  6
VERDECKT
 62
     1
 10
-146.9999999999998863
 20
-81.5132848697199535
 30
0.0000000000000181
 11
147.0000000000001137
 21
-81.5132848697199535
 31
0.0000000000000181
210
0.0
220
1.0
230
-0.0000000000000002
  0
POLYLINE
  5
427D
  8
0
  6
VERDECKT
 62
     1
 10
-149.9999999999998863
 20
-78.3603883967273589
 30
0.0000000000000174
 66
     1
 70
     8
  0
VERTEX
  8
0
  5
48EE
 10
-150.000
 20
-78.3604
 30
1.74000e-14
  70
    32
  0
VERTEX
  8
0
  5
48EF
 10
-150.000
 20
-78.3991
 30
1.74086e-14
  70
    32
  0
VERTEX
  8
0
  5
48F0
 10
-149.999
 20
-78.4378
 30
1.74172e-14
  70
    32
  0
VERTEX
  8
0
  5
48F1
 10
-149.998
 20
-78.4764
 30
1.74258e-14
  70
    32
  0
VERTEX
  8
0
  5
48F2
 10
-149.996
 20
-78.5151
 30
1.74343e-14
  70
    32
  0
VERTEX
  8
0
  5
48F3
 10
-149.994
 20
-78.5537
 30
1.74429e-14
  70
    32
  0
VERTEX
  8
0
  5
48F4
 10
-149.992
 20
-78.5923
 30
1.74515e-14
  70
    32
  0
VERTEX
  8
0
  5
48F5
 10
-149.989
 20
-78.6309
 30
1.74601e-14
  70
    32
  0
VERTEX
  8
0
  5
48F6
 10
-149.986
 20
-78.6694
 30
1.74686e-14
  70
    32
  0
VERTEX
  8
0
  5
48F7
 10
-149.982
 20
-78.7079
 30
1.74772e-14
  70
    32
  0
VERTEX
  8
0
  5
48F8
 10
-149.977
 20
-78.7463
 30
1.74857e-14
  70
    32
  0
VERTEX
  8
0
  5
48F9
 10
-149.973
 20
-78.7847
 30
1.74942e-14
  70
    32
  0
VERTEX
  8
0
  5
48FA
 10
-149.968
 20
-78.8230
 30
1.75027e-14
  70
    32
  0
VERTEX
  8
0
  5
48FB
 10
-149.962
 20
-78.8613
 30
1.75112e-14
  70
    32
  0
VERTEX
  8
0
  5
48FC
 10
-149.956
 20
-78.8994
 30
1.75197e-14
  70
    32
  0
VERTEX
  8
0
  5
48FD
 10
-149.949
 20
-78.9375
 30
1.75281e-14
  70
    32
  0
VERTEX
  8
0
  5
48FE
 10
-149.942
 20
-78.9755
 30
1.75366e-14
  70
    32
  0
VERTEX
  8
0
  5
48FF
 10
-149.935
 20
-79.0134
 30
1.75450e-14
  70
    32
  0
VERTEX
  8
0
  5
4900
 10
-149.927
 20
-79.0512
 30
1.75534e-14
  70
    32
  0
VERTEX
  8
0
  5
4901
 10
-149.919
 20
-79.0889
 30
1.75617e-14
  70
    32
  0
VERTEX
  8
0
  5
4902
 10
-149.910
 20
-79.1265
 30
1.75701e-14
  70
    32
  0
VERTEX
  8
0
  5
4903
 10
-149.901
 20
-79.1640
 30
1.75784e-14
  70
    32
  0
VERTEX
  8
0
  5
4904
 10
-149.891
 20
-79.2013
 30
1.75867e-14
  70
    32
  0
VERTEX
  8
0
  5
4905
 10
-149.881
 20
-79.2385
 30
1.75950e-14
  70
    32
  0
VERTEX
  8
0
  5
4906
 10
-149.871
 20
-79.2756
 30
1.76032e-14
  70
    32
  0
VERTEX
  8
0
  5
4907
 10
-149.860
 20
-79.3126
 30
1.76114e-14
  70
    32
  0
VERTEX
  8
0
  5
4908
 10
-149.849
 20
-79.3494
 30
1.76196e-14
  70
    32
  0
VERTEX
  8
0
  5
4909
 10
-149.837
 20
-79.3861
 30
1.76277e-14
  70
    32
  0
VERTEX
  8
0
  5
490A
 10
-149.825
 20
-79.4226
 30
1.76358e-14
  70
    32
  0
VERTEX
  8
0
  5
490B
 10
-149.812
 20
-79.4589
 30
1.76439e-14
  70
    32
  0
VERTEX
  8
0
  5
490C
 10
-149.799
 20
-79.4951
 30
1.76519e-14
  70
    32
  0
VERTEX
  8
0
  5
490D
 10
-149.786
 20
-79.5311
 30
1.76599e-14
  70
    32
  0
VERTEX
  8
0
  5
490E
 10
-149.772
 20
-79.5669
 30
1.76679e-14
  70
    32
  0
VERTEX
  8
0
  5
490F
 10
-149.757
 20
-79.6026
 30
1.76758e-14
  70
    32
  0
VERTEX
  8
0
  5
4910
 10
-149.743
 20
-79.6381
 30
1.76837e-14
  70
    32
  0
VERTEX
  8
0
  5
4911
 10
-149.728
 20
-79.6733
 30
1.76915e-14
  70
    32
  0
VERTEX
  8
0
  5
4912
 10
-149.712
 20
-79.7084
 30
1.76993e-14
  70
    32
  0
VERTEX
  8
0
  5
4913
 10
-149.696
 20
-79.7433
 30
1.77070e-14
  70
    32
  0
VERTEX
  8
0
  5
4914
 10
-149.680
 20
-79.7780
 30
1.77147e-14
  70
    32
  0
VERTEX
  8
0
  5
4915
 10
-149.663
 20
-79.8124
 30
1.77224e-14
  70
    32
  0
VERTEX
  8
0
  5
4916
 10
-149.646
 20
-79.8467
 30
1.77300e-14
  70
    32
  0
VERTEX
  8
0
  5
4917
 10
-149.628
 20
-79.8807
 30
1.77375e-14
  70
    32
  0
VERTEX
  8
0
  5
4918
 10
-149.610
 20
-79.9144
 30
1.77450e-14
  70
    32
  0
VERTEX
  8
0
  5
4919
 10
-149.592
 20
-79.9480
 30
1.77525e-14
  70
    32
  0
VERTEX
  8
0
  5
491A
 10
-149.573
 20
-79.9813
 30
1.77599e-14
  70
    32
  0
VERTEX
  8
0
  5
491B
 10
-149.554
 20
-80.0144
 30
1.77672e-14
  70
    32
  0
VERTEX
  8
0
  5
491C
 10
-149.535
 20
-80.0472
 30
1.77745e-14
  70
    32
  0
VERTEX
  8
0
  5
491D
 10
-149.515
 20
-80.0797
 30
1.77817e-14
  70
    32
  0
VERTEX
  8
0
  5
491E
 10
-149.494
 20
-80.1120
 30
1.77889e-14
  70
    32
  0
VERTEX
  8
0
  5
491F
 10
-149.474
 20
-80.1441
 30
1.77960e-14
  70
    32
  0
VERTEX
  8
0
  5
4920
 10
-149.453
 20
-80.1759
 30
1.78031e-14
  70
    32
  0
VERTEX
  8
0
  5
4921
 10
-149.431
 20
-80.2073
 30
1.78101e-14
  70
    32
  0
VERTEX
  8
0
  5
4922
 10
-149.410
 20
-80.2386
 30
1.78170e-14
  70
    32
  0
VERTEX
  8
0
  5
4923
 10
-149.388
 20
-80.2695
 30
1.78239e-14
  70
    32
  0
VERTEX
  8
0
  5
4924
 10
-149.365
 20
-80.3001
 30
1.78307e-14
  70
    32
  0
VERTEX
  8
0
  5
4925
 10
-149.342
 20
-80.3305
 30
1.78374e-14
  70
    32
  0
VERTEX
  8
0
  5
4926
 10
-149.319
 20
-80.3606
 30
1.78441e-14
  70
    32
  0
VERTEX
  8
0
  5
4927
 10
-149.296
 20
-80.3903
 30
1.78507e-14
  70
    32
  0
VERTEX
  8
0
  5
4928
 10
-149.272
 20
-80.4198
 30
1.78572e-14
  70
    32
  0
VERTEX
  8
0
  5
4929
 10
-149.247
 20
-80.4489
 30
1.78637e-14
  70
    32
  0
VERTEX
  8
0
  5
492A
 10
-149.223
 20
-80.4777
 30
1.78701e-14
  70
    32
  0
VERTEX
  8
0
  5
492B
 10
-149.198
 20
-80.5063
 30
1.78764e-14
  70
    32
  0
VERTEX
  8
0
  5
492C
 10
-149.173
 20
-80.5344
 30
1.78827e-14
  70
    32
  0
VERTEX
  8
0
  5
492D
 10
-149.147
 20
-80.5623
 30
1.78889e-14
  70
    32
  0
VERTEX
  8
0
  5
492E
 10
-149.121
 20
-80.5898
 30
1.78950e-14
  70
    32
  0
VERTEX
  8
0
  5
492F
 10
-149.095
 20
-80.6170
 30
1.79010e-14
  70
    32
  0
VERTEX
  8
0
  5
4930
 10
-149.069
 20
-80.6439
 30
1.79070e-14
  70
    32
  0
VERTEX
  8
0
  5
4931
 10
-149.042
 20
-80.6704
 30
1.79129e-14
  70
    32
  0
VERTEX
  8
0
  5
4932
 10
-149.015
 20
-80.6965
 30
1.79187e-14
  70
    32
  0
VERTEX
  8
0
  5
4933
 10
-148.987
 20
-80.7223
 30
1.79244e-14
  70
    32
  0
VERTEX
  8
0
  5
4934
 10
-148.960
 20
-80.7478
 30
1.79300e-14
  70
    32
  0
VERTEX
  8
0
  5
4935
 10
-148.931
 20
-80.7729
 30
1.79356e-14
  70
    32
  0
VERTEX
  8
0
  5
4936
 10
-148.903
 20
-80.7976
 30
1.79411e-14
  70
    32
  0
VERTEX
  8
0
  5
4937
 10
-148.875
 20
-80.8220
 30
1.79465e-14
  70
    32
  0
VERTEX
  8
0
  5
4938
 10
-148.846
 20
-80.8460
 30
1.79518e-14
  70
    32
  0
VERTEX
  8
0
  5
4939
 10
-148.817
 20
-80.8696
 30
1.79571e-14
  70
    32
  0
VERTEX
  8
0
  5
493A
 10
-148.787
 20
-80.8928
 30
1.79622e-14
  70
    32
  0
VERTEX
  8
0
  5
493B
 10
-148.757
 20
-80.9157
 30
1.79673e-14
  70
    32
  0
VERTEX
  8
0
  5
493C
 10
-148.727
 20
-80.9381
 30
1.79723e-14
  70
    32
  0
VERTEX
  8
0
  5
493D
 10
-148.697
 20
-80.9602
 30
1.79772e-14
  70
    32
  0
VERTEX
  8
0
  5
493E
 10
-148.667
 20
-80.9819
 30
1.79820e-14
  70
    32
  0
VERTEX
  8
0
  5
493F
 10
-148.636
 20
-81.0032
 30
1.79868e-14
  70
    32
  0
VERTEX
  8
0
  5
4940
 10
-148.605
 20
-81.0241
 30
1.79914e-14
  70
    32
  0
VERTEX
  8
0
  5
4941
 10
-148.574
 20
-81.0446
 30
1.79959e-14
  70
    32
  0
VERTEX
  8
0
  5
4942
 10
-148.542
 20
-81.0647
 30
1.80004e-14
  70
    32
  0
VERTEX
  8
0
  5
4943
 10
-148.511
 20
-81.0844
 30
1.80048e-14
  70
    32
  0
VERTEX
  8
0
  5
4944
 10
-148.479
 20
-81.1037
 30
1.80091e-14
  70
    32
  0
VERTEX
  8
0
  5
4945
 10
-148.447
 20
-81.1225
 30
1.80132e-14
  70
    32
  0
VERTEX
  8
0
  5
4946
 10
-148.414
 20
-81.1410
 30
1.80173e-14
  70
    32
  0
VERTEX
  8
0
  5
4947
 10
-148.382
 20
-81.1590
 30
1.80213e-14
  70
    32
  0
VERTEX
  8
0
  5
4948
 10
-148.349
 20
-81.1766
 30
1.80253e-14
  70
    32
  0
VERTEX
  8
0
  5
4949
 10
-148.316
 20
-81.1938
 30
1.80291e-14
  70
    32
  0
VERTEX
  8
0
  5
494A
 10
-148.283
 20
-81.2106
 30
1.80328e-14
  70
    32
  0
VERTEX
  8
0
  5
494B
 10
-148.249
 20
-81.2269
 30
1.80364e-14
  70
    32
  0
VERTEX
  8
0
  5
494C
 10
-148.216
 20
-81.2428
 30
1.80399e-14
  70
    32
  0
VERTEX
  8
0
  5
494D
 10
-148.182
 20
-81.2583
 30
1.80434e-14
  70
    32
  0
VERTEX
  8
0
  5
494E
 10
-148.148
 20
-81.2733
 30
1.80467e-14
  70
    32
  0
VERTEX
  8
0
  5
494F
 10
-148.114
 20
-81.2879
 30
1.80500e-14
  70
    32
  0
VERTEX
  8
0
  5
4950
 10
-148.080
 20
-81.3020
 30
1.80531e-14
  70
    32
  0
VERTEX
  8
0
  5
4951
 10
-148.045
 20
-81.3157
 30
1.80561e-14
  70
    32
  0
VERTEX
  8
0
  5
4952
 10
-148.011
 20
-81.3290
 30
1.80591e-14
  70
    32
  0
VERTEX
  8
0
  5
4953
 10
-147.976
 20
-81.3418
 30
1.80619e-14
  70
    32
  0
VERTEX
  8
0
  5
4954
 10
-147.941
 20
-81.3542
 30
1.80647e-14
  70
    32
  0
VERTEX
  8
0
  5
4955
 10
-147.906
 20
-81.3661
 30
1.80673e-14
  70
    32
  0
VERTEX
  8
0
  5
4956
 10
-147.871
 20
-81.3775
 30
1.80699e-14
  70
    32
  0
VERTEX
  8
0
  5
4957
 10
-147.836
 20
-81.3885
 30
1.80723e-14
  70
    32
  0
VERTEX
  8
0
  5
4958
 10
-147.800
 20
-81.3991
 30
1.80746e-14
  70
    32
  0
VERTEX
  8
0
  5
4959
 10
-147.765
 20
-81.4092
 30
1.80769e-14
  70
    32
  0
VERTEX
  8
0
  5
495A
 10
-147.729
 20
-81.4188
 30
1.80790e-14
  70
    32
  0
VERTEX
  8
0
  5
495B
 10
-147.693
 20
-81.4280
 30
1.80811e-14
  70
    32
  0
VERTEX
  8
0
  5
495C
 10
-147.657
 20
-81.4367
 30
1.80830e-14
  70
    32
  0
VERTEX
  8
0
  5
495D
 10
-147.621
 20
-81.4449
 30
1.80848e-14
  70
    32
  0
VERTEX
  8
0
  5
495E
 10
-147.585
 20
-81.4527
 30
1.80865e-14
  70
    32
  0
VERTEX
  8
0
  5
495F
 10
-147.549
 20
-81.4600
 30
1.80882e-14
  70
    32
  0
VERTEX
  8
0
  5
4960
 10
-147.513
 20
-81.4669
 30
1.80897e-14
  70
    32
  0
VERTEX
  8
0
  5
4961
 10
-147.477
 20
-81.4732
 30
1.80911e-14
  70
    32
  0
VERTEX
  8
0
  5
4962
 10
-147.440
 20
-81.4792
 30
1.80924e-14
  70
    32
  0
VERTEX
  8
0
  5
4963
 10
-147.404
 20
-81.4846
 30
1.80936e-14
  70
    32
  0
VERTEX
  8
0
  5
4964
 10
-147.367
 20
-81.4896
 30
1.80947e-14
  70
    32
  0
VERTEX
  8
0
  5
4965
 10
-147.331
 20
-81.4941
 30
1.80957e-14
  70
    32
  0
VERTEX
  8
0
  5
4966
 10
-147.294
 20
-81.4981
 30
1.80966e-14
  70
    32
  0
VERTEX
  8
0
  5
4967
 10
-147.257
 20
-81.5017
 30
1.80974e-14
  70
    32
  0
VERTEX
  8
0
  5
4968
 10
-147.221
 20
-81.5047
 30
1.80981e-14
  70
    32
  0
VERTEX
  8
0
  5
4969
 10
-147.184
 20
-81.5074
 30
1.80987e-14
  70
    32
  0
VERTEX
  8
0
  5
496A
 10
-147.147
 20
-81.5095
 30
1.80992e-14
  70
    32
  0
VERTEX
  8
0
  5
496B
 10
-147.110
 20
-81.5111
 30
1.80995e-14
  70
    32
  0
VERTEX
  8
0
  5
496C
 10
-147.074
 20
-81.5123
 30
1.80998e-14
  70
    32
  0
VERTEX
  8
0
  5
496D
 10
-147.037
 20
-81.5130
 30
1.80999e-14
  70
    32
  0
VERTEX
  8
0
  5
496E
 10
-147.000
 20
-81.5133
 30
1.81000e-14
  70
    32
  0
SEQEND
  8
0
  5
496F
  0
LINE
  5
427E
  8
0
  6
VERDECKT
 62
     1
 10
150.0000000000005969
 20
42.8159731433840633
 30
-0.0000000000000095
 11
148.5000000000005969
 21
42.8159731433840705
 31
-0.0000000000000095
210
0.0
220
1.0
230
-0.0000000000000002
  0
LINE
  5
427F
  8
0
  6
VERDECKT
 62
     1
 10
148.5000000000005969
 20
41.3180288412522287
 30
-0.0000000000000092
 11
150.0000000000005969
 21
41.3180288412522287
 31
-0.0000000000000092
210
0.0
220
1.0
230
-0.0000000000000002
  0
LINE
  5
4280
  8
0
  6
VERDECKT
 62
     1
 10
-150.0000000000003979
 20
41.3180288412522287
 30
-0.0000000000000092
 11
-148.5000000000003979
 21
41.3180288412522287
 31
-0.0000000000000092
210
0.0
220
1.0
230
-0.0000000000000002
  0
LINE
  5
4281
  8
0
  6
VERDECKT
 62
     1
 10
-148.5000000000003979
 20
42.8159731433841202
 30
-0.0000000000000095
 11
-150.0000000000005116
 21
42.8159731433841131
 31
-0.0000000000000095
210
0.0
220
1.0
230
-0.0000000000000002
  0
LINE
  5
4282
  8
0
  6
VERDECKT
 62
     1
 10
150.0000000000005969
 20
35.5610736545284212
 30
-0.0000000000000079
 11
148.5000000000005969
 21
35.5610736545284212
 31
-0.0000000000000079
210
0.0
220
1.0
230
-0.0000000000000002
  0
LINE
  5
4283
  8
0
  6
VERDECKT
 62
     1
 10
148.5000000000005969
 20
37.0590179566602629
 30
-0.0000000000000082
 11
150.0000000000005969
 21
37.0590179566602629
 31
-0.0000000000000082
210
0.0
220
1.0
230
-0.0000000000000002
  0
LINE
  5
4284
  8
0
  6
VERDECKT
 62
     1
 10
-148.5000000000003979
 20
35.5610736545284212
 30
-0.0000000000000079
 11
-150.0000000000005116
 21
35.5610736545284212
 31
-0.0000000000000079
210
0.0
220
1.0
230
-0.0000000000000002
  0
LINE
  5
4285
  8
0
  6
VERDECKT
 62
     1
 10
-150.0000000000005116
 20
37.0590179566603268
 30
-0.0000000000000082
 11
-148.5000000000005116
 21
37.0590179566603268
 31
-0.0000000000000082
210
0.0
220
1.0
230
-0.0000000000000002
  0
LINE
  5
4286
  8
0
  6
VERDECKT
 62
     1
 10
150.0000000000005969
 20
48.8346081113225878
 30
-0.0000000000000108
 11
148.5000000000005969
 21
48.8346081113225878
 31
-0.0000000000000108
210
0.0
220
1.0
230
-0.0000000000000002
  0
LINE
  5
4287
  8
0
  6
VERDECKT
 62
     1
 10
148.5000000000005969
 20
47.3366638091907603
 30
-0.0000000000000105
 11
150.0000000000005969
 21
47.3366638091907603
 31
-0.0000000000000105
210
0.0
220
1.0
230
-0.0000000000000002
  0
LINE
  5
4288
  8
0
  6
VERDECKT
 62
     1
 10
-150.0000000000003979
 20
47.3366638091907603
 30
-0.0000000000000105
 11
-148.5000000000003979
 21
47.3366638091907603
 31
-0.0000000000000105
210
0.0
220
1.0
230
-0.0000000000000002
  0
LINE
  5
4289
  8
0
  6
VERDECKT
 62
     1
 10
-148.5000000000003979
 20
48.8346081113226589
 30
-0.0000000000000108
 11
-150.0000000000003979
 21
48.8346081113226589
 31
-0.0000000000000108
210
0.0
220
1.0
230
-0.0000000000000002
  0
LINE
  5
428A
  8
0
  6
VERDECKT
 62
     1
 10
150.0000000000005969
 20
41.5797086224669172
 30
-0.0000000000000092
 11
148.5000000000005969
 21
41.5797086224669172
 31
-0.0000000000000092
210
0.0
220
1.0
230
-0.0000000000000002
  0
LINE
  5
428B
  8
0
  6
VERDECKT
 62
     1
 10
148.5000000000005969
 20
43.0776529245987589
 30
-0.0000000000000096
 11
150.0000000000005969
 21
43.0776529245987518
 31
-0.0000000000000096
210
0.0
220
1.0
230
-0.0000000000000002
  0
LINE
  5
428C
  8
0
  6
VERDECKT
 62
     1
 10
-148.5000000000003979
 20
41.5797086224669172
 30
-0.0000000000000092
 11
-150.0000000000003979
 21
41.5797086224669172
 31
-0.0000000000000092
210
0.0
220
1.0
230
-0.0000000000000002
  0
LINE
  5
428D
  8
0
  6
VERDECKT
 62
     1
 10
-150.0000000000005116
 20
43.0776529245988371
 30
-0.0000000000000096
 11
-148.5000000000003979
 21
43.0776529245988513
 31
-0.0000000000000096
210
0.0
220
1.0
230
-0.0000000000000002
  0
LINE
  5
428E
  8
0
  6
VERDECKT
 62
     1
 10
150.0000000000005969
 20
30.7787032075070108
 30
-0.0000000000000068
 11
148.5000000000005969
 21
30.7787032075070215
 31
-0.0000000000000068
210
0.0
220
1.0
230
-0.0000000000000002
  0
LINE
  5
428F
  8
0
  6
VERDECKT
 62
     1
 10
148.5000000000005969
 20
29.2807589053751798
 30
-0.0000000000000065
 11
150.0000000000005969
 21
29.2807589053751798
 31
-0.0000000000000065
210
0.0
220
1.0
230
-0.0000000000000002
  0
LINE
  5
4290
  8
0
  6
VERDECKT
 62
     1
 10
-150.0000000000005116
 20
29.2807589053751798
 30
-0.0000000000000065
 11
-148.5000000000003979
 21
29.2807589053751798
 31
-0.0000000000000065
210
0.0
220
1.0
230
-0.0000000000000002
  0
LINE
  5
4291
  8
0
  6
VERDECKT
 62
     1
 10
-148.5000000000005116
 20
30.7787032075070783
 30
-0.0000000000000068
 11
-150.0000000000005116
 21
30.7787032075070712
 31
-0.0000000000000068
210
0.0
220
1.0
230
-0.0000000000000002
  0
LINE
  5
4292
  8
0
  6
VERDECKT
 62
     1
 10
150.0000000000005969
 20
23.5238037186513793
 30
-0.0000000000000052
 11
148.5000000000005969
 21
23.5238037186513793
 31
-0.0000000000000052
210
0.0
220
1.0
230
-0.0000000000000002
  0
LINE
  5
4293
  8
0
  6
VERDECKT
 62
     1
 10
148.5000000000005969
 20
25.021748020783221
 30
-0.0000000000000056
 11
150.0000000000005969
 21
25.021748020783221
 31
-0.0000000000000056
210
0.0
220
1.0
230
-0.0000000000000002
  0
LINE
  5
4294
  8
0
  6
VERDECKT
 62
     1
 10
-148.5000000000003979
 20
23.5238037186513793
 30
-0.0000000000000052
 11
-150.0000000000005116
 21
23.5238037186513793
 31
-0.0000000000000052
210
0.0
220
1.0
230
-0.0000000000000002
  0
LINE
  5
4295
  8
0
  6
VERDECKT
 62
     1
 10
-150.0000000000005116
 20
25.0217480207832601
 30
-0.0000000000000056
 11
-148.5000000000005116
 21
25.0217480207832708
 31
-0.0000000000000056
210
0.0
220
1.0
230
-0.0000000000000002
  0
LINE
  5
4296
  8
0
  6
VERDECKT
 62
     1
 10
148.5547285749827893
 20
48.5665587808999391
 30
-0.0000000000000108
 11
150.0000000000005969
 21
48.5665587808999391
 31
-0.0000000000000108
210
0.0
220
1.0
230
-0.0000000000000002
  0
LINE
  5
4297
  8
0
  6
VERDECKT
 62
     1
 10
148.5000000000005969
 20
47.5983435904054701
 30
-0.0000000000000106
 11
150.0000000000005969
 21
47.5983435904054701
 31
-0.0000000000000106
210
0.0
220
1.0
230
-0.0000000000000002
  0
LINE
  5
4298
  8
0
  6
VERDECKT
 62
     1
 10
150.0000000000005969
 20
49.0962878925373687
 30
-0.0000000000000109
 11
150.0000000000005969
 21
48.5665587808999391
 31
-0.0000000000000108
210
0.0
220
1.0
230
-0.0000000000000002
  0
LINE
  5
4299
  8
0
  6
VERDECKT
 62
     1
 10
148.5000000000005969
 20
49.0962878925372976
 30
-0.0000000000000109
 11
150.0000000000005969
 21
49.0962878925372976
 31
-0.0000000000000109
210
0.0
220
1.0
230
-0.0000000000000002
  0
LINE
  5
429A
  8
0
  6
VERDECKT
 62
     1
 10
150.0000000000005969
 20
48.5665587808999533
 30
-0.0000000000000108
 11
150.0000000000003126
 21
2.7499999999999929
 31
-0.0000000000000006
210
0.0
220
1.0
230
-0.0000000000000002
  0
LINE
  5
429B
  8
0
  6
VERDECKT
 62
     1
 10
-150.0000000000005116
 20
49.0962878925373971
 30
-0.0000000000000109
 11
-148.5000000000003979
 21
49.0962878925374113
 31
-0.0000000000000109
210
0.0
220
1.0
230
-0.0000000000000002
  0
LINE
  5
429C
  8
0
  6
VERDECKT
 62
     1
 10
-150.0000000000005116
 20
48.5665587808999391
 30
-0.0000000000000108
 11
-150.0000000000005116
 21
49.0962878925373616
 31
-0.0000000000000109
210
0.0
220
1.0
230
-0.0000000000000002
  0
LINE
  5
429D
  8
0
  6
VERDECKT
 62
     1
 10
-150.0000000000003979
 20
47.5983435904054701
 30
-0.0000000000000106
 11
-148.5000000000003979
 21
47.5983435904054701
 31
-0.0000000000000106
210
0.0
220
1.0
230
-0.0000000000000002
  0
LINE
  5
429E
  8
0
  6
VERDECKT
 62
     1
 10
-150.0000000000003979
 20
48.5665587808999391
 30
-0.0000000000000108
 11
-148.554728574982704
 21
48.5665587808999391
 31
-0.0000000000000108
210
0.0
220
1.0
230
-0.0000000000000002
  0
LINE
  5
429F
  8
0
  6
VERDECKT
 62
     1
 10
-150.000000000000199
 20
2.749999999999956
 30
-0.0000000000000006
 11
-150.0000000000003979
 21
48.5665587808999533
 31
-0.0000000000000108
210
0.0
220
1.0
230
-0.0000000000000002
  0
LINE
  5
42A0
  8
0
  6
VERDECKT
 62
     1
 10
-148.4999999999998863
 20
-47.0645002619015003
 30
0.0000000000000105
 11
-148.5
 21
-78.3603883967273731
 31
0.0000000000000174
210
0.0
220
1.0
230
-0.0000000000000002
  0
LINE
  5
42A1
  8
0
  6
VERDECKT
 62
     1
 10
148.5000000000001137
 20
-78.3603883967274157
 30
0.0000000000000174
 11
148.5
 21
-47.0645002619015571
 31
0.0000000000000105
210
0.0
220
1.0
230
-0.0000000000000002
  0
LINE
  5
42A2
  8
0
  6
VERDECKT
 62
     1
 10
-150.0
 20
-78.3603883967273589
 30
0.0000000000000174
 11
-150.0
 21
-47.0645002619014932
 31
0.0000000000000105
210
0.0
220
1.0
230
-0.0000000000000002
  0
LINE
  5
42A3
  8
0
  6
VERDECKT
 62
     1
 10
150.0000000000001137
 20
-47.06450026190155
 30
0.0000000000000105
 11
150.0000000000001137
 21
-78.3603883967274015
 31
0.0000000000000174
210
0.0
220
1.0
230
-0.0000000000000002
  0
ENDBLK
  5
42A5
  8
0
  0
BLOCK
  8
0
  2
A$C2AE7F579
 70
     0
 10
0.0
 20
0.0
 30
0.0
  3
A$C2AE7F579
  1

  0
LINE
  5
42A9
  8
0
  6
CONTINUOUS
 62
     3
 10
508.2905080744596944
 20
22.006793690993451
 30
-0.0000000000000049
 11
508.369012008824086
 21
23.5047379931253211
 31
-0.0000000000000052
210
0.0000000000000002
220
1.0
230
-0.0000000000000002
  0
LINE
  5
42AA
  8
0
  6
CONTINUOUS
 62
     3
 10
508.3690120088241997
 20
23.5047379931253104
 30
-0.0000000000000052
 11
484.665541371889617
 21
24.746984250507829
 31
-0.0000000000000055
210
0.0000000000000002
220
1.0
230
-0.0000000000000002
  0
LINE
  5
42AB
  8
0
  6
CONTINUOUS
 62
     3
 10
484.665541371889617
 20
24.746984250507829
 30
-0.0000000000000055
 11
484.5870374375252254
 21
23.2490399483759695
 31
-0.0000000000000052
210
0.0000000000000002
220
1.0
230
-0.0000000000000002
  0
LINE
  5
42AC
  8
0
  6
CONTINUOUS
 62
     3
 10
508.2900825166038885
 20
22.0068159935356285
 30
-0.0000000000000049
 11
508.2905080744596944
 21
22.0067936909934616
 31
-0.0000000000000049
210
0.0000000000000002
220
1.0
230
-0.0000000000000002
  0
LINE
  5
42AD
  8
0
  6
CONTINUOUS
 62
     3
 10
1.5785039343644081
 20
50.0645030830318305
 30
-0.0000000000000111
 11
1.4999999999999929
 21
48.5665587808999817
 31
-0.0000000000000108
210
0.0000000000000002
220
1.0
230
-0.0000000000000002
  0
LINE
  5
42AE
  8
0
  6
CONTINUOUS
 62
     3
 10
19.7249890092709812
 20
47.6114275794662518
 30
-0.0000000000000106
 11
19.8034929436353906
 21
49.1093718815981219
 31
-0.0000000000000109
210
0.0000000000000002
220
1.0
230
-0.0000000000000002
  0
LINE
  5
42AF
  8
0
  6
CONTINUOUS
 62
     3
 10
19.8034929436353906
 20
49.1093718815981077
 30
-0.0000000000000109
 11
1.5785039343644629
 21
50.0645030830318305
 31
-0.0000000000000111
210
0.0000000000000002
220
1.0
230
-0.0000000000000002
  0
LINE
  5
42B0
  8
0
  6
CONTINUOUS
 62
     3
 10
25.2959553847855183
 20
48.8215241222619412
 30
-0.0000000000000108
 11
25.2174514504210983
 21
47.3235798201300568
 31
-0.0000000000000105
210
0.0000000000000002
220
1.0
230
-0.0000000000000002
  0
LINE
  5
42B1
  8
0
  6
CONTINUOUS
 62
     3
 10
134.5673855060470032
 20
41.5927926115277202
 30
-0.0000000000000092
 11
134.6458894404113948
 21
43.0907369136595833
 31
-0.0000000000000096
210
0.0000000000000002
220
1.0
230
-0.0000000000000002
  0
LINE
  5
42B2
  8
0
  6
CONTINUOUS
 62
     3
 10
134.6458894404113948
 20
43.0907369136595833
 30
-0.0000000000000096
 11
25.295955384785529
 21
48.8215241222619269
 31
-0.0000000000000108
210
0.0000000000000002
220
1.0
230
-0.0000000000000002
  0
LINE
  5
42B3
  8
0
  6
CONTINUOUS
 62
     3
 10
140.1383518815615048
 20
42.8028891543234025
 30
-0.0000000000000095
 11
140.0598479471971132
 21
41.3049448521915394
 31
-0.0000000000000092
210
0.0000000000000002
220
1.0
230
-0.0000000000000002
  0
LINE
  5
42B4
  8
0
  6
CONTINUOUS
 62
     3
 10
249.4097820028229933
 20
35.5741576435892028
 30
-0.0000000000000079
 11
249.4882859371874986
 21
37.072101945721073
 31
-0.0000000000000082
210
0.0000000000000002
220
1.0
230
-0.0000000000000002
  0
LINE
  5
42B5
  8
0
  6
CONTINUOUS
 62
     3
 10
249.4882859371874986
 20
37.072101945721073
 30
-0.0000000000000082
 11
140.1383518815615901
 21
42.8028891543234025
 31
-0.0000000000000095
210
0.0000000000000002
220
1.0
230
-0.0000000000000002
  0
LINE
  5
42B6
  8
0
  6
CONTINUOUS
 62
     3
 10
254.9807483783376085
 20
36.784254186384878
 30
-0.0000000000000082
 11
254.9022444439731885
 21
35.2863098842530221
 31
-0.0000000000000078
210
0.0000000000000002
220
1.0
230
-0.0000000000000002
  0
LINE
  5
42B7
  8
0
  6
CONTINUOUS
 62
     3
 10
364.2521784995989833
 20
29.5555226756506784
 30
-0.0000000000000066
 11
364.3306824339633749
 21
31.0534669777825485
 31
-0.0000000000000069
210
0.0000000000000002
220
1.0
230
-0.0000000000000002
  0
LINE
  5
42B8
  8
0
  6
CONTINUOUS
 62
     3
 10
364.3306824339634886
 20
31.0534669777825414
 30
-0.0000000000000069
 11
254.9807483783376085
 21
36.784254186384878
 31
-0.0000000000000082
210
0.0000000000000002
220
1.0
230
-0.0000000000000002
  0
LINE
  5
42B9
  8
0
  6
CONTINUOUS
 62
     3
 10
369.8231448751135986
 20
30.7656192184463606
 30
-0.0000000000000068
 11
369.7446409407492069
 21
29.2676749163145011
 31
-0.0000000000000065
210
0.0000000000000002
220
1.0
230
-0.0000000000000002
  0
LINE
  5
42BA
  8
0
  6
CONTINUOUS
 62
     3
 10
479.0945749963750018
 20
23.536887707712161
 30
-0.0000000000000052
 11
479.1730789307392797
 21
25.0348320098440311
 31
-0.0000000000000056
210
0.0000000000000002
220
1.0
230
-0.0000000000000002
  0
LINE
  5
42BB
  8
0
  6
CONTINUOUS
 62
     3
 10
479.1730789307392797
 20
25.0348320098440311
 30
-0.0000000000000056
 11
369.8231448751137123
 21
30.7656192184463499
 31
-0.0000000000000068
210
0.0000000000000002
220
1.0
230
-0.0000000000000002
  0
LINE
  5
42BC
  8
0
  6
CONTINUOUS
 62
     3
 10
484.6655413718895034
 20
24.7469842505078397
 30
-0.0000000000000055
 11
484.4158839882006191
 21
24.7600682395685894
 31
-0.0000000000000055
210
0.0000000000000002
220
1.0
230
-0.0000000000000002
  0
LINE
  5
42BD
  8
0
  6
CONTINUOUS
 62
     3
 10
479.4227363144277092
 20
25.0217480207832992
 30
-0.0000000000000056
 11
479.1730789307392797
 21
25.0348320098440311
 31
-0.0000000000000056
210
0.0000000000000002
220
1.0
230
-0.0000000000000002
  0
LINE
  5
42BE
  8
0
  6
CONTINUOUS
 62
     3
 10
369.8231448751135986
 20
30.7656192184463606
 30
-0.0000000000000068
 11
369.5734874914247143
 21
30.7787032075071103
 31
-0.0000000000000068
210
0.0000000000000002
220
1.0
230
-0.0000000000000002
  0
LINE
  5
42BF
  8
0
  6
CONTINUOUS
 62
     3
 10
364.5803398176516907
 20
31.0403829887218308
 30
-0.0000000000000069
 11
364.3306824339634886
 21
31.0534669777825414
 31
-0.0000000000000069
210
0.0000000000000002
220
1.0
230
-0.0000000000000002
  0
LINE
  5
42C0
  8
0
  6
CONTINUOUS
 62
     3
 10
254.9807483783376085
 20
36.784254186384878
 30
-0.0000000000000082
 11
254.7310909946486959
 21
36.7973381754456312
 31
-0.0000000000000082
210
0.0000000000000002
220
1.0
230
-0.0000000000000002
  0
LINE
  5
42C1
  8
0
  6
CONTINUOUS
 62
     3
 10
249.737943320875786
 20
37.0590179566603481
 30
-0.0000000000000082
 11
249.4882859371874133
 21
37.072101945721073
 31
-0.0000000000000082
210
0.0000000000000002
220
1.0
230
-0.0000000000000002
  0
LINE
  5
42C2
  8
0
  6
CONTINUOUS
 62
     3
 10
140.1383518815615901
 20
42.8028891543234025
 30
-0.0000000000000095
 11
139.8886944978725921
 21
42.8159731433841486
 31
-0.0000000000000095
210
0.0000000000000002
220
1.0
230
-0.0000000000000002
  0
LINE
  5
42C3
  8
0
  6
CONTINUOUS
 62
     3
 10
134.8955468240997106
 20
43.0776529245988726
 30
-0.0000000000000096
 11
134.6458894404113948
 21
43.0907369136595833
 31
-0.0000000000000096
210
0.0000000000000002
220
1.0
230
-0.0000000000000002
  0
LINE
  5
42C4
  8
0
  6
CONTINUOUS
 62
     3
 10
25.295955384785529
 20
48.8215241222619412
 30
-0.0000000000000108
 11
25.0462980010966803
 21
48.8346081113226802
 31
-0.0000000000000108
210
0.0000000000000002
220
1.0
230
-0.0000000000000002
  0
LINE
  5
42C5
  8
0
  6
CONTINUOUS
 62
     3
 10
20.0531503273237597
 20
49.0962878925373971
 30
-0.0000000000000109
 11
19.8034929436353586
 21
49.1093718815981219
 31
-0.0000000000000109
210
0.0000000000000002
220
1.0
230
-0.0000000000000002
  0
LINE
  5
42C6
  8
0
  6
CONTINUOUS
 62
     3
 10
1.578503934364462
 20
50.0645030830318305
 30
-0.0000000000000111
 11
1.5000000000000131
 21
50.0686172998968573
 31
-0.0000000000000111
210
0.0000000000000002
220
1.0
230
-0.0000000000000002
  0
LINE
  5
42C7
  8
0
  6
CONTINUOUS
 62
     3
 10
1.500000000000048
 20
170.0
 30
-0.0000000000000377
 11
0.000000000000048
 21
170.0
 31
-0.0000000000000377
210
0.0000000000000002
220
1.0
230
-0.0000000000000002
  0
LINE
  5
42C8
  8
0
  6
CONTINUOUS
 62
     3
 10
0.0000000000000422
 20
150.0
 30
-0.0000000000000333
 11
0.0000000000000479
 21
170.0
 31
-0.0000000000000377
210
0.0000000000000002
220
1.0
230
-0.0000000000000002
  0
LINE
  5
42C9
  8
0
  6
CONTINUOUS
 62
     3
 10
1.500000000000042
 20
150.0
 30
-0.0000000000000333
 11
1.500000000000048
 21
170.0
 31
-0.0000000000000377
210
0.0000000000000002
220
1.0
230
-0.0000000000000002
  0
LINE
  5
42CA
  8
0
  6
CONTINUOUS
 62
     3
 10
0.0000000000000422
 20
150.0
 30
-0.0000000000000333
 11
-0.0000000000000428
 21
-150.0000000000001137
 31
0.0000000000000333
210
0.0000000000000002
220
1.0
230
-0.0000000000000002
  0
LINE
  5
42CB
  8
0
  6
CONTINUOUS
 62
     3
 10
1.500000000000042
 20
150.0
 30
-0.0000000000000333
 11
1.4999999999999569
 21
-150.0000000000001137
 31
0.0000000000000333
210
0.0000000000000002
220
1.0
230
-0.0000000000000002
  0
LINE
  5
42CC
  8
0
  6
CONTINUOUS
 62
     3
 10
-0.0000000000000483
 20
-170.0
 30
0.0000000000000377
 11
-0.0000000000000426
 21
-150.0000000000001137
 31
0.0000000000000333
210
0.0000000000000002
220
1.0
230
-0.0000000000000002
  0
LINE
  5
42CD
  8
0
  6
CONTINUOUS
 62
     3
 10
1.4999999999999509
 20
-170.0
 30
0.0000000000000377
 11
-0.0000000000000484
 21
-170.0
 31
0.0000000000000377
210
0.0000000000000002
220
1.0
230
-0.0000000000000002
  0
LINE
  5
42CE
  8
0
  6
CONTINUOUS
 62
     3
 10
1.4999999999999509
 20
-170.0
 30
0.0000000000000377
 11
1.4999999999999569
 21
-150.0000000000001137
 31
0.0000000000000333
210
0.0000000000000002
220
1.0
230
-0.0000000000000002
  0
LINE
  5
42CF
  8
0
  6
CONTINUOUS
 62
     3
 10
254.6525870602843042
 20
35.2993938733136474
 30
-0.0000000000000078
 11
254.7310909946486959
 21
36.797338175445482
 31
-0.0000000000000082
210
0.0000000000000002
220
1.0
230
-0.0000000000000002
  0
LINE
  5
42D0
  8
0
  6
CONTINUOUS
 62
     3
 10
364.5803398176518044
 20
31.0403829887216993
 30
-0.0000000000000069
 11
364.5018358832874128
 21
29.5424386865898114
 31
-0.0000000000000066
210
0.0000000000000002
220
1.0
230
-0.0000000000000002
  0
LINE
  5
42D1
  8
0
  6
CONTINUOUS
 62
     3
 10
364.5018358832874128
 20
29.5424386865898008
 30
-0.0000000000000066
 11
254.6525870602843042
 21
35.2993938733136403
 31
-0.0000000000000078
210
0.0000000000000002
220
1.0
230
-0.0000000000000002
  0
LINE
  5
42D2
  8
0
  6
CONTINUOUS
 62
     3
 10
508.2900825166038885
 20
22.0068159935354686
 30
-0.0000000000000049
 11
484.3373800538362275
 21
23.26212393743657
 31
-0.0000000000000052
210
0.0000000000000002
220
1.0
230
-0.0000000000000002
  0
LINE
  5
42D3
  8
0
  6
CONTINUOUS
 62
     3
 10
484.3373800538361138
 20
23.26212393743657
 30
-0.0000000000000052
 11
484.4158839882005054
 21
24.7600682395683904
 31
-0.0000000000000055
210
0.0000000000000002
220
1.0
230
-0.0000000000000002
  0
LINE
  5
42D4
  8
0
  6
CONTINUOUS
 62
     3
 10
598.6611192644649009
 20
-78.3603883967275436
 30
0.0000000000000174
 11
508.2900825166038885
 21
22.0068159935354615
 31
-0.0000000000000049
210
0.0000000000000002
220
1.0
230
-0.0000000000000002
  0
LINE
  5
42D5
  8
0
  6
CONTINUOUS
 62
     3
 10
598.6611192644649009
 20
-78.3603883967275578
 30
0.0000000000000174
 11
601.4999999999996589
 21
-81.5132848697200671
 31
0.0000000000000181
210
0.0000000000000002
220
1.0
230
-0.0000000000000002
  0
LINE
  5
42D6
  8
0
  6
CONTINUOUS
 62
     3
 10
139.8101905635080868
 20
41.3180288412522216
 30
-0.0000000000000092
 11
139.8886944978725921
 21
42.8159731433840207
 31
-0.0000000000000095
210
0.0000000000000002
220
1.0
230
-0.0000000000000002
  0
LINE
  5
42D7
  8
0
  6
CONTINUOUS
 62
     3
 10
249.737943320875786
 20
37.0590179566602629
 30
-0.0000000000000082
 11
249.6594393865113943
 21
35.5610736545283785
 31
-0.0000000000000079
210
0.0000000000000002
220
1.0
230
-0.0000000000000002
  0
LINE
  5
42D8
  8
0
  6
CONTINUOUS
 62
     3
 10
249.6594393865113943
 20
35.5610736545283714
 30
-0.0000000000000079
 11
139.8101905635082005
 21
41.3180288412522003
 31
-0.0000000000000092
210
0.0000000000000002
220
1.0
230
-0.0000000000000002
  0
LINE
  5
42D9
  8
0
  6
CONTINUOUS
 62
     3
 10
24.9677940667322282
 20
47.336663809190739
 30
-0.0000000000000105
 11
25.0462980010966483
 21
48.8346081113225594
 31
-0.0000000000000108
210
0.0000000000000002
220
1.0
230
-0.0000000000000002
  0
LINE
  5
42DA
  8
0
  6
CONTINUOUS
 62
     3
 10
134.8955468240997106
 20
43.0776529245988087
 30
-0.0000000000000096
 11
134.8170428897352906
 21
41.5797086224668888
 31
-0.0000000000000092
210
0.0000000000000002
220
1.0
230
-0.0000000000000002
  0
LINE
  5
42DB
  8
0
  6
CONTINUOUS
 62
     3
 10
134.8170428897352906
 20
41.5797086224668675
 30
-0.0000000000000092
 11
24.9677940667322211
 21
47.336663809190739
 31
-0.0000000000000105
210
0.0000000000000002
220
1.0
230
-0.0000000000000002
  0
LINE
  5
42DC
  8
0
  6
CONTINUOUS
 62
     3
 10
369.4949835570600953
 20
29.2807589053751087
 30
-0.0000000000000065
 11
369.5734874914247143
 21
30.7787032075069398
 31
-0.0000000000000068
210
0.0000000000000002
220
1.0
230
-0.0000000000000002
  0
LINE
  5
42DD
  8
0
  6
CONTINUOUS
 62
     3
 10
479.4227363144277092
 20
25.02174802078315
 30
-0.0000000000000056
 11
479.3442323800633176
 21
23.5238037186512798
 31
-0.0000000000000052
210
0.0000000000000002
220
1.0
230
-0.0000000000000002
  0
LINE
  5
42DE
  8
0
  6
CONTINUOUS
 62
     3
 10
479.3442323800633176
 20
23.5238037186512798
 30
-0.0000000000000052
 11
369.4949835570600953
 21
29.2807589053751016
 31
-0.0000000000000065
210
0.0000000000000002
220
1.0
230
-0.0000000000000002
  0
LINE
  5
42DF
  8
0
  6
CONTINUOUS
 62
     3
 10
19.9746463929593716
 20
47.5983435904054772
 30
-0.0000000000000106
 11
1.49999999999973
 21
48.5665587808999533
 31
-0.0000000000000108
210
0.0000000000000002
220
1.0
230
-0.0000000000000002
  0
LINE
  5
42E0
  8
0
  6
CONTINUOUS
 62
     3
 10
20.053150327323781
 20
49.0962878925373616
 30
-0.0000000000000109
 11
19.974646392959361
 21
47.5983435904054772
 31
-0.0000000000000106
210
0.0000000000000002
220
1.0
230
-0.0000000000000002
  0
LINE
  5
42E1
  8
0
  6
CONTINUOUS
 62
     3
 10
364.5803398176518044
 20
31.0403829887216602
 30
-0.0000000000000069
 11
369.5734874914247143
 21
30.7787032075069398
 31
-0.0000000000000068
210
0.0000000000000002
220
1.0
230
-0.0000000000000002
  0
LINE
  5
42E2
  8
0
  6
CONTINUOUS
 62
     3
 10
20.0531503273238201
 20
49.0962878925372976
 30
-0.0000000000000109
 11
25.0462980010967016
 21
48.8346081113225807
 31
-0.0000000000000108
210
0.0000000000000002
220
1.0
230
-0.0000000000000002
  0
LINE
  5
42E3
  8
0
  6
CONTINUOUS
 62
     3
 10
134.8955468240997959
 20
43.0776529245987518
 30
-0.0000000000000096
 11
139.8886944978727058
 21
42.8159731433840278
 31
-0.0000000000000095
210
0.0000000000000002
220
1.0
230
-0.0000000000000002
  0
LINE
  5
42E4
  8
0
  6
CONTINUOUS
 62
     3
 10
479.4227363144278229
 20
25.0217480207831109
 30
-0.0000000000000056
 11
484.4158839882006191
 21
24.7600682395684011
 31
-0.0000000000000055
210
0.0000000000000002
220
1.0
230
-0.0000000000000002
  0
LINE
  5
42E5
  8
0
  6
CONTINUOUS
 62
     3
 10
601.4999999999996589
 20
-81.5132848697200671
 30
0.0000000000000181
 11
1.4999999999997611
 21
-50.0686172998953012
 31
0.0000000000000111
210
0.0000000000000002
220
1.0
230
-0.0000000000000002
  0
LINE
  5
42E6
  8
0
  6
CONTINUOUS
 62
     3
 10
249.737943320875786
 20
37.0590179566602131
 30
-0.0000000000000082
 11
254.7310909946486959
 21
36.797338175445482
 31
-0.0000000000000082
210
0.0000000000000002
220
1.0
230
-0.0000000000000002
  0
LINE
  5
42E7
  8
0
  6
VERDECKT
 62
     1
 10
484.3373800538362275
 20
23.2621239374367192
 30
-0.0000000000000052
 11
479.3442323800633176
 21
23.5238037186514504
 31
-0.0000000000000052
210
0.0000000000000002
220
1.0
230
-0.0000000000000002
  0
LINE
  5
42E8
  8
0
  6
VERDECKT
 62
     1
 10
369.4949835570600953
 20
29.2807589053752508
 30
-0.0000000000000065
 11
364.5018358832874128
 21
29.5424386865899606
 31
-0.0000000000000066
210
0.0000000000000002
220
1.0
230
-0.0000000000000002
  0
LINE
  5
42E9
  8
0
  6
VERDECKT
 62
     1
 10
254.6525870602843042
 20
35.2993938733137682
 30
-0.0000000000000078
 11
249.6594393865113943
 21
35.5610736545284922
 31
-0.0000000000000079
210
0.0000000000000002
220
1.0
230
-0.0000000000000002
  0
LINE
  5
42EA
  8
0
  6
VERDECKT
 62
     1
 10
139.8101905635082005
 20
41.3180288412522927
 30
-0.0000000000000092
 11
134.8170428897352053
 21
41.5797086224670096
 31
-0.0000000000000092
210
0.0000000000000002
220
1.0
230
-0.0000000000000002
  0
LINE
  5
42EB
  8
0
  6
VERDECKT
 62
     1
 10
24.9677940667322282
 20
47.3366638091908101
 30
-0.0000000000000105
 11
19.9746463929593787
 21
47.5983435904055199
 31
-0.0000000000000106
210
0.0000000000000002
220
1.0
230
-0.0000000000000002
  0
LINE
  5
42EC
  8
0
  6
VERDECKT
 62
     1
 10
1.5000000000000131
 20
48.5665587808999817
 30
-0.0000000000000108
 11
0.0020556978681316
 21
48.6450627152643875
 31
-0.0000000000000108
210
0.0000000000000002
220
1.0
230
-0.0000000000000002
  0
LINE
  5
42ED
  8
0
  6
VERDECKT
 62
     1
 10
1.5000000000000131
 20
50.0686172998968573
 30
-0.0000000000000111
 11
0.0805596322325804
 21
50.1430070173962505
 31
-0.0000000000000111
210
0.0000000000000002
220
1.0
230
-0.0000000000000002
  0
LINE
  5
42EE
  8
0
  6
VERDECKT
 62
     1
 10
0.0020556978681578
 20
48.6450627152643875
 30
-0.0000000000000108
 11
0.0805596322325734
 21
50.1430070173962505
 31
-0.0000000000000111
210
0.0000000000000002
220
1.0
230
-0.0000000000000002
  0
LINE
  5
42EF
  8
0
  6
VERDECKT
 62
     1
 10
1.4999999999999849
 20
-48.9999999999998934
 30
0.0000000000000109
 11
-0.0000000000000142
 21
-48.9999999999998934
 31
0.0000000000000109
210
0.0000000000000002
220
1.0
230
-0.0000000000000002
  0
LINE
  5
42F0
  8
0
  6
VERDECKT
 62
     1
 10
1.4999999999999849
 20
-50.4999999999996305
 30
0.0000000000000112
 11
-0.0000000000000145
 21
-50.4999999999996305
 31
0.0000000000000112
210
0.0000000000000002
220
1.0
230
-0.0000000000000002
  0
LINE
  5
42F1
  8
0
  6
VERDECKT
 62
     1
 10
1.500000000000014
 20
50.4999999999995879
 30
-0.0000000000000112
 11
0.0000000000000141
 21
50.4999999999995879
 31
-0.0000000000000112
210
0.0000000000000002
220
1.0
230
-0.0000000000000002
  0
LINE
  5
42F2
  8
0
  6
VERDECKT
 62
     1
 10
1.500000000000014
 20
48.9999999999999574
 30
-0.0000000000000109
 11
0.0000000000000138
 21
48.9999999999999574
 31
-0.0000000000000109
210
0.0000000000000002
220
1.0
230
-0.0000000000000002
  0
LINE
  5
42F3
  8
0
  6
VERDECKT
 62
     1
 10
1.5
 20
2.749999999999992
 30
-0.0000000000000006
 11
0.0000000000000006
 21
2.749999999999992
 31
-0.0000000000000006
210
0.0000000000000002
220
1.0
230
-0.0000000000000002
  0
LINE
  5
42F4
  8
0
  6
VERDECKT
 62
     1
 10
1.4999999999999989
 20
-2.7500000000000089
 30
0.0000000000000006
 11
-0.0000000000000011
 21
-2.750000000000008
 31
0.0000000000000006
210
0.0000000000000002
220
1.0
230
-0.0000000000000002
  0
LINE
  5
42F5
  8
0
  6
VERDECKT
 62
     1
 10
1.5000000000000411
 20
146.5
 30
-0.0000000000000325
 11
0.0000000000000412
 21
146.5
 31
-0.0000000000000325
210
0.0000000000000002
220
1.0
230
-0.0000000000000002
  0
LINE
  5
42F6
  8
0
  6
VERDECKT
 62
     1
 10
1.5000000000000431
 20
153.5
 30
-0.0000000000000341
 11
0.0000000000000432
 21
153.5
 31
-0.0000000000000341
210
0.0000000000000002
220
1.0
230
-0.0000000000000002
  0
LINE
  5
42F7
  8
0
  6
VERDECKT
 62
     1
 10
1.499999999999956
 20
-153.5
 30
0.0000000000000341
 11
-0.0000000000000436
 21
-153.5
 31
0.0000000000000341
210
0.0000000000000002
220
1.0
230
-0.0000000000000002
  0
LINE
  5
42F8
  8
0
  6
VERDECKT
 62
     1
 10
1.499999999999958
 20
-146.5
 30
0.0000000000000325
 11
-0.0000000000000416
 21
-146.5
 31
0.0000000000000325
210
0.0000000000000002
220
1.0
230
-0.0000000000000002
  0
LINE
  5
42F9
  8
0
  6
VERDECKT
 62
     1
 10
1.499999999999839
 20
-48.5665587808983972
 30
0.0000000000000108
 11
0.5798743996096435
 21
-48.518337041520482
 31
0.0000000000000108
210
0.0000000000000002
220
1.0
230
-0.0000000000000002
  0
LINE
  5
42FA
  8
0
  6
VERDECKT
 62
     1
 10
0.5013704652451878
 20
-50.0162813436523308
 30
0.0000000000000111
 11
0.5798743996096039
 21
-48.5183370415204678
 31
0.0000000000000108
210
0.0000000000000002
220
1.0
230
-0.0000000000000002
  0
LINE
  5
42FB
  8
0
  6
VERDECKT
 62
     1
 10
1.499999999999815
 20
-50.068617299895287
 30
0.0000000000000111
 11
0.5013704652452271
 21
-50.0162813436523379
 31
0.0000000000000111
210
0.0000000000000002
220
1.0
230
-0.0000000000000002
  0
LINE
  5
42FC
  8
0
  6
VERDECKT
 62
     1
 10
0.0020556978679309
 20
-49.9901133655308669
 30
0.0000000000000111
 11
0.0805596322323468
 21
-48.492169063399011
 31
0.0000000000000108
210
0.0000000000000002
220
1.0
230
-0.0000000000000002
  0
LINE
  5
42FD
  8
0
  6
VERDECKT
 62
     1
 10
0.5798743996096368
 20
-48.518337041520482
 30
0.0000000000000108
 11
0.080559632232414
 21
-48.492169063399011
 31
0.0000000000000108
210
0.0000000000000002
220
1.0
230
-0.0000000000000002
  0
LINE
  5
42FE
  8
0
  6
VERDECKT
 62
     1
 10
0.501370465245187
 20
-50.0162813436523308
 30
0.0000000000000111
 11
0.0020556978679684
 21
-49.9901133655308669
 31
0.0000000000000111
210
0.0000000000000002
220
1.0
230
-0.0000000000000002
  0
LINE
  5
42FF
  8
0
  6
VERDECKT
 62
     1
 10
1.499999999999944
 20
2.500000000001521
 30
-0.0000000000000006
 11
-0.0000000000002834
 21
2.5000000000008091
 31
-0.0000000000000006
210
0.0000000000000002
220
1.0
230
-0.0000000000000002
  0
LINE
  5
4300
  8
0
  6
VERDECKT
 62
     1
 10
-0.0000000000002282
 20
-2.4999999999992082
 30
0.0000000000000006
 11
1.499999999999942
 21
-2.4999999999985092
 31
0.0000000000000006
210
0.0000000000000002
220
1.0
230
-0.0000000000000002
  0
LINE
  5
4301
  8
0
  6
VERDECKT
 62
     1
 10
1.499999999999815
 20
-48.5665587808984114
 30
0.0000000000000108
 11
600.0805596322321662
 21
-79.936836633223777
 31
0.0000000000000177
210
0.0000000000000002
220
1.0
230
-0.0000000000000002
  0
ENDBLK
  5
4303
  8
0
  0
ENDSEC
  0
SECTION
  2
ENTITIES
  0
INSERT
  5
D70
  8
ADSK_ASSOC_ENTITY_BACKUPS
  2
*S0
 10
0.0
 20
0.0
 30
0.0
  0
INSERT
  5
4191
  8
STEMPEL
  2
A$CCCEDC863
 10
0.0
 20
-900.0
 30
0.0
  0
INSERT
  5
42A6
  8
STEMPEL
  2
A$CFD5CFBCE
 10
0.0
 20
0.0
 30
0.0
  0
INSERT
  5
4304
  8
STEMPEL
  2
A$C2AE7F579
 10
-950.0000000000001137
 20
0.0
 30
0.0
  0
VIEWPORT
  5
D51
 67
     1
  8
0
 10
209.7202493551837961
 20
148.2597121477037945
 30
0.0
 40
558.8319832755776133
 41
298.5191815856778135
 68
     1
 69
     1
1001
ACAD
1000
MVIEW
1002
{
1070
    16
1010
0.0
1020
0.0
1030
0.0
1010
0.0
1020
0.0
1030
1.0
1040
0.0
1040
298.5191815856778135
1040
209.7202493551837961
1040
148.2597121477037945
1040
50.0
1040
0.0
1040
0.0
1070
     0
1070
  1500
1070
     1
1070
     1
1070
     0
1070
     0
1070
     0
1070
     0
1040
0.0
1040
0.0
1040
0.0
1040
10.0
1040
10.0
1040
10.0
1040
10.0
1070
     0
1002
{
1002
}
1002
}
  0
ENDSEC
  0
EOF
