  0
SECTION
  2
HEADER
  9
$ACADVER
  1
AC1009
  9
$INSBASE
 10
0.0
 20
0.0
 30
0.0
  9
$EXTMIN
 10
-146.0000004216076093
 20
-346.0000004824888151
 30
-0.0000001185988481
  9
$EXTMAX
 10
495.9999993443602193
 20
254.6889445159135903
 30
-0.0000001185988481
  9
$LIMMIN
 10
0.0
 20
0.0
  9
$LIMMAX
 10
419.9999999999998863
 20
594.0
  9
$ORTHOMODE
 70
     0
  9
$REGENMODE
 70
     1
  9
$FILLMODE
 70
     1
  9
$QTEXTMODE
 70
     0
  9
$MIRRTEXT
 70
     1
  9
$DRAGMODE
 70
     2
  9
$LTSCALE
 40
10.0
  9
$OSMODE
 70
   447
  9
$ATTMODE
 70
     1
  9
$TEXTSIZE
 40
3.5
  9
$TRACEWID
 40
0.5
  9
$TEXTSTYLE
  7
STANDARD
  9
$CLAYER
  8
STEMPEL
  9
$CELTYPE
  6
BYLAYER
  9
$CECOLOR
 62
   256
  9
$DIMSCALE
 40
1.0
  9
$DIMASZ
 40
3.5
  9
$DIMEXO
 40
1.0
  9
$DIMDLI
 40
0.38
  9
$DIMRND
 40
0.0
  9
$DIMDLE
 40
0.0
  9
$DIMEXE
 40
1.0
  9
$DIMTP
 40
0.0
  9
$DIMTM
 40
0.000000001
  9
$DIMTXT
 40
3.5
  9
$DIMCEN
 40
0.09
  9
$DIMTSZ
 40
0.0
  9
$DIMTOL
 70
     0
  9
$DIMLIM
 70
     0
  9
$DIMTIH
 70
     0
  9
$DIMTOH
 70
     0
  9
$DIMSE1
 70
     0
  9
$DIMSE2
 70
     0
  9
$DIMTAD
 70
     1
  9
$DIMZIN
 70
     8
  9
$DIMBLK
  1

  9
$DIMASO
 70
     1
  9
$DIMSHO
 70
     0
  9
$DIMPOST
  1

  9
$DIMAPOST
  1

  9
$DIMALT
 70
     0
  9
$DIMALTD
 70
     2
  9
$DIMALTF
 40
25.3999999999999986
  9
$DIMLFAC
 40
2.0
  9
$DIMTOFL
 70
     1
  9
$DIMTVP
 40
0.0
  9
$DIMTIX
 70
     0
  9
$DIMSOXD
 70
     0
  9
$DIMSAH
 70
     0
  9
$DIMBLK1
  1

  9
$DIMBLK2
  1

  9
$DIMSTYLE
  2
LORO
  9
$DIMCLRD
 70
     0
  9
$DIMCLRE
 70
     0
  9
$DIMCLRT
 70
     1
  9
$DIMTFAC
 40
0.5
  9
$DIMGAP
 40
1.5
  9
$LUNITS
 70
     2
  9
$LUPREC
 70
     2
  9
$SKETCHINC
 40
1.0
  9
$FILLETRAD
 40
13.1999999999999993
  9
$AUNITS
 70
     0
  9
$AUPREC
 70
     0
  9
$MENU
  1
ACAD
  9
$ELEVATION
 40
0.0
  9
$PELEVATION
 40
0.0
  9
$THICKNESS
 40
0.0
  9
$LIMCHECK
 70
     0
  9
$BLIPMODE
 70
     0
  9
$CHAMFERA
 40
0.0
  9
$CHAMFERB
 40
0.0
  9
$SKPOLY
 70
     0
  9
$TDCREATE
 40
2455397.8646990740671754
  9
$TDUPDATE
 40
2460991.4265740751288831
  9
$TDINDWG
 40
0.8759351157
  9
$TDUSRTIMER
 40
0.8759351157
  9
$USRTIMER
 70
     1
  9
$ANGBASE
 50
0.0
  9
$ANGDIR
 70
     0
  9
$PDMODE
 70
     0
  9
$PDSIZE
 40
0.0
  9
$PLINEWID
 40
0.0
  9
$COORDS
 70
     1
  9
$SPLFRAME
 70
     0
  9
$SPLINETYPE
 70
     6
  9
$SPLINESEGS
 70
     8
  9
$ATTDIA
 70
     1
  9
$ATTREQ
 70
     1
  9
$HANDLING
 70
     1
  9
$HANDSEED
  5
72CB
  9
$SURFTAB1
 70
     6
  9
$SURFTAB2
 70
     6
  9
$SURFTYPE
 70
     6
  9
$SURFU
 70
     6
  9
$SURFV
 70
     6
  9
$UCSNAME
  2

  9
$UCSORG
 10
0.0
 20
0.0
 30
0.0
  9
$UCSXDIR
 10
1.0
 20
0.0
 30
0.0
  9
$UCSYDIR
 10
0.0
 20
1.0
 30
0.0
  9
$PUCSNAME
  2

  9
$PUCSORG
 10
0.0
 20
0.0
 30
0.0
  9
$PUCSXDIR
 10
1.0
 20
0.0
 30
0.0
  9
$PUCSYDIR
 10
0.0
 20
1.0
 30
0.0
  9
$USERI1
 70
     0
  9
$USERI2
 70
     0
  9
$USERI3
 70
     0
  9
$USERI4
 70
     0
  9
$USERI5
 70
     0
  9
$USERR1
 40
0.0
  9
$USERR2
 40
0.0
  9
$USERR3
 40
0.0
  9
$USERR4
 40
0.0
  9
$USERR5
 40
0.0
  9
$WORLDVIEW
 70
     1
  9
$SHADEDGE
 70
     3
  9
$SHADEDIF
 70
    70
  9
$TILEMODE
 70
     1
  9
$MAXACTVP
 70
    16
  9
$PLIMCHECK
 70
     0
  9
$PEXTMIN
 10
1.0000000000000000E+20
 20
1.0000000000000000E+20
 30
1.0000000000000000E+20
  9
$PEXTMAX
 10
-1.0000000000000000E+20
 20
-1.0000000000000000E+20
 30
-1.0000000000000000E+20
  9
$PLIMMIN
 10
0.0
 20
0.0
  9
$PLIMMAX
 10
297.0
 20
420.0
  9
$UNITMODE
 70
     0
  9
$VISRETAIN
 70
     0
  9
$PLINEGEN
 70
     0
  9
$PSLTSCALE
 70
     1
  0
ENDSEC
  0
SECTION
  2
TABLES
  0
TABLE
  2
VPORT
 70
     1
  0
VPORT
  2
*ACTIVE
 70
     0
 10
0.0
 20
0.0
 11
1.0
 21
1.0
 12
174.9999994613764045
 22
-97.6832455736196152
 13
0.0
 23
0.0
 14
1.0
 24
1.0
 15
10.0
 25
10.0
 16
-0.0000000000002918
 26
0.0
 36
1314.0553172245599853
 17
0.0
 27
52.0277175903320312
 37
-0.0000000000000278
 40
604.0076684514322096
 41
1.96405529953917
 42
50.0
 43
0.0
 44
0.0
 50
0.0
 51
0.0
 71
     0
 72
  1500
 73
     1
 74
     3
 75
     0
 76
     0
 77
     0
 78
     0
  0
ENDTAB
  0
TABLE
  2
LTYPE
 70
     3
  0
LTYPE
  2
CONTINUOUS
 70
     0
  3
Solid line
 72
    65
 73
     0
 40
0.0
  0
LTYPE
  2
STRICHPUNKT
 70
     0
  3
__ . __ . __ . __ . __ . __ . __ . __ . __ . __
 72
    65
 73
     4
 40
1.0
 49
0.5
 49
-0.25
 49
0.0
 49
-0.25
  0
LTYPE
  2
VERDECKT
 70
     0
  3
Verdeckt __ __ __ __ __ __ __ __ __ __ __ __ __
 72
    65
 73
     2
 40
0.375
 49
0.25
 49
-0.125
  0
ENDTAB
  0
TABLE
  2
LAYER
 70
     8
  0
LAYER
  2
0
 70
     0
 62
     7
  6
CONTINUOUS
  0
LAYER
  2
VOLL
 70
     0
 62
     1
  6
CONTINUOUS
  0
LAYER
  2
STEMPEL
 70
     0
 62
     3
  6
CONTINUOUS
  0
LAYER
  2
TEXT
 70
     0
 62
     7
  6
CONTINUOUS
  0
LAYER
  2
DEFPOINTS
 70
     0
 62
     7
  6
CONTINUOUS
  0
LAYER
  2
ADSK_ASSOC_ENTITY_BACKUPS
 70
     1
 62
    -7
  6
CONTINUOUS
  0
ENDTAB
  0
TABLE
  2
STYLE
 70
     3
  0
STYLE
  2
STANDARD
 70
     0
 40
0.0
 41
0.8
 50
0.0
 71
     0
 42
3.5
  3
simplex.shx
  4

  0
STYLE
  2
GREEKS
 70
     0
 40
0.0
 41
0.8
 50
0.0
 71
     0
 42
2.5
  3
SIMPLEX.shx
  4

  0
ENDTAB
  0
TABLE
  2
VIEW
 70
     1
  0
ENDTAB
  0
TABLE
  2
UCS
 70
     0
  0
ENDTAB
  0
TABLE
  2
APPID
 70
    24
  0
APPID
  2
ACAD
 70
     0
  0
APPID
  2
ACAD_EXEMPT_FROM_CAD_STANDARDS
 70
     0
  0
APPID
  2
ACAD_NAV_VCDISPLAY
 70
     0
  0
APPID
  2
ACAECLAYERSTANDARD
 70
     0
  0
APPID
  2
ACCMTRANSPARENCY
 70
     0
  0
APPID
  2
ACAD_PSEXT
 70
     0
  0
APPID
  2
ACAD_MLEADERVER
 70
     0
  0
APPID
  2
ACAD_OBJECT_CHANGE_GUID
 70
     0
  0
APPID
  2
ACADANNOMONITORALERTICONDI
 70
     0
  0
APPID
  2
ACSYNERGY
 70
     0
  0
APPID
  2
SYNERGY_BODY_TBR_ID
 70
     0
  0
APPID
  2
ACAD_VIEW_EDGE_ID
 70
     0
  0
APPID
  2
ACAD_STEPID
 70
     0
  0
APPID
  2
ACAD_DSTYLE_DIMRADIAL_EXTENSION
 70
     0
  0
APPID
  2
ACAD_DSTYLE_DIMJAG
 70
     0
  0
APPID
  2
ACAD_DSTYLE_DIMTALN
 70
     0
  0
APPID
  2
ACSYNERGYSKETCH
 70
     0
  0
APPID
  2
ACAD_MODELDOC_XFORM
 70
     0
  0
APPID
  2
ACAD_DSTYLE_DIMBREAK
 70
     0
  0
APPID
  2
ACADANNOTATIVE
 70
     0
  0
APPID
  2
ACDBDYNAMICBLOCKGUID
 70
     0
  0
APPID
  2
ACADANNOPO
 70
     0
  0
APPID
  2
PLOTTRANSPARENCY
 70
     0
  0
APPID
  2
ACAD_TC
 70
     0
  0
ENDTAB
  0
TABLE
  2
DIMSTYLE
 70
     2
  0
DIMSTYLE
  2
STANDARD
 70
     0
  3

  4

  5

  6

  7

 40
1.0
 41
0.18
 42
0.0625
 43
0.38
 44
0.18
 45
0.0
 46
0.0
 47
0.0
 48
0.0
140
0.18
141
0.09
142
0.0
143
25.3999999999999986
144
1.0
145
0.0
146
1.0
147
0.09
 71
     0
 72
     0
 73
     1
 74
     1
 75
     0
 76
     0
 77
     0
 78
     0
170
     0
171
     2
172
     0
173
     0
174
     0
175
     0
176
     0
177
     0
178
     0
  0
DIMSTYLE
  2
LORO
 70
     0
  3

  4

  5

  6

  7

 40
1.0
 41
3.5
 42
1.0
 43
0.38
 44
1.0
 45
0.0
 46
0.0
 47
0.0
 48
0.000000001
140
3.5
141
0.09
142
0.0
143
25.3999999999999986
144
2.0
145
0.0
146
0.5
147
1.5
 71
     0
 72
     0
 73
     0
 74
     0
 75
     0
 76
     0
 77
     1
 78
     8
170
     0
171
     2
172
     1
173
     0
174
     0
175
     0
176
     0
177
     0
178
     1
  0
ENDTAB
  0
ENDSEC
  0
SECTION
  2
BLOCKS
  0
BLOCK
  8
0
  2
$MODEL_SPACE
 70
     0
 10
0.0
 20
0.0
 30
0.0
  3
$MODEL_SPACE
  1

  0
ENDBLK
  5
36
  8
0
  0
BLOCK
 67
     1
  8
0
  2
$PAPER_SPACE
 70
     0
 10
0.0
 20
0.0
 30
0.0
  3
$PAPER_SPACE
  1

  0
ENDBLK
  5
305B
 67
     1
  8
0
  0
BLOCK
  8
0
  2
*S0
 70
     1
 10
0.0
 20
0.0
 30
0.0
  3
*S0
  1

  0
ENDBLK
  5
1DDE
  8
0
  0
BLOCK
  8
0
  2
A$CCB44DE85
 70
     0
 10
0.0
 20
0.0
 30
0.0
  3
A$CCB44DE85
  1

  0
CIRCLE
  5
6FFF
  8
0
  6
CONTINUOUS
 62
     3
 10
-0.0000000000001137
 20
0.0
 30
0.0
 40
34.6921457176084687
  0
CIRCLE
  5
7000
  8
0
  6
CONTINUOUS
 62
     3
 10
-0.000000000000078
 20
-0.0000000000000142
 30
0.0
 40
35.2999999999999616
  0
CIRCLE
  5
7001
  8
0
  6
CONTINUOUS
 62
     3
 10
0.0000000000000555
 20
0.000000000000038
 30
0.0
 40
146.0
  0
CIRCLE
  5
7002
  8
0
  6
CONTINUOUS
 62
     3
 10
0.0000000000000493
 20
0.0000000000000363
 30
0.0
 40
37.7999999999999616
  0
CIRCLE
  5
7003
  8
0
  6
CONTINUOUS
 62
     3
 10
-0.0000000000000568
 20
50.9999999999999716
 30
0.0
 40
3.0
  0
CIRCLE
  5
7004
  8
0
  6
CONTINUOUS
 62
     3
 10
-0.0000000000000571
 20
50.9999999999999716
 30
0.0
 40
4.0
  0
CIRCLE
  5
7005
  8
0
  6
CONTINUOUS
 62
     3
 10
-50.9999999999999929
 20
0.0000000000000442
 30
0.0
 40
3.0
  0
CIRCLE
  5
7006
  8
0
  6
CONTINUOUS
 62
     3
 10
-50.9999999999999929
 20
0.0000000000000442
 30
0.0
 40
4.0
  0
CIRCLE
  5
7007
  8
0
  6
CONTINUOUS
 62
     3
 10
-0.0000000000000693
 20
-50.9999999999999005
 30
0.0
 40
3.0
  0
CIRCLE
  5
7008
  8
0
  6
CONTINUOUS
 62
     3
 10
-0.0000000000000695
 20
-50.9999999999999005
 30
0.0
 40
4.0
  0
CIRCLE
  5
7009
  8
0
  6
CONTINUOUS
 62
     3
 10
50.9999999999998792
 20
0.000000000000038
 30
0.0
 40
3.0
  0
CIRCLE
  5
700A
  8
0
  6
CONTINUOUS
 62
     3
 10
50.9999999999998792
 20
0.000000000000038
 30
0.0
 40
4.0
  0
CIRCLE
  5
700B
  8
0
  6
VERDECKT
 62
     1
 10
-0.0000000000001137
 20
0.0
 30
0.0
 40
35.8875793553185076
  0
CIRCLE
  5
700C
  8
0
  6
VERDECKT
 62
     1
 10
-0.000000000000078
 20
-0.0000000000000142
 30
0.0
 40
36.5
  0
CIRCLE
  5
700D
  8
0
  6
VERDECKT
 62
     1
 10
-0.0000000000000648
 20
0.0
 30
0.0
 40
40.6999999999995765
  0
CIRCLE
  5
700E
  8
0
  6
VERDECKT
 62
     1
 10
-0.0000000000000648
 20
0.0000000000000284
 30
0.0
 40
41.8999999999996291
  0
CIRCLE
  5
700F
  8
0
  6
VERDECKT
 62
     1
 10
-0.0000000000000712
 20
0.0000000000000284
 30
0.0
 40
38.1999999999995907
  0
CIRCLE
  5
7010
  8
0
  6
VERDECKT
 62
     1
 10
-0.0000000000000712
 20
0.0000000000000284
 30
0.0
 40
39.3999999999996433
  0
CIRCLE
  5
7011
  8
0
  6
VERDECKT
 62
     1
 10
-0.0000000000000683
 20
0.0000000000000426
 30
0.0
 40
40.7000862159353431
  0
CIRCLE
  5
7012
  8
0
  6
VERDECKT
 62
     1
 10
-0.0000000000000683
 20
0.0000000000000426
 30
0.0
 40
41.9000862159354028
  0
CIRCLE
  5
7013
  8
0
  6
VERDECKT
 62
     1
 10
-0.0000000000000978
 20
0.0
 30
0.0
 40
36.49623230528384
  0
CIRCLE
  5
7014
  8
0
  6
VERDECKT
 62
     1
 10
0.0000000000000144
 20
0.0000000000000185
 30
0.0
 40
42.5
  0
CIRCLE
  5
7015
  8
0
  6
VERDECKT
 62
     1
 10
-0.0000000000001934
 20
0.0000000000000239
 30
0.0
 40
47.5000000000002274
  0
CIRCLE
  5
7016
  8
0
  6
VERDECKT
 62
     1
 10
-0.0000000000002938
 20
0.0000000000000276
 30
0.0
 40
53.4999999999998792
  0
CIRCLE
  5
7017
  8
0
  6
VERDECKT
 62
     1
 10
-0.0000000000004052
 20
0.0000000000000282
 30
0.0
 40
64.9999999999997726
  0
CIRCLE
  5
7018
  8
0
  6
VERDECKT
 62
     1
 10
-0.0000000000004052
 20
0.0000000000000282
 30
0.0
 40
74.9999999999995453
  0
ENDBLK
  5
701A
  8
0
  0
BLOCK
  8
0
  2
A$C02D53643
 70
     0
 10
0.0
 20
0.0
 30
0.0
  3
A$C02D53643
  1

  0
LINE
  5
701E
  8
0
  6
CONTINUOUS
 62
     3
 10
-35.8875793553186213
 20
0.0
 30
0.0
 11
35.887579355318401
 21
0.0
 31
0.0
210
0.0
220
1.0
230
-0.0000000000000002
  0
ARC
  5
701F
  8
0
  6
CONTINUOUS
 62
     3
 10
35.49999999999946
 20
7.0436609429074153
 30
0.0
 40
1.0000000000006599
210
0.0
220
-0.0000000000000002
230
-1.0
 50
355.0000000000038085
 51
0.0000000000005216
  0
ARC
  5
7020
  8
0
  6
CONTINUOUS
 62
     3
 10
-35.49999999999919
 20
7.0436609429074153
 30
0.0
 40
1.0000000000006961
210
0.0
220
-0.0000000000000002
230
-1.0
 50
179.9999999999994884
 51
184.9999999999959925
  0
LINE
  5
7021
  8
0
  6
CONTINUOUS
 62
     3
 10
-35.8875793553185716
 20
0.000000000000004
 30
0.0
 11
-36.4961946980918697
 21
6.956505200159766
 31
-0.0000000000000015
210
0.0
220
1.0
230
-0.0000000000000002
  0
LINE
  5
7022
  8
0
  6
CONTINUOUS
 62
     3
 10
35.8875793553183371
 20
0.000000000000004
 30
0.0
 11
36.4961946980916281
 21
6.956505200159766
 31
-0.0000000000000015
210
0.0
220
1.0
230
-0.0000000000000002
  0
LINE
  5
7023
  8
0
  6
CONTINUOUS
 62
     3
 10
36.4999999999998934
 20
63.0000000000001705
 30
-0.000000000000014
 11
36.4999999999998934
 21
7.0436609429074242
 31
-0.0000000000000016
210
0.0
220
1.0
230
-0.0000000000000002
  0
LINE
  5
7024
  8
0
  6
CONTINUOUS
 62
     3
 10
-36.5000000000001066
 20
62.9999999999999716
 30
-0.000000000000014
 11
-36.5000000000001066
 21
7.0436609429074242
 31
-0.0000000000000016
210
0.0
220
1.0
230
-0.0000000000000002
  0
LINE
  5
7025
  8
0
  6
CONTINUOUS
 62
     3
 10
-146.0
 20
250.0000000000001137
 30
-0.0000000000000555
 11
146.0
 21
250.0000000000001137
 31
-0.0000000000000555
210
0.0
220
1.0
230
-0.0000000000000002
  0
LINE
  5
7026
  8
0
  6
CONTINUOUS
 62
     3
 10
-146.0
 20
248.0000000000001137
 30
-0.0000000000000551
 11
146.0
 21
248.0000000000001137
 31
-0.0000000000000551
210
0.0
220
1.0
230
-0.0000000000000002
  0
LINE
  5
7027
  8
0
  6
CONTINUOUS
 62
     3
 10
146.0
 20
250.0000000000001137
 30
-0.0000000000000555
 11
146.0
 21
248.0000000000001137
 31
-0.0000000000000551
210
0.0
220
1.0
230
-0.0000000000000002
  0
LINE
  5
7028
  8
0
  6
CONTINUOUS
 62
     3
 10
-146.0
 20
250.0000000000001137
 30
-0.0000000000000555
 11
-146.0
 21
248.0000000000001137
 31
-0.0000000000000551
210
0.0
220
1.0
230
-0.0000000000000002
  0
ARC
  5
7029
  8
0
  6
CONTINUOUS
 62
     3
 10
118.4999999999977973
 20
210.0000000000084128
 30
0.0
 40
37.9999999999914806
210
0.0
220
-0.0000000000000002
230
-1.0
 50
89.9999999999966889
 51
120.187454074824899
  0
ARC
  5
702A
  8
0
  6
CONTINUOUS
 62
     3
 10
-118.4999999999977973
 20
210.0000000000084981
 30
0.0
 40
37.9999999999913882
210
0.0
220
-0.0000000000000002
230
-1.0
 50
59.8125459251750726
 51
90.0000000000033253
  0
LINE
  5
702B
  8
0
  6
CONTINUOUS
 62
     3
 10
-65.2753327585625556
 20
223.0000000000001137
 30
-0.0000000000000495
 11
-99.3924339203990712
 21
242.8466272014902074
 31
-0.0000000000000539
210
0.0
220
1.0
230
-0.0000000000000002
  0
LINE
  5
702C
  8
0
  6
CONTINUOUS
 62
     3
 10
65.2753327585631666
 20
223.0000000000003979
 30
-0.0000000000000495
 11
99.3924339203990712
 21
242.8466272014902074
 31
-0.0000000000000539
210
0.0
220
1.0
230
-0.0000000000000002
  0
LINE
  5
702D
  8
0
  6
CONTINUOUS
 62
     3
 10
-62.1816463358975398
 20
63.0000000000000071
 30
-0.000000000000014
 11
62.1816463358975398
 21
63.0000000000002416
 31
-0.000000000000014
210
0.0
220
1.0
230
-0.0000000000000002
  0
LINE
  5
702E
  8
0
  6
CONTINUOUS
 62
     3
 10
-75.0
 20
223.0000000000001137
 30
-0.0000000000000495
 11
74.9999999999990905
 21
223.0000000000003979
 31
-0.0000000000000495
210
0.0
220
1.0
230
-0.0000000000000002
  0
LINE
  5
702F
  8
0
  6
CONTINUOUS
 62
     3
 10
-65.1758040713461924
 20
65.8128651415343739
 30
-0.0000000000000146
 11
-75.0
 21
223.0
 31
-0.0000000000000495
210
0.0
220
1.0
230
-0.0000000000000002
  0
LINE
  5
7030
  8
0
  6
CONTINUOUS
 62
     3
 10
65.1758040713461639
 20
65.8128651415347008
 30
-0.0000000000000146
 11
74.9999999999991331
 21
223.0000000000005116
 31
-0.0000000000000495
210
0.0
220
1.0
230
-0.0000000000000002
  0
ARC
  5
7031
  8
0
  6
CONTINUOUS
 62
     3
 10
62.1816463358975327
 20
65.9999999999999716
 30
0.0
 40
3.0000000000000142
210
0.0
220
-0.0000000000000002
230
-1.0
 50
270.0000000000001137
 51
356.4236656250014903
  0
ARC
  5
7032
  8
0
  6
CONTINUOUS
 62
     3
 10
-62.1816463358975327
 20
66.0000000000003126
 30
0.0
 40
3.0000000000000111
210
0.0
220
-0.0000000000000002
230
-1.0
 50
183.5763343749983108
 51
269.9999999999997726
  0
LINE
  5
7033
  8
0
  6
VERDECKT
 62
     1
 10
-34.6921457176085823
 20
0.104586891297231
 30
0.0
 11
34.6921457176083621
 21
0.104586891297231
 31
0.0
210
0.0
220
1.0
230
-0.0000000000000002
  0
ARC
  5
7034
  8
0
  6
VERDECKT
 62
     1
 10
34.2999999999994074
 20
7.0960540743962994
 30
0.0
 40
1.0000000000006599
210
0.0
220
-0.0000000000000002
230
-1.0
 50
355.0000000000038085
 51
0.0000000000005216
  0
ARC
  5
7035
  8
0
  6
VERDECKT
 62
     1
 10
-34.2999999999991374
 20
7.0960540743962994
 30
0.0
 40
1.0000000000006961
210
0.0
220
-0.0000000000000002
230
-1.0
 50
179.9999999999994884
 51
184.9999999999959925
  0
LINE
  5
7036
  8
0
  6
VERDECKT
 62
     1
 10
-34.6921457176085326
 20
0.1045868912972363
 30
0.0
 11
-35.29619469809181
 21
7.0088983316486502
 31
-0.0000000000000016
210
0.0
220
1.0
230
-0.0000000000000002
  0
LINE
  5
7037
  8
0
  6
VERDECKT
 62
     1
 10
34.6921457176082981
 20
0.1045868912972363
 30
0.0
 11
35.2961946980915826
 21
7.0088983316486502
 31
-0.0000000000000016
210
0.0
220
1.0
230
-0.0000000000000002
  0
LINE
  5
7038
  8
0
  6
VERDECKT
 62
     1
 10
35.2999999999998408
 20
160.5069422202888916
 30
-0.0000000000000356
 11
35.2999999999998408
 21
7.0960540743963083
 31
-0.0000000000000016
210
0.0
220
1.0
230
-0.0000000000000002
  0
LINE
  5
7039
  8
0
  6
VERDECKT
 62
     1
 10
-35.3000000000000682
 20
160.5069422202888916
 30
-0.0000000000000356
 11
-35.3000000000000682
 21
7.0960540743963083
 31
-0.0000000000000016
210
0.0
220
1.0
230
-0.0000000000000002
  0
LINE
  5
703A
  8
0
  6
VERDECKT
 62
     1
 10
36.4999999999998934
 20
160.5069422202888916
 30
-0.0000000000000356
 11
36.4999999999998934
 21
63.0000000000001705
 31
-0.000000000000014
210
0.0
220
1.0
230
-0.0000000000000002
  0
LINE
  5
703B
  8
0
  6
VERDECKT
 62
     1
 10
-36.5000000000001066
 20
160.5069422202888916
 30
-0.0000000000000356
 11
-36.5000000000001066
 21
62.9999999999999716
 31
-0.000000000000014
210
0.0
220
1.0
230
-0.0000000000000002
  0
LINE
  5
703C
  8
0
  6
VERDECKT
 62
     1
 10
-40.6999999999996973
 20
204.6376752632727118
 30
-0.0000000000000454
 11
-40.6999999999996973
 21
220.0000000000001137
 31
-0.0000000000000488
210
0.0
220
1.0
230
-0.0000000000000002
  0
LINE
  5
703D
  8
0
  6
VERDECKT
 62
     1
 10
40.6999999999994699
 20
204.6376752632727118
 30
-0.0000000000000454
 11
40.6999999999994699
 21
220.0000000000001137
 31
-0.0000000000000488
210
0.0
220
1.0
230
-0.0000000000000002
  0
ARC
  5
703E
  8
0
  6
VERDECKT
 62
     1
 10
-16.994190985066691
 20
204.5737405743471982
 30
0.0
 40
23.7058952308685384
210
0.0
220
-0.0000000000000002
230
-1.0
 50
179.8454733624222115
 51
201.0124127937330911
  0
ARC
  5
703F
  8
0
  6
VERDECKT
 62
     1
 10
16.9941909850670605
 20
204.5737405743471982
 30
0.0
 40
23.7058952308683892
210
0.0
220
-0.0000000000000002
230
-1.0
 50
338.9875872062669941
 51
0.1545266375778072
  0
ARC
  5
7040
  8
0
  6
VERDECKT
 62
     1
 10
-51.8999999999705679
 20
191.1281710573175019
 30
0.0
 40
13.6999999999710909
210
0.0
220
-0.0000000000000002
230
-1.0
 50
359.9999999999831175
 51
21.1600167708493103
  0
ARC
  5
7041
  8
0
  6
VERDECKT
 62
     1
 10
51.8999999999714774
 20
191.1281710573173882
 30
0.0
 40
13.6999999999717694
210
0.0
220
-0.0000000000000002
230
-1.0
 50
158.8399832291509028
 51
180.0000000000162004
  0
LINE
  5
7042
  8
0
  6
VERDECKT
 62
     1
 10
-38.1999999999996973
 20
170.8515060100291123
 30
-0.0000000000000379
 11
-38.1999999999996973
 21
191.1281710573134944
 31
-0.0000000000000424
210
0.0
220
1.0
230
-0.0000000000000002
  0
LINE
  5
7043
  8
0
  6
VERDECKT
 62
     1
 10
38.199999999999477
 20
170.8515060100291123
 30
-0.0000000000000379
 11
38.199999999999477
 21
191.1281710573134944
 31
-0.0000000000000424
210
0.0
220
1.0
230
-0.0000000000000002
  0
ARC
  5
7044
  8
0
  6
VERDECKT
 62
     1
 10
-27.4999999999946994
 20
170.8515060100311871
 30
0.0
 40
10.7000000000047599
210
0.0
220
-0.0000000000000002
230
-1.0
 50
180.0000000000111982
 51
211.3206695884101123
  0
ARC
  5
7045
  8
0
  6
VERDECKT
 62
     1
 10
27.4999999999949303
 20
170.8515060100311871
 30
0.0
 40
10.7000000000047599
210
0.0
220
-0.0000000000000002
230
-1.0
 50
328.679330411589774
 51
359.9999999999888018
  0
ARC
  5
7046
  8
0
  6
VERDECKT
 62
     1
 10
-44.4999999999829399
 20
160.5069422202952865
 30
0.0
 40
9.1999999999831061
210
0.0
220
-0.0000000000000002
230
-1.0
 50
0.0
 51
31.3206695884721107
  0
ARC
  5
7047
  8
0
  6
VERDECKT
 62
     1
 10
44.4999999999829186
 20
160.5069422202952865
 30
0.0
 40
9.1999999999828521
210
0.0
220
-0.0000000000000002
230
-1.0
 50
148.6793304115668093
 51
180.0000000000397051
  0
ARC
  5
7048
  8
0
  6
VERDECKT
 62
     1
 10
-44.4999999999828688
 20
160.5069422202952865
 30
0.0
 40
7.9999999999829887
210
0.0
220
-0.0000000000000002
230
-1.0
 50
359.9999999999545821
 51
31.3206695884371591
  0
ARC
  5
7049
  8
0
  6
VERDECKT
 62
     1
 10
44.4999999999831033
 20
160.5069422202952865
 30
0.0
 40
7.9999999999829958
210
0.0
220
-0.0000000000000002
230
-1.0
 50
148.6793304115628018
 51
180.0000000000453042
  0
ARC
  5
704A
  8
0
  6
VERDECKT
 62
     1
 10
-27.4999999999918785
 20
170.8515060100320966
 30
0.0
 40
11.9000000000076405
210
0.0
220
-0.0000000000000002
230
-1.0
 50
180.0000000000144098
 51
211.3206695884061901
  0
ARC
  5
704B
  8
0
  6
VERDECKT
 62
     1
 10
27.4999999999921094
 20
170.8515060100320966
 30
0.0
 40
11.9000000000076405
210
0.0
220
-0.0000000000000002
230
-1.0
 50
328.6793304115938099
 51
359.9999999999855049
  0
LINE
  5
704C
  8
0
  6
VERDECKT
 62
     1
 10
-39.3999999999997499
 20
170.8515060100291123
 30
-0.0000000000000379
 11
-39.3999999999997499
 21
191.128171057314006
 31
-0.0000000000000424
210
0.0
220
1.0
230
-0.0000000000000002
  0
LINE
  5
704D
  8
0
  6
VERDECKT
 62
     1
 10
39.3999999999995225
 20
170.8515060100291123
 30
-0.0000000000000379
 11
39.3999999999995225
 21
191.128171057314006
 31
-0.0000000000000424
210
0.0
220
1.0
230
-0.0000000000000002
  0
ARC
  5
704E
  8
0
  6
VERDECKT
 62
     1
 10
-51.8999999999660417
 20
191.1281710573207135
 30
0.0
 40
12.4999999999665192
210
0.0
220
-0.0000000000000002
230
-1.0
 50
0.0
 51
21.1668520398420803
  0
ARC
  5
704F
  8
0
  6
VERDECKT
 62
     1
 10
51.8999999999662691
 20
191.1281710573207135
 30
0.0
 40
12.4999999999665192
210
0.0
220
-0.0000000000000002
230
-1.0
 50
158.8331479601885121
 51
180.0000000000306102
  0
ARC
  5
7050
  8
0
  6
VERDECKT
 62
     1
 10
-16.9941909850609107
 20
204.5737405743483066
 30
0.0
 40
24.9058952308743784
210
0.0
220
-0.0000000000000002
230
-1.0
 50
179.8492419712250978
 51
201.0160940109917078
  0
ARC
  5
7051
  8
0
  6
VERDECKT
 62
     1
 10
16.9941909850611417
 20
204.5737405743483066
 30
0.0
 40
24.9058952308743784
210
0.0
220
-0.0000000000000002
230
-1.0
 50
338.9839059890081785
 51
0.1507580287747803
  0
LINE
  5
7052
  8
0
  6
VERDECKT
 62
     1
 10
-41.8999999999997499
 20
204.6392734874040968
 30
-0.0000000000000454
 11
-41.8999999999997499
 21
220.0000000000001137
 31
-0.0000000000000488
210
0.0
220
1.0
230
-0.0000000000000002
  0
LINE
  5
7053
  8
0
  6
VERDECKT
 62
     1
 10
41.8999999999995225
 20
204.6392734874040968
 30
-0.0000000000000454
 11
41.8999999999995225
 21
220.0000000000001137
 31
-0.0000000000000488
210
0.0
220
1.0
230
-0.0000000000000002
  0
LINE
  5
7054
  8
0
  6
VERDECKT
 62
     1
 10
34.6921457176083621
 20
0.104586891297231
 30
0.0
 11
35.887579355318401
 21
0.0
 31
0.0
210
0.0
220
1.0
230
-0.0000000000000002
  0
LINE
  5
7055
  8
0
  6
VERDECKT
 62
     1
 10
-34.6921457176085823
 20
0.104586891297231
 30
0.0
 11
-35.8875793553186213
 21
0.0
 31
0.0
210
0.0
220
1.0
230
-0.0000000000000002
  0
LINE
  5
7056
  8
0
  6
VERDECKT
 62
     1
 10
-58.5
 20
220.0000000000001137
 30
-0.0000000000000488
 11
58.5
 21
220.0000000000001137
 31
-0.0000000000000488
210
0.0
220
1.0
230
-0.0000000000000002
  0
LINE
  5
7057
  8
0
  6
VERDECKT
 62
     1
 10
-58.5
 20
221.9999999999998863
 30
-0.0000000000000493
 11
58.5
 21
221.9999999999998863
 31
-0.0000000000000493
210
0.0
220
1.0
230
-0.0000000000000002
  0
LINE
  5
7058
  8
0
  6
VERDECKT
 62
     1
 10
-61.5169841178315977
 20
220.8136904418699942
 30
-0.000000000000049
 11
-65.2753327585625556
 21
223.0000000000001137
 31
-0.0000000000000495
210
0.0
220
1.0
230
-0.0000000000000002
  0
LINE
  5
7059
  8
0
  6
VERDECKT
 62
     1
 10
61.5169841178315977
 20
220.8136904418699942
 30
-0.000000000000049
 11
65.2753327585631666
 21
223.0000000000003979
 31
-0.0000000000000495
210
0.0
220
1.0
230
-0.0000000000000002
  0
ARC
  5
705A
  8
0
  6
VERDECKT
 62
     1
 10
58.4999999999999005
 20
226.0000000000005116
 30
0.0
 40
6.0000000000003411
210
0.0
220
-0.0000000000000002
230
-1.0
 50
270.0
 51
300.1874540748194136
  0
ARC
  5
705B
  8
0
  6
VERDECKT
 62
     1
 10
-58.4999999999999005
 20
226.0000000000005116
 30
0.0
 40
6.0000000000003419
210
0.0
220
-0.0000000000000002
230
-1.0
 50
239.8125459251808991
 51
270.0000000000002274
  0
LINE
  5
705C
  8
0
  6
VERDECKT
 62
     1
 10
37.7999999999999616
 20
222.0
 30
-0.0000000000000493
 11
37.7999999999999616
 21
220.0
 31
-0.0000000000000488
210
0.0
220
1.0
230
-0.0000000000000002
  0
LINE
  5
705D
  8
0
  6
VERDECKT
 62
     1
 10
-37.7999999999999616
 20
222.0
 30
-0.0000000000000493
 11
-37.7999999999999616
 21
220.0
 31
-0.0000000000000488
210
0.0
220
1.0
230
-0.0000000000000002
  0
ARC
  5
705E
  8
0
  6
VERDECKT
 62
     1
 10
58.4999999999996732
 20
226.0000000000005116
 30
0.0
 40
4.00000000000054
210
0.0
220
-0.0000000000000002
230
-1.0
 50
270.0
 51
300.1874540748210052
  0
ARC
  5
705F
  8
0
  6
VERDECKT
 62
     1
 10
-58.4999999999996732
 20
226.0000000000005116
 30
0.0
 40
4.0000000000005391
210
0.0
220
-0.0000000000000002
230
-1.0
 50
239.8125459251758969
 51
269.9999999999968736
  0
LINE
  5
7060
  8
0
  6
VERDECKT
 62
     1
 10
-60.5113227452212428
 20
222.5424602945801951
 30
-0.0000000000000494
 11
-98.3867725477864354
 21
244.5753970541991009
 31
-0.0000000000000543
210
0.0
220
1.0
230
-0.0000000000000002
  0
LINE
  5
7061
  8
0
  6
VERDECKT
 62
     1
 10
60.5113227452212428
 20
222.5424602945801951
 30
-0.0000000000000494
 11
98.3867725477864354
 21
244.5753970541991009
 31
-0.0000000000000543
210
0.0
220
1.0
230
-0.0000000000000002
  0
ARC
  5
7062
  8
0
  6
VERDECKT
 62
     1
 10
118.4999999999999005
 20
209.9999999999994884
 30
0.0
 40
40.0000000000004192
210
0.0
220
-0.0000000000000002
230
-1.0
 50
90.0000000000004405
 51
120.1874540748242026
  0
ARC
  5
7063
  8
0
  6
VERDECKT
 62
     1
 10
-118.4999999999999005
 20
209.9999999999994884
 30
0.0
 40
40.0000000000004192
210
0.0
220
-0.0000000000000002
230
-1.0
 50
59.8125459251757832
 51
89.9999999999995737
  0
LINE
  5
7064
  8
0
  6
VERDECKT
 62
     1
 10
-36.496232305283911
 20
71.4113290991517857
 30
-0.0000000000000159
 11
36.4962323052836766
 21
71.4113290991517857
 31
-0.0000000000000159
210
0.0
220
1.0
230
-0.0000000000000002
  0
LINE
  5
7065
  8
0
  6
VERDECKT
 62
     1
 10
-42.5
 20
64.9999999999996163
 30
-0.0000000000000144
 11
42.5
 21
64.9999999999998437
 31
-0.0000000000000144
210
0.0
220
1.0
230
-0.0000000000000002
  0
LINE
  5
7066
  8
0
  6
VERDECKT
 62
     1
 10
-47.5
 20
86.9999999999980247
 30
-0.0000000000000193
 11
47.5
 21
86.9999999999982521
 31
-0.0000000000000193
210
0.0
220
1.0
230
-0.0000000000000002
  0
LINE
  5
7067
  8
0
  6
VERDECKT
 62
     1
 10
-47.5000000000004476
 20
152.9999999999998863
 30
-0.000000000000034
 11
47.5
 21
153.0000000000001137
 31
-0.000000000000034
210
0.0
220
1.0
230
-0.0000000000000002
  0
LINE
  5
7068
  8
0
  6
VERDECKT
 62
     1
 10
-53.5000000000002203
 20
158.999999999999801
 30
-0.0000000000000353
 11
53.4999999999997584
 21
159.0
 31
-0.0000000000000353
210
0.0
220
1.0
230
-0.0000000000000002
  0
LINE
  5
7069
  8
0
  6
VERDECKT
 62
     1
 10
-53.5000000000002203
 20
213.0000000000001137
 30
-0.0000000000000473
 11
53.4999999999995524
 21
213.0000000000003126
 31
-0.0000000000000473
210
0.0
220
1.0
230
-0.0000000000000002
  0
LINE
  5
706A
  8
0
  6
VERDECKT
 62
     1
 10
-36.4962323052839466
 20
64.99999999999946
 30
-0.0000000000000144
 11
-36.4962323052839466
 21
71.4113290991517857
 31
-0.0000000000000159
210
0.0
220
1.0
230
-0.0000000000000002
  0
LINE
  5
706B
  8
0
  6
VERDECKT
 62
     1
 10
36.4962323052837334
 20
64.9999999999997868
 30
-0.0000000000000144
 11
36.4962323052837334
 21
71.4113290991516152
 31
-0.0000000000000159
210
0.0
220
1.0
230
-0.0000000000000002
  0
LINE
  5
706C
  8
0
  6
VERDECKT
 62
     1
 10
42.5
 20
64.9999999999998437
 30
-0.0000000000000144
 11
42.5
 21
62.9999999999999005
 31
-0.000000000000014
210
0.0
220
1.0
230
-0.0000000000000002
  0
LINE
  5
706D
  8
0
  6
VERDECKT
 62
     1
 10
-42.5
 20
64.9999999999996163
 30
-0.0000000000000144
 11
-42.5
 21
62.9999999999996732
 31
-0.000000000000014
210
0.0
220
1.0
230
-0.0000000000000002
  0
LINE
  5
706E
  8
0
  6
VERDECKT
 62
     1
 10
-36.496232305283911
 20
71.4113290991518141
 30
-0.0000000000000159
 11
-47.5000000000000071
 21
86.9999999999980247
 31
-0.0000000000000193
210
0.0
220
1.0
230
-0.0000000000000002
  0
LINE
  5
706F
  8
0
  6
VERDECKT
 62
     1
 10
36.4962323052836695
 20
71.4113290991516294
 30
-0.0000000000000159
 11
47.4999999999999716
 21
86.9999999999982805
 31
-0.0000000000000193
210
0.0
220
1.0
230
-0.0000000000000002
  0
LINE
  5
7070
  8
0
  6
VERDECKT
 62
     1
 10
47.4999999999999218
 20
153.0000000000001137
 30
-0.000000000000034
 11
47.5000000000000782
 21
86.9999999999982663
 31
-0.0000000000000193
210
0.0
220
1.0
230
-0.0000000000000002
  0
LINE
  5
7071
  8
0
  6
VERDECKT
 62
     1
 10
-47.5000000000003126
 20
152.9999999999998863
 30
-0.000000000000034
 11
-47.5000000000001421
 21
86.9999999999980247
 31
-0.0000000000000193
210
0.0
220
1.0
230
-0.0000000000000002
  0
LINE
  5
7072
  8
0
  6
VERDECKT
 62
     1
 10
-47.5000000000004832
 20
152.9999999999998863
 30
-0.000000000000034
 11
-53.5000000000002629
 21
158.9999999999996874
 31
-0.0000000000000353
210
0.0
220
1.0
230
-0.0000000000000002
  0
LINE
  5
7073
  8
0
  6
VERDECKT
 62
     1
 10
47.5000000000000071
 20
153.0000000000001137
 30
-0.000000000000034
 11
53.499999999999801
 21
159.0
 31
-0.0000000000000353
210
0.0
220
1.0
230
-0.0000000000000002
  0
LINE
  5
7074
  8
0
  6
VERDECKT
 62
     1
 10
53.4999999999994813
 20
213.0000000000003126
 30
-0.0000000000000473
 11
53.4999999999996234
 21
159.0
 31
-0.0000000000000353
210
0.0
220
1.0
230
-0.0000000000000002
  0
LINE
  5
7075
  8
0
  6
VERDECKT
 62
     1
 10
-53.5000000000002913
 20
213.0000000000001137
 30
-0.0000000000000473
 11
-53.5000000000001492
 21
158.9999999999996874
 31
-0.0000000000000353
210
0.0
220
1.0
230
-0.0000000000000002
  0
LINE
  5
7076
  8
0
  6
VERDECKT
 62
     1
 10
-53.5000000000002203
 20
213.0000000000001137
 30
-0.0000000000000473
 11
-65.0000000000002274
 21
223.0
 31
-0.0000000000000495
210
0.0
220
1.0
230
-0.0000000000000002
  0
LINE
  5
7077
  8
0
  6
VERDECKT
 62
     1
 10
53.4999999999994316
 20
213.0000000000005116
 30
-0.0000000000000473
 11
64.9999999999992752
 21
223.0000000000003979
 31
-0.0000000000000495
210
0.0
220
1.0
230
-0.0000000000000002
  0
LINE
  5
7078
  8
0
  6
VERDECKT
 62
     1
 10
-55.0000000000000497
 20
235.000000000000199
 30
-0.0000000000000522
 11
-47.0000000000000497
 21
235.000000000000199
 31
-0.0000000000000522
210
0.0
220
1.0
230
-0.0000000000000002
  0
LINE
  5
7079
  8
0
  6
VERDECKT
 62
     1
 10
-54.0000000000000497
 20
234.000000000000199
 30
-0.000000000000052
 11
-48.0000000000000497
 21
234.000000000000199
 31
-0.000000000000052
210
0.0
220
1.0
230
-0.0000000000000002
  0
LINE
  5
707A
  8
0
  6
VERDECKT
 62
     1
 10
-55.0000000000000497
 20
233.000000000000199
 30
-0.0000000000000517
 11
-47.0000000000000497
 21
233.000000000000199
 31
-0.0000000000000517
210
0.0
220
1.0
230
-0.0000000000000002
  0
LINE
  5
707B
  8
0
  6
VERDECKT
 62
     1
 10
-54.0000000000000497
 20
232.000000000000199
 30
-0.0000000000000515
 11
-48.0000000000000497
 21
232.000000000000199
 31
-0.0000000000000515
210
0.0
220
1.0
230
-0.0000000000000002
  0
LINE
  5
707C
  8
0
  6
VERDECKT
 62
     1
 10
-55.0000000000000497
 20
231.000000000000199
 30
-0.0000000000000513
 11
-47.0000000000000497
 21
231.000000000000199
 31
-0.0000000000000513
210
0.0
220
1.0
230
-0.0000000000000002
  0
LINE
  5
707D
  8
0
  6
VERDECKT
 62
     1
 10
-54.0000000000000497
 20
230.000000000000199
 30
-0.0000000000000511
 11
-48.0000000000000497
 21
230.000000000000199
 31
-0.0000000000000511
210
0.0
220
1.0
230
-0.0000000000000002
  0
LINE
  5
707E
  8
0
  6
VERDECKT
 62
     1
 10
-55.0000000000000497
 20
229.000000000000199
 30
-0.0000000000000508
 11
-47.0000000000000497
 21
229.000000000000199
 31
-0.0000000000000508
210
0.0
220
1.0
230
-0.0000000000000002
  0
LINE
  5
707F
  8
0
  6
VERDECKT
 62
     1
 10
-54.0000000000000497
 20
228.000000000000199
 30
-0.0000000000000506
 11
-48.0000000000000497
 21
228.000000000000199
 31
-0.0000000000000506
210
0.0
220
1.0
230
-0.0000000000000002
  0
LINE
  5
7080
  8
0
  6
VERDECKT
 62
     1
 10
-55.0000000000000497
 20
227.000000000000199
 30
-0.0000000000000504
 11
-47.0000000000000497
 21
227.000000000000199
 31
-0.0000000000000504
210
0.0
220
1.0
230
-0.0000000000000002
  0
LINE
  5
7081
  8
0
  6
VERDECKT
 62
     1
 10
-54.0000000000000497
 20
226.000000000000199
 30
-0.0000000000000502
 11
-48.0000000000000497
 21
226.000000000000199
 31
-0.0000000000000502
210
0.0
220
1.0
230
-0.0000000000000002
  0
LINE
  5
7082
  8
0
  6
VERDECKT
 62
     1
 10
-55.0000000000000497
 20
225.000000000000199
 30
-0.00000000000005
 11
-47.0000000000000497
 21
225.000000000000199
 31
-0.00000000000005
210
0.0
220
1.0
230
-0.0000000000000002
  0
LINE
  5
7083
  8
0
  6
VERDECKT
 62
     1
 10
-54.0000000000000497
 20
224.000000000000199
 30
-0.0000000000000497
 11
-48.0000000000000497
 21
224.000000000000199
 31
-0.0000000000000497
210
0.0
220
1.0
230
-0.0000000000000002
  0
LINE
  5
7084
  8
0
  6
VERDECKT
 62
     1
 10
-54.0000000000000497
 20
242.000000000000199
 30
-0.0000000000000537
 11
-48.0000000000000497
 21
242.000000000000199
 31
-0.0000000000000537
210
0.0
220
1.0
230
-0.0000000000000002
  0
LINE
  5
7085
  8
0
  6
VERDECKT
 62
     1
 10
-55.0000000000000497
 20
241.000000000000199
 30
-0.0000000000000535
 11
-47.0000000000000497
 21
241.000000000000199
 31
-0.0000000000000535
210
0.0
220
1.0
230
-0.0000000000000002
  0
LINE
  5
7086
  8
0
  6
VERDECKT
 62
     1
 10
-54.0000000000000497
 20
240.000000000000199
 30
-0.0000000000000533
 11
-48.0000000000000497
 21
240.000000000000199
 31
-0.0000000000000533
210
0.0
220
1.0
230
-0.0000000000000002
  0
LINE
  5
7087
  8
0
  6
VERDECKT
 62
     1
 10
-55.0000000000000497
 20
239.000000000000199
 30
-0.0000000000000531
 11
-47.0000000000000497
 21
239.000000000000199
 31
-0.0000000000000531
210
0.0
220
1.0
230
-0.0000000000000002
  0
LINE
  5
7088
  8
0
  6
VERDECKT
 62
     1
 10
-54.0000000000000497
 20
238.000000000000199
 30
-0.0000000000000528
 11
-48.0000000000000497
 21
238.000000000000199
 31
-0.0000000000000528
210
0.0
220
1.0
230
-0.0000000000000002
  0
LINE
  5
7089
  8
0
  6
VERDECKT
 62
     1
 10
-55.0000000000000497
 20
237.000000000000199
 30
-0.0000000000000526
 11
-47.0000000000000497
 21
237.000000000000199
 31
-0.0000000000000526
210
0.0
220
1.0
230
-0.0000000000000002
  0
LINE
  5
708A
  8
0
  6
VERDECKT
 62
     1
 10
-54.0000000000000497
 20
236.000000000000199
 30
-0.0000000000000524
 11
-48.0000000000000497
 21
236.000000000000199
 31
-0.0000000000000524
210
0.0
220
1.0
230
-0.0000000000000002
  0
LINE
  5
708B
  8
0
  6
VERDECKT
 62
     1
 10
-54.0000000000000497
 20
234.000000000000199
 30
-0.000000000000052
 11
-55.0000000000000497
 21
235.000000000000199
 31
-0.0000000000000522
210
0.0
220
1.0
230
-0.0000000000000002
  0
LINE
  5
708C
  8
0
  6
VERDECKT
 62
     1
 10
-48.0000000000000497
 20
234.000000000000199
 30
-0.000000000000052
 11
-47.0000000000000497
 21
235.000000000000199
 31
-0.0000000000000522
210
0.0
220
1.0
230
-0.0000000000000002
  0
LINE
  5
708D
  8
0
  6
VERDECKT
 62
     1
 10
-48.0000000000000497
 20
234.000000000000199
 30
-0.000000000000052
 11
-47.0000000000000497
 21
233.000000000000199
 31
-0.0000000000000517
210
0.0
220
1.0
230
-0.0000000000000002
  0
LINE
  5
708E
  8
0
  6
VERDECKT
 62
     1
 10
-54.0000000000000497
 20
234.000000000000199
 30
-0.000000000000052
 11
-55.0000000000000497
 21
233.000000000000199
 31
-0.0000000000000517
210
0.0
220
1.0
230
-0.0000000000000002
  0
LINE
  5
708F
  8
0
  6
VERDECKT
 62
     1
 10
-54.0000000000000497
 20
232.000000000000199
 30
-0.0000000000000515
 11
-55.0000000000000497
 21
233.000000000000199
 31
-0.0000000000000517
210
0.0
220
1.0
230
-0.0000000000000002
  0
LINE
  5
7090
  8
0
  6
VERDECKT
 62
     1
 10
-48.0000000000000497
 20
232.000000000000199
 30
-0.0000000000000515
 11
-47.0000000000000497
 21
233.000000000000199
 31
-0.0000000000000517
210
0.0
220
1.0
230
-0.0000000000000002
  0
LINE
  5
7091
  8
0
  6
VERDECKT
 62
     1
 10
-48.0000000000000497
 20
232.000000000000199
 30
-0.0000000000000515
 11
-47.0000000000000497
 21
231.000000000000199
 31
-0.0000000000000513
210
0.0
220
1.0
230
-0.0000000000000002
  0
LINE
  5
7092
  8
0
  6
VERDECKT
 62
     1
 10
-54.0000000000000497
 20
232.000000000000199
 30
-0.0000000000000515
 11
-55.0000000000000497
 21
231.000000000000199
 31
-0.0000000000000513
210
0.0
220
1.0
230
-0.0000000000000002
  0
LINE
  5
7093
  8
0
  6
VERDECKT
 62
     1
 10
-54.0000000000000497
 20
230.000000000000199
 30
-0.0000000000000511
 11
-55.0000000000000497
 21
231.000000000000199
 31
-0.0000000000000513
210
0.0
220
1.0
230
-0.0000000000000002
  0
LINE
  5
7094
  8
0
  6
VERDECKT
 62
     1
 10
-48.0000000000000497
 20
230.000000000000199
 30
-0.0000000000000511
 11
-47.0000000000000497
 21
231.000000000000199
 31
-0.0000000000000513
210
0.0
220
1.0
230
-0.0000000000000002
  0
LINE
  5
7095
  8
0
  6
VERDECKT
 62
     1
 10
-48.0000000000000497
 20
230.000000000000199
 30
-0.0000000000000511
 11
-47.0000000000000497
 21
229.000000000000199
 31
-0.0000000000000508
210
0.0
220
1.0
230
-0.0000000000000002
  0
LINE
  5
7096
  8
0
  6
VERDECKT
 62
     1
 10
-54.0000000000000497
 20
230.000000000000199
 30
-0.0000000000000511
 11
-55.0000000000000497
 21
229.000000000000199
 31
-0.0000000000000508
210
0.0
220
1.0
230
-0.0000000000000002
  0
LINE
  5
7097
  8
0
  6
VERDECKT
 62
     1
 10
-54.0000000000000497
 20
228.000000000000199
 30
-0.0000000000000506
 11
-55.0000000000000497
 21
229.000000000000199
 31
-0.0000000000000508
210
0.0
220
1.0
230
-0.0000000000000002
  0
LINE
  5
7098
  8
0
  6
VERDECKT
 62
     1
 10
-48.0000000000000497
 20
228.000000000000199
 30
-0.0000000000000506
 11
-47.0000000000000497
 21
229.000000000000199
 31
-0.0000000000000508
210
0.0
220
1.0
230
-0.0000000000000002
  0
LINE
  5
7099
  8
0
  6
VERDECKT
 62
     1
 10
-48.0000000000000497
 20
228.000000000000199
 30
-0.0000000000000506
 11
-47.0000000000000497
 21
227.000000000000199
 31
-0.0000000000000504
210
0.0
220
1.0
230
-0.0000000000000002
  0
LINE
  5
709A
  8
0
  6
VERDECKT
 62
     1
 10
-54.0000000000000497
 20
228.000000000000199
 30
-0.0000000000000506
 11
-55.0000000000000497
 21
227.000000000000199
 31
-0.0000000000000504
210
0.0
220
1.0
230
-0.0000000000000002
  0
LINE
  5
709B
  8
0
  6
VERDECKT
 62
     1
 10
-54.0000000000000497
 20
226.000000000000199
 30
-0.0000000000000502
 11
-55.0000000000000497
 21
227.000000000000199
 31
-0.0000000000000504
210
0.0
220
1.0
230
-0.0000000000000002
  0
LINE
  5
709C
  8
0
  6
VERDECKT
 62
     1
 10
-48.0000000000000497
 20
226.000000000000199
 30
-0.0000000000000502
 11
-47.0000000000000497
 21
227.000000000000199
 31
-0.0000000000000504
210
0.0
220
1.0
230
-0.0000000000000002
  0
LINE
  5
709D
  8
0
  6
VERDECKT
 62
     1
 10
-48.0000000000000497
 20
226.000000000000199
 30
-0.0000000000000502
 11
-47.0000000000000497
 21
225.000000000000199
 31
-0.00000000000005
210
0.0
220
1.0
230
-0.0000000000000002
  0
LINE
  5
709E
  8
0
  6
VERDECKT
 62
     1
 10
-54.0000000000000497
 20
226.000000000000199
 30
-0.0000000000000502
 11
-55.0000000000000497
 21
225.000000000000199
 31
-0.00000000000005
210
0.0
220
1.0
230
-0.0000000000000002
  0
LINE
  5
709F
  8
0
  6
VERDECKT
 62
     1
 10
-54.0000000000000497
 20
224.000000000000199
 30
-0.0000000000000497
 11
-55.0000000000000497
 21
225.000000000000199
 31
-0.00000000000005
210
0.0
220
1.0
230
-0.0000000000000002
  0
LINE
  5
70A0
  8
0
  6
VERDECKT
 62
     1
 10
-48.0000000000000497
 20
224.000000000000199
 30
-0.0000000000000497
 11
-47.0000000000000497
 21
225.000000000000199
 31
-0.00000000000005
210
0.0
220
1.0
230
-0.0000000000000002
  0
LINE
  5
70A1
  8
0
  6
VERDECKT
 62
     1
 10
-48.0000000000000497
 20
224.000000000000199
 30
-0.0000000000000497
 11
-47.0000000000000497
 21
223.000000000000199
 31
-0.0000000000000495
210
0.0
220
1.0
230
-0.0000000000000002
  0
LINE
  5
70A2
  8
0
  6
VERDECKT
 62
     1
 10
-54.0000000000000497
 20
224.000000000000199
 30
-0.0000000000000497
 11
-55.0000000000000497
 21
223.000000000000199
 31
-0.0000000000000495
210
0.0
220
1.0
230
-0.0000000000000002
  0
LINE
  5
70A3
  8
0
  6
VERDECKT
 62
     1
 10
-54.0000000000000497
 20
222.000000000000199
 30
-0.0000000000000493
 11
-55.0000000000000497
 21
223.000000000000199
 31
-0.0000000000000495
210
0.0
220
1.0
230
-0.0000000000000002
  0
LINE
  5
70A4
  8
0
  6
VERDECKT
 62
     1
 10
-48.0000000000000497
 20
222.000000000000199
 30
-0.0000000000000493
 11
-47.0000000000000497
 21
223.000000000000199
 31
-0.0000000000000495
210
0.0
220
1.0
230
-0.0000000000000002
  0
LINE
  5
70A5
  8
0
  6
VERDECKT
 62
     1
 10
-48.0000000000000497
 20
242.000000000000199
 30
-0.0000000000000537
 11
-47.0000000000000497
 21
241.000000000000199
 31
-0.0000000000000535
210
0.0
220
1.0
230
-0.0000000000000002
  0
LINE
  5
70A6
  8
0
  6
VERDECKT
 62
     1
 10
-54.0000000000000497
 20
242.000000000000199
 30
-0.0000000000000537
 11
-55.0000000000000497
 21
241.000000000000199
 31
-0.0000000000000535
210
0.0
220
1.0
230
-0.0000000000000002
  0
LINE
  5
70A7
  8
0
  6
VERDECKT
 62
     1
 10
-54.0000000000000497
 20
240.000000000000199
 30
-0.0000000000000533
 11
-55.0000000000000497
 21
241.000000000000199
 31
-0.0000000000000535
210
0.0
220
1.0
230
-0.0000000000000002
  0
LINE
  5
70A8
  8
0
  6
VERDECKT
 62
     1
 10
-48.0000000000000497
 20
240.000000000000199
 30
-0.0000000000000533
 11
-47.0000000000000497
 21
241.000000000000199
 31
-0.0000000000000535
210
0.0
220
1.0
230
-0.0000000000000002
  0
LINE
  5
70A9
  8
0
  6
VERDECKT
 62
     1
 10
-48.0000000000000497
 20
240.000000000000199
 30
-0.0000000000000533
 11
-47.0000000000000497
 21
239.000000000000199
 31
-0.0000000000000531
210
0.0
220
1.0
230
-0.0000000000000002
  0
LINE
  5
70AA
  8
0
  6
VERDECKT
 62
     1
 10
-54.0000000000000497
 20
240.000000000000199
 30
-0.0000000000000533
 11
-55.0000000000000497
 21
239.000000000000199
 31
-0.0000000000000531
210
0.0
220
1.0
230
-0.0000000000000002
  0
LINE
  5
70AB
  8
0
  6
VERDECKT
 62
     1
 10
-54.0000000000000497
 20
238.000000000000199
 30
-0.0000000000000528
 11
-55.0000000000000497
 21
239.000000000000199
 31
-0.0000000000000531
210
0.0
220
1.0
230
-0.0000000000000002
  0
LINE
  5
70AC
  8
0
  6
VERDECKT
 62
     1
 10
-48.0000000000000497
 20
238.000000000000199
 30
-0.0000000000000528
 11
-47.0000000000000497
 21
239.000000000000199
 31
-0.0000000000000531
210
0.0
220
1.0
230
-0.0000000000000002
  0
LINE
  5
70AD
  8
0
  6
VERDECKT
 62
     1
 10
-48.0000000000000497
 20
238.000000000000199
 30
-0.0000000000000528
 11
-47.0000000000000497
 21
237.000000000000199
 31
-0.0000000000000526
210
0.0
220
1.0
230
-0.0000000000000002
  0
LINE
  5
70AE
  8
0
  6
VERDECKT
 62
     1
 10
-54.0000000000000497
 20
238.000000000000199
 30
-0.0000000000000528
 11
-55.0000000000000497
 21
237.000000000000199
 31
-0.0000000000000526
210
0.0
220
1.0
230
-0.0000000000000002
  0
LINE
  5
70AF
  8
0
  6
VERDECKT
 62
     1
 10
-54.0000000000000497
 20
236.000000000000199
 30
-0.0000000000000524
 11
-55.0000000000000497
 21
237.000000000000199
 31
-0.0000000000000526
210
0.0
220
1.0
230
-0.0000000000000002
  0
LINE
  5
70B0
  8
0
  6
VERDECKT
 62
     1
 10
-48.0000000000000497
 20
236.000000000000199
 30
-0.0000000000000524
 11
-47.0000000000000497
 21
237.000000000000199
 31
-0.0000000000000526
210
0.0
220
1.0
230
-0.0000000000000002
  0
LINE
  5
70B1
  8
0
  6
VERDECKT
 62
     1
 10
-48.0000000000000497
 20
236.000000000000199
 30
-0.0000000000000524
 11
-47.0000000000000497
 21
235.000000000000199
 31
-0.0000000000000522
210
0.0
220
1.0
230
-0.0000000000000002
  0
LINE
  5
70B2
  8
0
  6
VERDECKT
 62
     1
 10
-54.0000000000000497
 20
236.000000000000199
 30
-0.0000000000000524
 11
-55.0000000000000497
 21
235.000000000000199
 31
-0.0000000000000522
210
0.0
220
1.0
230
-0.0000000000000002
  0
LINE
  5
70B3
  8
0
  6
VERDECKT
 62
     1
 10
-4.0000000000001226
 20
235.000000000000199
 30
-0.0000000000000522
 11
3.9999999999998761
 21
235.000000000000199
 31
-0.0000000000000522
210
0.0
220
1.0
230
-0.0000000000000002
  0
LINE
  5
70B4
  8
0
  6
VERDECKT
 62
     1
 10
-3.000000000000123
 20
234.000000000000199
 30
-0.000000000000052
 11
2.999999999999877
 21
234.000000000000199
 31
-0.000000000000052
210
0.0
220
1.0
230
-0.0000000000000002
  0
LINE
  5
70B5
  8
0
  6
VERDECKT
 62
     1
 10
-4.0000000000001226
 20
233.000000000000199
 30
-0.0000000000000517
 11
3.9999999999998761
 21
233.000000000000199
 31
-0.0000000000000517
210
0.0
220
1.0
230
-0.0000000000000002
  0
LINE
  5
70B6
  8
0
  6
VERDECKT
 62
     1
 10
-3.000000000000123
 20
232.000000000000199
 30
-0.0000000000000515
 11
2.999999999999877
 21
232.000000000000199
 31
-0.0000000000000515
210
0.0
220
1.0
230
-0.0000000000000002
  0
LINE
  5
70B7
  8
0
  6
VERDECKT
 62
     1
 10
-4.0000000000001226
 20
231.000000000000199
 30
-0.0000000000000513
 11
3.9999999999998761
 21
231.000000000000199
 31
-0.0000000000000513
210
0.0
220
1.0
230
-0.0000000000000002
  0
LINE
  5
70B8
  8
0
  6
VERDECKT
 62
     1
 10
-3.000000000000123
 20
230.000000000000199
 30
-0.0000000000000511
 11
2.999999999999877
 21
230.000000000000199
 31
-0.0000000000000511
210
0.0
220
1.0
230
-0.0000000000000002
  0
LINE
  5
70B9
  8
0
  6
VERDECKT
 62
     1
 10
-4.0000000000001226
 20
229.000000000000199
 30
-0.0000000000000508
 11
3.9999999999998761
 21
229.000000000000199
 31
-0.0000000000000508
210
0.0
220
1.0
230
-0.0000000000000002
  0
LINE
  5
70BA
  8
0
  6
VERDECKT
 62
     1
 10
-3.000000000000123
 20
228.000000000000199
 30
-0.0000000000000506
 11
2.999999999999877
 21
228.000000000000199
 31
-0.0000000000000506
210
0.0
220
1.0
230
-0.0000000000000002
  0
LINE
  5
70BB
  8
0
  6
VERDECKT
 62
     1
 10
-4.0000000000001226
 20
227.000000000000199
 30
-0.0000000000000504
 11
3.9999999999998761
 21
227.000000000000199
 31
-0.0000000000000504
210
0.0
220
1.0
230
-0.0000000000000002
  0
LINE
  5
70BC
  8
0
  6
VERDECKT
 62
     1
 10
-3.000000000000123
 20
226.000000000000199
 30
-0.0000000000000502
 11
2.999999999999877
 21
226.000000000000199
 31
-0.0000000000000502
210
0.0
220
1.0
230
-0.0000000000000002
  0
LINE
  5
70BD
  8
0
  6
VERDECKT
 62
     1
 10
-4.0000000000001226
 20
225.000000000000199
 30
-0.00000000000005
 11
3.9999999999998761
 21
225.000000000000199
 31
-0.00000000000005
210
0.0
220
1.0
230
-0.0000000000000002
  0
LINE
  5
70BE
  8
0
  6
VERDECKT
 62
     1
 10
-3.000000000000123
 20
224.000000000000199
 30
-0.0000000000000497
 11
2.999999999999877
 21
224.000000000000199
 31
-0.0000000000000497
210
0.0
220
1.0
230
-0.0000000000000002
  0
LINE
  5
70BF
  8
0
  6
VERDECKT
 62
     1
 10
-3.000000000000123
 20
242.000000000000199
 30
-0.0000000000000537
 11
2.999999999999877
 21
242.000000000000199
 31
-0.0000000000000537
210
0.0
220
1.0
230
-0.0000000000000002
  0
LINE
  5
70C0
  8
0
  6
VERDECKT
 62
     1
 10
-4.0000000000001226
 20
241.000000000000199
 30
-0.0000000000000535
 11
3.9999999999998761
 21
241.000000000000199
 31
-0.0000000000000535
210
0.0
220
1.0
230
-0.0000000000000002
  0
LINE
  5
70C1
  8
0
  6
VERDECKT
 62
     1
 10
-3.000000000000123
 20
240.000000000000199
 30
-0.0000000000000533
 11
2.999999999999877
 21
240.000000000000199
 31
-0.0000000000000533
210
0.0
220
1.0
230
-0.0000000000000002
  0
LINE
  5
70C2
  8
0
  6
VERDECKT
 62
     1
 10
-4.0000000000001226
 20
239.000000000000199
 30
-0.0000000000000531
 11
3.9999999999998761
 21
239.000000000000199
 31
-0.0000000000000531
210
0.0
220
1.0
230
-0.0000000000000002
  0
LINE
  5
70C3
  8
0
  6
VERDECKT
 62
     1
 10
-3.000000000000123
 20
238.000000000000199
 30
-0.0000000000000528
 11
2.999999999999877
 21
238.000000000000199
 31
-0.0000000000000528
210
0.0
220
1.0
230
-0.0000000000000002
  0
LINE
  5
70C4
  8
0
  6
VERDECKT
 62
     1
 10
-4.0000000000001226
 20
237.000000000000199
 30
-0.0000000000000526
 11
3.9999999999998761
 21
237.000000000000199
 31
-0.0000000000000526
210
0.0
220
1.0
230
-0.0000000000000002
  0
LINE
  5
70C5
  8
0
  6
VERDECKT
 62
     1
 10
-3.000000000000123
 20
236.000000000000199
 30
-0.0000000000000524
 11
2.999999999999877
 21
236.000000000000199
 31
-0.0000000000000524
210
0.0
220
1.0
230
-0.0000000000000002
  0
LINE
  5
70C6
  8
0
  6
VERDECKT
 62
     1
 10
-3.000000000000123
 20
234.000000000000199
 30
-0.000000000000052
 11
-4.0000000000001226
 21
235.000000000000199
 31
-0.0000000000000522
210
0.0
220
1.0
230
-0.0000000000000002
  0
LINE
  5
70C7
  8
0
  6
VERDECKT
 62
     1
 10
2.999999999999877
 20
234.000000000000199
 30
-0.000000000000052
 11
3.999999999999877
 21
235.000000000000199
 31
-0.0000000000000522
210
0.0
220
1.0
230
-0.0000000000000002
  0
LINE
  5
70C8
  8
0
  6
VERDECKT
 62
     1
 10
2.999999999999877
 20
234.000000000000199
 30
-0.000000000000052
 11
3.999999999999877
 21
233.000000000000199
 31
-0.0000000000000517
210
0.0
220
1.0
230
-0.0000000000000002
  0
LINE
  5
70C9
  8
0
  6
VERDECKT
 62
     1
 10
-3.000000000000123
 20
234.000000000000199
 30
-0.000000000000052
 11
-4.0000000000001226
 21
233.000000000000199
 31
-0.0000000000000517
210
0.0
220
1.0
230
-0.0000000000000002
  0
LINE
  5
70CA
  8
0
  6
VERDECKT
 62
     1
 10
-3.000000000000123
 20
232.000000000000199
 30
-0.0000000000000515
 11
-4.0000000000001226
 21
233.000000000000199
 31
-0.0000000000000517
210
0.0
220
1.0
230
-0.0000000000000002
  0
LINE
  5
70CB
  8
0
  6
VERDECKT
 62
     1
 10
2.999999999999877
 20
232.000000000000199
 30
-0.0000000000000515
 11
3.999999999999877
 21
233.000000000000199
 31
-0.0000000000000517
210
0.0
220
1.0
230
-0.0000000000000002
  0
LINE
  5
70CC
  8
0
  6
VERDECKT
 62
     1
 10
2.999999999999877
 20
232.000000000000199
 30
-0.0000000000000515
 11
3.999999999999877
 21
231.000000000000199
 31
-0.0000000000000513
210
0.0
220
1.0
230
-0.0000000000000002
  0
LINE
  5
70CD
  8
0
  6
VERDECKT
 62
     1
 10
-3.000000000000123
 20
232.000000000000199
 30
-0.0000000000000515
 11
-4.0000000000001226
 21
231.000000000000199
 31
-0.0000000000000513
210
0.0
220
1.0
230
-0.0000000000000002
  0
LINE
  5
70CE
  8
0
  6
VERDECKT
 62
     1
 10
-3.000000000000123
 20
230.000000000000199
 30
-0.0000000000000511
 11
-4.0000000000001226
 21
231.000000000000199
 31
-0.0000000000000513
210
0.0
220
1.0
230
-0.0000000000000002
  0
LINE
  5
70CF
  8
0
  6
VERDECKT
 62
     1
 10
2.999999999999877
 20
230.000000000000199
 30
-0.0000000000000511
 11
3.999999999999877
 21
231.000000000000199
 31
-0.0000000000000513
210
0.0
220
1.0
230
-0.0000000000000002
  0
LINE
  5
70D0
  8
0
  6
VERDECKT
 62
     1
 10
2.999999999999877
 20
230.000000000000199
 30
-0.0000000000000511
 11
3.999999999999877
 21
229.000000000000199
 31
-0.0000000000000508
210
0.0
220
1.0
230
-0.0000000000000002
  0
LINE
  5
70D1
  8
0
  6
VERDECKT
 62
     1
 10
-3.000000000000123
 20
230.000000000000199
 30
-0.0000000000000511
 11
-4.0000000000001226
 21
229.000000000000199
 31
-0.0000000000000508
210
0.0
220
1.0
230
-0.0000000000000002
  0
LINE
  5
70D2
  8
0
  6
VERDECKT
 62
     1
 10
-3.000000000000123
 20
228.000000000000199
 30
-0.0000000000000506
 11
-4.0000000000001226
 21
229.000000000000199
 31
-0.0000000000000508
210
0.0
220
1.0
230
-0.0000000000000002
  0
LINE
  5
70D3
  8
0
  6
VERDECKT
 62
     1
 10
2.999999999999877
 20
228.000000000000199
 30
-0.0000000000000506
 11
3.999999999999877
 21
229.000000000000199
 31
-0.0000000000000508
210
0.0
220
1.0
230
-0.0000000000000002
  0
LINE
  5
70D4
  8
0
  6
VERDECKT
 62
     1
 10
2.999999999999877
 20
228.000000000000199
 30
-0.0000000000000506
 11
3.999999999999877
 21
227.000000000000199
 31
-0.0000000000000504
210
0.0
220
1.0
230
-0.0000000000000002
  0
LINE
  5
70D5
  8
0
  6
VERDECKT
 62
     1
 10
-3.000000000000123
 20
228.000000000000199
 30
-0.0000000000000506
 11
-4.0000000000001226
 21
227.000000000000199
 31
-0.0000000000000504
210
0.0
220
1.0
230
-0.0000000000000002
  0
LINE
  5
70D6
  8
0
  6
VERDECKT
 62
     1
 10
-3.000000000000123
 20
226.000000000000199
 30
-0.0000000000000502
 11
-4.0000000000001226
 21
227.000000000000199
 31
-0.0000000000000504
210
0.0
220
1.0
230
-0.0000000000000002
  0
LINE
  5
70D7
  8
0
  6
VERDECKT
 62
     1
 10
2.999999999999877
 20
226.000000000000199
 30
-0.0000000000000502
 11
3.999999999999877
 21
227.000000000000199
 31
-0.0000000000000504
210
0.0
220
1.0
230
-0.0000000000000002
  0
LINE
  5
70D8
  8
0
  6
VERDECKT
 62
     1
 10
2.999999999999877
 20
226.000000000000199
 30
-0.0000000000000502
 11
3.999999999999877
 21
225.000000000000199
 31
-0.00000000000005
210
0.0
220
1.0
230
-0.0000000000000002
  0
LINE
  5
70D9
  8
0
  6
VERDECKT
 62
     1
 10
-3.000000000000123
 20
226.000000000000199
 30
-0.0000000000000502
 11
-4.0000000000001226
 21
225.000000000000199
 31
-0.00000000000005
210
0.0
220
1.0
230
-0.0000000000000002
  0
LINE
  5
70DA
  8
0
  6
VERDECKT
 62
     1
 10
-3.000000000000123
 20
224.000000000000199
 30
-0.0000000000000497
 11
-4.0000000000001226
 21
225.000000000000199
 31
-0.00000000000005
210
0.0
220
1.0
230
-0.0000000000000002
  0
LINE
  5
70DB
  8
0
  6
VERDECKT
 62
     1
 10
2.999999999999877
 20
224.000000000000199
 30
-0.0000000000000497
 11
3.999999999999877
 21
225.000000000000199
 31
-0.00000000000005
210
0.0
220
1.0
230
-0.0000000000000002
  0
LINE
  5
70DC
  8
0
  6
VERDECKT
 62
     1
 10
2.999999999999877
 20
224.000000000000199
 30
-0.0000000000000497
 11
3.999999999999877
 21
223.000000000000199
 31
-0.0000000000000495
210
0.0
220
1.0
230
-0.0000000000000002
  0
LINE
  5
70DD
  8
0
  6
VERDECKT
 62
     1
 10
-3.000000000000123
 20
224.000000000000199
 30
-0.0000000000000497
 11
-4.0000000000001226
 21
223.000000000000199
 31
-0.0000000000000495
210
0.0
220
1.0
230
-0.0000000000000002
  0
LINE
  5
70DE
  8
0
  6
VERDECKT
 62
     1
 10
-3.000000000000123
 20
222.000000000000199
 30
-0.0000000000000493
 11
-4.0000000000001226
 21
223.000000000000199
 31
-0.0000000000000495
210
0.0
220
1.0
230
-0.0000000000000002
  0
LINE
  5
70DF
  8
0
  6
VERDECKT
 62
     1
 10
2.999999999999877
 20
222.000000000000199
 30
-0.0000000000000493
 11
3.999999999999877
 21
223.000000000000199
 31
-0.0000000000000495
210
0.0
220
1.0
230
-0.0000000000000002
  0
LINE
  5
70E0
  8
0
  6
VERDECKT
 62
     1
 10
2.999999999999877
 20
242.000000000000199
 30
-0.0000000000000537
 11
3.999999999999877
 21
241.000000000000199
 31
-0.0000000000000535
210
0.0
220
1.0
230
-0.0000000000000002
  0
LINE
  5
70E1
  8
0
  6
VERDECKT
 62
     1
 10
-3.000000000000123
 20
242.000000000000199
 30
-0.0000000000000537
 11
-4.0000000000001226
 21
241.000000000000199
 31
-0.0000000000000535
210
0.0
220
1.0
230
-0.0000000000000002
  0
LINE
  5
70E2
  8
0
  6
VERDECKT
 62
     1
 10
-3.000000000000123
 20
240.000000000000199
 30
-0.0000000000000533
 11
-4.0000000000001226
 21
241.000000000000199
 31
-0.0000000000000535
210
0.0
220
1.0
230
-0.0000000000000002
  0
LINE
  5
70E3
  8
0
  6
VERDECKT
 62
     1
 10
2.999999999999877
 20
240.000000000000199
 30
-0.0000000000000533
 11
3.999999999999877
 21
241.000000000000199
 31
-0.0000000000000535
210
0.0
220
1.0
230
-0.0000000000000002
  0
LINE
  5
70E4
  8
0
  6
VERDECKT
 62
     1
 10
2.999999999999877
 20
240.000000000000199
 30
-0.0000000000000533
 11
3.999999999999877
 21
239.000000000000199
 31
-0.0000000000000531
210
0.0
220
1.0
230
-0.0000000000000002
  0
LINE
  5
70E5
  8
0
  6
VERDECKT
 62
     1
 10
-3.000000000000123
 20
240.000000000000199
 30
-0.0000000000000533
 11
-4.0000000000001226
 21
239.000000000000199
 31
-0.0000000000000531
210
0.0
220
1.0
230
-0.0000000000000002
  0
LINE
  5
70E6
  8
0
  6
VERDECKT
 62
     1
 10
-3.000000000000123
 20
238.000000000000199
 30
-0.0000000000000528
 11
-4.0000000000001226
 21
239.000000000000199
 31
-0.0000000000000531
210
0.0
220
1.0
230
-0.0000000000000002
  0
LINE
  5
70E7
  8
0
  6
VERDECKT
 62
     1
 10
2.999999999999877
 20
238.000000000000199
 30
-0.0000000000000528
 11
3.999999999999877
 21
239.000000000000199
 31
-0.0000000000000531
210
0.0
220
1.0
230
-0.0000000000000002
  0
LINE
  5
70E8
  8
0
  6
VERDECKT
 62
     1
 10
2.999999999999877
 20
238.000000000000199
 30
-0.0000000000000528
 11
3.999999999999877
 21
237.000000000000199
 31
-0.0000000000000526
210
0.0
220
1.0
230
-0.0000000000000002
  0
LINE
  5
70E9
  8
0
  6
VERDECKT
 62
     1
 10
-3.000000000000123
 20
238.000000000000199
 30
-0.0000000000000528
 11
-4.0000000000001226
 21
237.000000000000199
 31
-0.0000000000000526
210
0.0
220
1.0
230
-0.0000000000000002
  0
LINE
  5
70EA
  8
0
  6
VERDECKT
 62
     1
 10
-3.000000000000123
 20
236.000000000000199
 30
-0.0000000000000524
 11
-4.0000000000001226
 21
237.000000000000199
 31
-0.0000000000000526
210
0.0
220
1.0
230
-0.0000000000000002
  0
LINE
  5
70EB
  8
0
  6
VERDECKT
 62
     1
 10
2.999999999999877
 20
236.000000000000199
 30
-0.0000000000000524
 11
3.999999999999877
 21
237.000000000000199
 31
-0.0000000000000526
210
0.0
220
1.0
230
-0.0000000000000002
  0
LINE
  5
70EC
  8
0
  6
VERDECKT
 62
     1
 10
2.999999999999877
 20
236.000000000000199
 30
-0.0000000000000524
 11
3.999999999999877
 21
235.000000000000199
 31
-0.0000000000000522
210
0.0
220
1.0
230
-0.0000000000000002
  0
LINE
  5
70ED
  8
0
  6
VERDECKT
 62
     1
 10
-3.000000000000123
 20
236.000000000000199
 30
-0.0000000000000524
 11
-4.0000000000001226
 21
235.000000000000199
 31
-0.0000000000000522
210
0.0
220
1.0
230
-0.0000000000000002
  0
LINE
  5
70EE
  8
0
  6
VERDECKT
 62
     1
 10
46.9999999999998224
 20
235.000000000000199
 30
-0.0000000000000522
 11
50.9999999999998224
 21
235.000000000000199
 31
-0.0000000000000522
210
0.0
220
1.0
230
-0.0000000000000002
  0
LINE
  5
70EF
  8
0
  6
VERDECKT
 62
     1
 10
50.9999999999998224
 20
235.000000000000199
 30
-0.0000000000000522
 11
54.9999999999998224
 21
235.000000000000199
 31
-0.0000000000000522
210
0.0
220
1.0
230
-0.0000000000000002
  0
LINE
  5
70F0
  8
0
  6
VERDECKT
 62
     1
 10
47.9999999999998224
 20
234.000000000000199
 30
-0.000000000000052
 11
50.9999999999998224
 21
234.000000000000199
 31
-0.000000000000052
210
0.0
220
1.0
230
-0.0000000000000002
  0
LINE
  5
70F1
  8
0
  6
VERDECKT
 62
     1
 10
50.9999999999998224
 20
234.000000000000199
 30
-0.000000000000052
 11
53.9999999999998224
 21
234.000000000000199
 31
-0.000000000000052
210
0.0
220
1.0
230
-0.0000000000000002
  0
LINE
  5
70F2
  8
0
  6
VERDECKT
 62
     1
 10
46.9999999999998224
 20
233.000000000000199
 30
-0.0000000000000517
 11
50.9999999999998224
 21
233.000000000000199
 31
-0.0000000000000517
210
0.0
220
1.0
230
-0.0000000000000002
  0
LINE
  5
70F3
  8
0
  6
VERDECKT
 62
     1
 10
50.9999999999998224
 20
233.000000000000199
 30
-0.0000000000000517
 11
54.9999999999998224
 21
233.000000000000199
 31
-0.0000000000000517
210
0.0
220
1.0
230
-0.0000000000000002
  0
LINE
  5
70F4
  8
0
  6
VERDECKT
 62
     1
 10
47.9999999999998224
 20
232.000000000000199
 30
-0.0000000000000515
 11
50.9999999999998224
 21
232.000000000000199
 31
-0.0000000000000515
210
0.0
220
1.0
230
-0.0000000000000002
  0
LINE
  5
70F5
  8
0
  6
VERDECKT
 62
     1
 10
50.9999999999998224
 20
232.000000000000199
 30
-0.0000000000000515
 11
53.9999999999998224
 21
232.000000000000199
 31
-0.0000000000000515
210
0.0
220
1.0
230
-0.0000000000000002
  0
LINE
  5
70F6
  8
0
  6
VERDECKT
 62
     1
 10
46.9999999999998224
 20
231.000000000000199
 30
-0.0000000000000513
 11
50.9999999999998224
 21
231.000000000000199
 31
-0.0000000000000513
210
0.0
220
1.0
230
-0.0000000000000002
  0
LINE
  5
70F7
  8
0
  6
VERDECKT
 62
     1
 10
50.9999999999998224
 20
231.000000000000199
 30
-0.0000000000000513
 11
54.9999999999998224
 21
231.000000000000199
 31
-0.0000000000000513
210
0.0
220
1.0
230
-0.0000000000000002
  0
LINE
  5
70F8
  8
0
  6
VERDECKT
 62
     1
 10
47.9999999999998224
 20
230.000000000000199
 30
-0.0000000000000511
 11
50.9999999999998224
 21
230.000000000000199
 31
-0.0000000000000511
210
0.0
220
1.0
230
-0.0000000000000002
  0
LINE
  5
70F9
  8
0
  6
VERDECKT
 62
     1
 10
50.9999999999998224
 20
230.000000000000199
 30
-0.0000000000000511
 11
53.9999999999998224
 21
230.000000000000199
 31
-0.0000000000000511
210
0.0
220
1.0
230
-0.0000000000000002
  0
LINE
  5
70FA
  8
0
  6
VERDECKT
 62
     1
 10
46.9999999999998224
 20
229.000000000000199
 30
-0.0000000000000508
 11
50.9999999999998224
 21
229.000000000000199
 31
-0.0000000000000508
210
0.0
220
1.0
230
-0.0000000000000002
  0
LINE
  5
70FB
  8
0
  6
VERDECKT
 62
     1
 10
50.9999999999998224
 20
229.000000000000199
 30
-0.0000000000000508
 11
54.9999999999998224
 21
229.000000000000199
 31
-0.0000000000000508
210
0.0
220
1.0
230
-0.0000000000000002
  0
LINE
  5
70FC
  8
0
  6
VERDECKT
 62
     1
 10
47.9999999999998224
 20
228.000000000000199
 30
-0.0000000000000506
 11
50.9999999999998224
 21
228.000000000000199
 31
-0.0000000000000506
210
0.0
220
1.0
230
-0.0000000000000002
  0
LINE
  5
70FD
  8
0
  6
VERDECKT
 62
     1
 10
50.9999999999998224
 20
228.000000000000199
 30
-0.0000000000000506
 11
53.9999999999998224
 21
228.000000000000199
 31
-0.0000000000000506
210
0.0
220
1.0
230
-0.0000000000000002
  0
LINE
  5
70FE
  8
0
  6
VERDECKT
 62
     1
 10
46.9999999999998224
 20
227.000000000000199
 30
-0.0000000000000504
 11
50.9999999999998224
 21
227.000000000000199
 31
-0.0000000000000504
210
0.0
220
1.0
230
-0.0000000000000002
  0
LINE
  5
70FF
  8
0
  6
VERDECKT
 62
     1
 10
50.9999999999998224
 20
227.000000000000199
 30
-0.0000000000000504
 11
54.9999999999998224
 21
227.000000000000199
 31
-0.0000000000000504
210
0.0
220
1.0
230
-0.0000000000000002
  0
LINE
  5
7100
  8
0
  6
VERDECKT
 62
     1
 10
47.9999999999998224
 20
226.000000000000199
 30
-0.0000000000000502
 11
50.9999999999998224
 21
226.000000000000199
 31
-0.0000000000000502
210
0.0
220
1.0
230
-0.0000000000000002
  0
LINE
  5
7101
  8
0
  6
VERDECKT
 62
     1
 10
50.9999999999998224
 20
226.000000000000199
 30
-0.0000000000000502
 11
53.9999999999998224
 21
226.000000000000199
 31
-0.0000000000000502
210
0.0
220
1.0
230
-0.0000000000000002
  0
LINE
  5
7102
  8
0
  6
VERDECKT
 62
     1
 10
46.9999999999998224
 20
225.000000000000199
 30
-0.00000000000005
 11
50.9999999999998224
 21
225.000000000000199
 31
-0.00000000000005
210
0.0
220
1.0
230
-0.0000000000000002
  0
LINE
  5
7103
  8
0
  6
VERDECKT
 62
     1
 10
50.9999999999998224
 20
225.000000000000199
 30
-0.00000000000005
 11
54.9999999999998224
 21
225.000000000000199
 31
-0.00000000000005
210
0.0
220
1.0
230
-0.0000000000000002
  0
LINE
  5
7104
  8
0
  6
VERDECKT
 62
     1
 10
47.9999999999998224
 20
224.000000000000199
 30
-0.0000000000000497
 11
50.9999999999998224
 21
224.000000000000199
 31
-0.0000000000000497
210
0.0
220
1.0
230
-0.0000000000000002
  0
LINE
  5
7105
  8
0
  6
VERDECKT
 62
     1
 10
50.9999999999998224
 20
224.000000000000199
 30
-0.0000000000000497
 11
53.9999999999998224
 21
224.000000000000199
 31
-0.0000000000000497
210
0.0
220
1.0
230
-0.0000000000000002
  0
LINE
  5
7106
  8
0
  6
VERDECKT
 62
     1
 10
47.9999999999998224
 20
242.000000000000199
 30
-0.0000000000000537
 11
50.9999999999998224
 21
242.000000000000199
 31
-0.0000000000000537
210
0.0
220
1.0
230
-0.0000000000000002
  0
LINE
  5
7107
  8
0
  6
VERDECKT
 62
     1
 10
50.9999999999998224
 20
242.000000000000199
 30
-0.0000000000000537
 11
53.9999999999998224
 21
242.000000000000199
 31
-0.0000000000000537
210
0.0
220
1.0
230
-0.0000000000000002
  0
LINE
  5
7108
  8
0
  6
VERDECKT
 62
     1
 10
46.9999999999998224
 20
241.000000000000199
 30
-0.0000000000000535
 11
50.9999999999998224
 21
241.000000000000199
 31
-0.0000000000000535
210
0.0
220
1.0
230
-0.0000000000000002
  0
LINE
  5
7109
  8
0
  6
VERDECKT
 62
     1
 10
50.9999999999998224
 20
241.000000000000199
 30
-0.0000000000000535
 11
54.9999999999998224
 21
241.000000000000199
 31
-0.0000000000000535
210
0.0
220
1.0
230
-0.0000000000000002
  0
LINE
  5
710A
  8
0
  6
VERDECKT
 62
     1
 10
47.9999999999998224
 20
240.000000000000199
 30
-0.0000000000000533
 11
50.9999999999998224
 21
240.000000000000199
 31
-0.0000000000000533
210
0.0
220
1.0
230
-0.0000000000000002
  0
LINE
  5
710B
  8
0
  6
VERDECKT
 62
     1
 10
50.9999999999998224
 20
240.000000000000199
 30
-0.0000000000000533
 11
53.9999999999998224
 21
240.000000000000199
 31
-0.0000000000000533
210
0.0
220
1.0
230
-0.0000000000000002
  0
LINE
  5
710C
  8
0
  6
VERDECKT
 62
     1
 10
46.9999999999998224
 20
239.000000000000199
 30
-0.0000000000000531
 11
50.9999999999998224
 21
239.000000000000199
 31
-0.0000000000000531
210
0.0
220
1.0
230
-0.0000000000000002
  0
LINE
  5
710D
  8
0
  6
VERDECKT
 62
     1
 10
50.9999999999998224
 20
239.000000000000199
 30
-0.0000000000000531
 11
54.9999999999998224
 21
239.000000000000199
 31
-0.0000000000000531
210
0.0
220
1.0
230
-0.0000000000000002
  0
LINE
  5
710E
  8
0
  6
VERDECKT
 62
     1
 10
47.9999999999998224
 20
238.000000000000199
 30
-0.0000000000000528
 11
50.9999999999998224
 21
238.000000000000199
 31
-0.0000000000000528
210
0.0
220
1.0
230
-0.0000000000000002
  0
LINE
  5
710F
  8
0
  6
VERDECKT
 62
     1
 10
50.9999999999998224
 20
238.000000000000199
 30
-0.0000000000000528
 11
53.9999999999998224
 21
238.000000000000199
 31
-0.0000000000000528
210
0.0
220
1.0
230
-0.0000000000000002
  0
LINE
  5
7110
  8
0
  6
VERDECKT
 62
     1
 10
46.9999999999998224
 20
237.000000000000199
 30
-0.0000000000000526
 11
50.9999999999998224
 21
237.000000000000199
 31
-0.0000000000000526
210
0.0
220
1.0
230
-0.0000000000000002
  0
LINE
  5
7111
  8
0
  6
VERDECKT
 62
     1
 10
50.9999999999998224
 20
237.000000000000199
 30
-0.0000000000000526
 11
54.9999999999998224
 21
237.000000000000199
 31
-0.0000000000000526
210
0.0
220
1.0
230
-0.0000000000000002
  0
LINE
  5
7112
  8
0
  6
VERDECKT
 62
     1
 10
47.9999999999998224
 20
236.000000000000199
 30
-0.0000000000000524
 11
50.9999999999998224
 21
236.000000000000199
 31
-0.0000000000000524
210
0.0
220
1.0
230
-0.0000000000000002
  0
LINE
  5
7113
  8
0
  6
VERDECKT
 62
     1
 10
50.9999999999998224
 20
236.000000000000199
 30
-0.0000000000000524
 11
53.9999999999998224
 21
236.000000000000199
 31
-0.0000000000000524
210
0.0
220
1.0
230
-0.0000000000000002
  0
LINE
  5
7114
  8
0
  6
VERDECKT
 62
     1
 10
47.9999999999998224
 20
234.000000000000199
 30
-0.000000000000052
 11
46.9999999999998224
 21
235.000000000000199
 31
-0.0000000000000522
210
0.0
220
1.0
230
-0.0000000000000002
  0
LINE
  5
7115
  8
0
  6
VERDECKT
 62
     1
 10
53.9999999999998224
 20
234.000000000000199
 30
-0.000000000000052
 11
54.9999999999998224
 21
235.000000000000199
 31
-0.0000000000000522
210
0.0
220
1.0
230
-0.0000000000000002
  0
LINE
  5
7116
  8
0
  6
VERDECKT
 62
     1
 10
53.9999999999998224
 20
234.000000000000199
 30
-0.000000000000052
 11
54.9999999999998224
 21
233.000000000000199
 31
-0.0000000000000517
210
0.0
220
1.0
230
-0.0000000000000002
  0
LINE
  5
7117
  8
0
  6
VERDECKT
 62
     1
 10
47.9999999999998224
 20
234.000000000000199
 30
-0.000000000000052
 11
46.9999999999998224
 21
233.000000000000199
 31
-0.0000000000000517
210
0.0
220
1.0
230
-0.0000000000000002
  0
LINE
  5
7118
  8
0
  6
VERDECKT
 62
     1
 10
47.9999999999998224
 20
232.000000000000199
 30
-0.0000000000000515
 11
46.9999999999998224
 21
233.000000000000199
 31
-0.0000000000000517
210
0.0
220
1.0
230
-0.0000000000000002
  0
LINE
  5
7119
  8
0
  6
VERDECKT
 62
     1
 10
53.9999999999998224
 20
232.000000000000199
 30
-0.0000000000000515
 11
54.9999999999998224
 21
233.000000000000199
 31
-0.0000000000000517
210
0.0
220
1.0
230
-0.0000000000000002
  0
LINE
  5
711A
  8
0
  6
VERDECKT
 62
     1
 10
53.9999999999998224
 20
232.000000000000199
 30
-0.0000000000000515
 11
54.9999999999998224
 21
231.000000000000199
 31
-0.0000000000000513
210
0.0
220
1.0
230
-0.0000000000000002
  0
LINE
  5
711B
  8
0
  6
VERDECKT
 62
     1
 10
47.9999999999998224
 20
232.000000000000199
 30
-0.0000000000000515
 11
46.9999999999998224
 21
231.000000000000199
 31
-0.0000000000000513
210
0.0
220
1.0
230
-0.0000000000000002
  0
LINE
  5
711C
  8
0
  6
VERDECKT
 62
     1
 10
47.9999999999998224
 20
230.000000000000199
 30
-0.0000000000000511
 11
46.9999999999998224
 21
231.000000000000199
 31
-0.0000000000000513
210
0.0
220
1.0
230
-0.0000000000000002
  0
LINE
  5
711D
  8
0
  6
VERDECKT
 62
     1
 10
53.9999999999998224
 20
230.000000000000199
 30
-0.0000000000000511
 11
54.9999999999998224
 21
231.000000000000199
 31
-0.0000000000000513
210
0.0
220
1.0
230
-0.0000000000000002
  0
LINE
  5
711E
  8
0
  6
VERDECKT
 62
     1
 10
53.9999999999998224
 20
230.000000000000199
 30
-0.0000000000000511
 11
54.9999999999998224
 21
229.000000000000199
 31
-0.0000000000000508
210
0.0
220
1.0
230
-0.0000000000000002
  0
LINE
  5
711F
  8
0
  6
VERDECKT
 62
     1
 10
47.9999999999998224
 20
230.000000000000199
 30
-0.0000000000000511
 11
46.9999999999998224
 21
229.000000000000199
 31
-0.0000000000000508
210
0.0
220
1.0
230
-0.0000000000000002
  0
LINE
  5
7120
  8
0
  6
VERDECKT
 62
     1
 10
47.9999999999998224
 20
228.000000000000199
 30
-0.0000000000000506
 11
46.9999999999998224
 21
229.000000000000199
 31
-0.0000000000000508
210
0.0
220
1.0
230
-0.0000000000000002
  0
LINE
  5
7121
  8
0
  6
VERDECKT
 62
     1
 10
53.9999999999998224
 20
228.000000000000199
 30
-0.0000000000000506
 11
54.9999999999998224
 21
229.000000000000199
 31
-0.0000000000000508
210
0.0
220
1.0
230
-0.0000000000000002
  0
LINE
  5
7122
  8
0
  6
VERDECKT
 62
     1
 10
53.9999999999998224
 20
228.000000000000199
 30
-0.0000000000000506
 11
54.9999999999998224
 21
227.000000000000199
 31
-0.0000000000000504
210
0.0
220
1.0
230
-0.0000000000000002
  0
LINE
  5
7123
  8
0
  6
VERDECKT
 62
     1
 10
47.9999999999998224
 20
228.000000000000199
 30
-0.0000000000000506
 11
46.9999999999998224
 21
227.000000000000199
 31
-0.0000000000000504
210
0.0
220
1.0
230
-0.0000000000000002
  0
LINE
  5
7124
  8
0
  6
VERDECKT
 62
     1
 10
47.9999999999998224
 20
226.000000000000199
 30
-0.0000000000000502
 11
46.9999999999998224
 21
227.000000000000199
 31
-0.0000000000000504
210
0.0
220
1.0
230
-0.0000000000000002
  0
LINE
  5
7125
  8
0
  6
VERDECKT
 62
     1
 10
53.9999999999998224
 20
226.000000000000199
 30
-0.0000000000000502
 11
54.9999999999998224
 21
227.000000000000199
 31
-0.0000000000000504
210
0.0
220
1.0
230
-0.0000000000000002
  0
LINE
  5
7126
  8
0
  6
VERDECKT
 62
     1
 10
53.9999999999998224
 20
226.000000000000199
 30
-0.0000000000000502
 11
54.9999999999998224
 21
225.000000000000199
 31
-0.00000000000005
210
0.0
220
1.0
230
-0.0000000000000002
  0
LINE
  5
7127
  8
0
  6
VERDECKT
 62
     1
 10
47.9999999999998224
 20
226.000000000000199
 30
-0.0000000000000502
 11
46.9999999999998224
 21
225.000000000000199
 31
-0.00000000000005
210
0.0
220
1.0
230
-0.0000000000000002
  0
LINE
  5
7128
  8
0
  6
VERDECKT
 62
     1
 10
47.9999999999998224
 20
224.000000000000199
 30
-0.0000000000000497
 11
46.9999999999998224
 21
225.000000000000199
 31
-0.00000000000005
210
0.0
220
1.0
230
-0.0000000000000002
  0
LINE
  5
7129
  8
0
  6
VERDECKT
 62
     1
 10
53.9999999999998224
 20
224.000000000000199
 30
-0.0000000000000497
 11
54.9999999999998224
 21
225.000000000000199
 31
-0.00000000000005
210
0.0
220
1.0
230
-0.0000000000000002
  0
LINE
  5
712A
  8
0
  6
VERDECKT
 62
     1
 10
53.9999999999998224
 20
224.000000000000199
 30
-0.0000000000000497
 11
54.9999999999998224
 21
223.000000000000199
 31
-0.0000000000000495
210
0.0
220
1.0
230
-0.0000000000000002
  0
LINE
  5
712B
  8
0
  6
VERDECKT
 62
     1
 10
47.9999999999998224
 20
224.000000000000199
 30
-0.0000000000000497
 11
46.9999999999998224
 21
223.000000000000199
 31
-0.0000000000000495
210
0.0
220
1.0
230
-0.0000000000000002
  0
LINE
  5
712C
  8
0
  6
VERDECKT
 62
     1
 10
47.9999999999998224
 20
222.000000000000199
 30
-0.0000000000000493
 11
46.9999999999998224
 21
223.000000000000199
 31
-0.0000000000000495
210
0.0
220
1.0
230
-0.0000000000000002
  0
LINE
  5
712D
  8
0
  6
VERDECKT
 62
     1
 10
53.9999999999998224
 20
222.000000000000199
 30
-0.0000000000000493
 11
54.9999999999998224
 21
223.000000000000199
 31
-0.0000000000000495
210
0.0
220
1.0
230
-0.0000000000000002
  0
LINE
  5
712E
  8
0
  6
VERDECKT
 62
     1
 10
53.9999999999998224
 20
242.000000000000199
 30
-0.0000000000000537
 11
54.9999999999998224
 21
241.000000000000199
 31
-0.0000000000000535
210
0.0
220
1.0
230
-0.0000000000000002
  0
LINE
  5
712F
  8
0
  6
VERDECKT
 62
     1
 10
47.9999999999998224
 20
242.000000000000199
 30
-0.0000000000000537
 11
46.9999999999998224
 21
241.000000000000199
 31
-0.0000000000000535
210
0.0
220
1.0
230
-0.0000000000000002
  0
LINE
  5
7130
  8
0
  6
VERDECKT
 62
     1
 10
47.9999999999998224
 20
240.000000000000199
 30
-0.0000000000000533
 11
46.9999999999998224
 21
241.000000000000199
 31
-0.0000000000000535
210
0.0
220
1.0
230
-0.0000000000000002
  0
LINE
  5
7131
  8
0
  6
VERDECKT
 62
     1
 10
53.9999999999998224
 20
240.000000000000199
 30
-0.0000000000000533
 11
54.9999999999998224
 21
241.000000000000199
 31
-0.0000000000000535
210
0.0
220
1.0
230
-0.0000000000000002
  0
LINE
  5
7132
  8
0
  6
VERDECKT
 62
     1
 10
53.9999999999998224
 20
240.000000000000199
 30
-0.0000000000000533
 11
54.9999999999998224
 21
239.000000000000199
 31
-0.0000000000000531
210
0.0
220
1.0
230
-0.0000000000000002
  0
LINE
  5
7133
  8
0
  6
VERDECKT
 62
     1
 10
47.9999999999998224
 20
240.000000000000199
 30
-0.0000000000000533
 11
46.9999999999998224
 21
239.000000000000199
 31
-0.0000000000000531
210
0.0
220
1.0
230
-0.0000000000000002
  0
LINE
  5
7134
  8
0
  6
VERDECKT
 62
     1
 10
47.9999999999998224
 20
238.000000000000199
 30
-0.0000000000000528
 11
46.9999999999998224
 21
239.000000000000199
 31
-0.0000000000000531
210
0.0
220
1.0
230
-0.0000000000000002
  0
LINE
  5
7135
  8
0
  6
VERDECKT
 62
     1
 10
53.9999999999998224
 20
238.000000000000199
 30
-0.0000000000000528
 11
54.9999999999998224
 21
239.000000000000199
 31
-0.0000000000000531
210
0.0
220
1.0
230
-0.0000000000000002
  0
LINE
  5
7136
  8
0
  6
VERDECKT
 62
     1
 10
53.9999999999998224
 20
238.000000000000199
 30
-0.0000000000000528
 11
54.9999999999998224
 21
237.000000000000199
 31
-0.0000000000000526
210
0.0
220
1.0
230
-0.0000000000000002
  0
LINE
  5
7137
  8
0
  6
VERDECKT
 62
     1
 10
47.9999999999998224
 20
238.000000000000199
 30
-0.0000000000000528
 11
46.9999999999998224
 21
237.000000000000199
 31
-0.0000000000000526
210
0.0
220
1.0
230
-0.0000000000000002
  0
LINE
  5
7138
  8
0
  6
VERDECKT
 62
     1
 10
47.9999999999998224
 20
236.000000000000199
 30
-0.0000000000000524
 11
46.9999999999998224
 21
237.000000000000199
 31
-0.0000000000000526
210
0.0
220
1.0
230
-0.0000000000000002
  0
LINE
  5
7139
  8
0
  6
VERDECKT
 62
     1
 10
53.9999999999998224
 20
236.000000000000199
 30
-0.0000000000000524
 11
54.9999999999998224
 21
237.000000000000199
 31
-0.0000000000000526
210
0.0
220
1.0
230
-0.0000000000000002
  0
LINE
  5
713A
  8
0
  6
VERDECKT
 62
     1
 10
53.9999999999998224
 20
236.000000000000199
 30
-0.0000000000000524
 11
54.9999999999998224
 21
235.000000000000199
 31
-0.0000000000000522
210
0.0
220
1.0
230
-0.0000000000000002
  0
LINE
  5
713B
  8
0
  6
VERDECKT
 62
     1
 10
47.9999999999998224
 20
236.000000000000199
 30
-0.0000000000000524
 11
46.9999999999998224
 21
235.000000000000199
 31
-0.0000000000000522
210
0.0
220
1.0
230
-0.0000000000000002
  0
ENDBLK
  5
713D
  8
0
  0
BLOCK
  8
0
  2
A$C4F34DB49
 70
     0
 10
0.0
 20
0.0
 30
0.0
  3
A$C4F34DB49
  1

  0
LINE
  5
7141
  8
0
  6
CONTINUOUS
 62
     3
 10
-35.8875793553185218
 20
-0.0000000000000102
 30
0.0
 11
35.8875793553185218
 21
0.0000000000000102
 31
0.0
210
-0.0000000000000002
220
1.0
230
-0.0000000000000002
  0
ARC
  5
7142
  8
0
  6
CONTINUOUS
 62
     3
 10
35.4999999999993534
 20
7.0436609429074064
 30
0.0
 40
1.000000000000661
210
0.0
220
-0.0000000000000002
230
-1.0
 50
355.0000000000038085
 51
0.0000000000005089
  0
ARC
  5
7143
  8
0
  6
CONTINUOUS
 62
     3
 10
-35.4999999999992966
 20
7.0436609429074277
 30
0.0
 40
1.0000000000007101
210
0.0
220
-0.0000000000000002
230
-1.0
 50
179.9999999999994884
 51
184.9999999999959073
  0
LINE
  5
7144
  8
0
  6
CONTINUOUS
 62
     3
 10
-35.8875793553184721
 20
-0.0000000000000062
 30
0.0
 11
-36.4961946980917631
 21
6.9565052001597554
 31
-0.0000000000000015
210
-0.0000000000000002
220
1.0
230
-0.0000000000000002
  0
LINE
  5
7145
  8
0
  6
CONTINUOUS
 62
     3
 10
35.8875793553184721
 20
0.0000000000000142
 30
0.0
 11
36.4961946980917631
 21
6.9565052001597758
 31
-0.0000000000000015
210
-0.0000000000000002
220
1.0
230
-0.0000000000000002
  0
LINE
  5
7146
  8
0
  6
CONTINUOUS
 62
     3
 10
36.4999999999999929
 20
62.9999999999999503
 30
-0.000000000000014
 11
36.5000000000000071
 21
7.0436609429074331
 31
-0.0000000000000016
210
-0.0000000000000002
220
1.0
230
-0.0000000000000002
  0
LINE
  5
7147
  8
0
  6
CONTINUOUS
 62
     3
 10
-36.5000000000000213
 20
62.9999999999999289
 30
-0.000000000000014
 11
-36.5000000000000071
 21
7.0436609429074171
 31
-0.0000000000000016
210
-0.0000000000000002
220
1.0
230
-0.0000000000000002
  0
LINE
  5
7148
  8
0
  6
CONTINUOUS
 62
     3
 10
-145.9999999999998863
 20
250.0000000000001137
 30
-0.0000000000000555
 11
-0.0000000000001124
 21
250.000000000000199
 31
-0.0000000000000555
210
-0.0000000000000002
220
1.0
230
-0.0000000000000002
  0
LINE
  5
7149
  8
0
  6
CONTINUOUS
 62
     3
 10
-0.0000000000000637
 20
250.000000000000199
 30
-0.0000000000000555
 11
145.9999999999998863
 21
250.000000000000199
 31
-0.0000000000000555
210
-0.0000000000000002
220
1.0
230
-0.0000000000000002
  0
LINE
  5
714A
  8
0
  6
CONTINUOUS
 62
     3
 10
-145.9999999999998863
 20
248.0000000000001137
 30
-0.0000000000000551
 11
-0.0000000000001119
 21
248.000000000000199
 31
-0.0000000000000551
210
-0.0000000000000002
220
1.0
230
-0.0000000000000002
  0
LINE
  5
714B
  8
0
  6
CONTINUOUS
 62
     3
 10
-0.0000000000000631
 20
248.000000000000199
 30
-0.0000000000000551
 11
145.9999999999998863
 21
248.000000000000199
 31
-0.0000000000000551
210
-0.0000000000000002
220
1.0
230
-0.0000000000000002
  0
LINE
  5
714C
  8
0
  6
CONTINUOUS
 62
     3
 10
145.9999999999998863
 20
250.000000000000199
 30
-0.0000000000000555
 11
145.9999999999998863
 21
248.000000000000199
 31
-0.0000000000000551
210
-0.0000000000000002
220
1.0
230
-0.0000000000000002
  0
LINE
  5
714D
  8
0
  6
CONTINUOUS
 62
     3
 10
-146.0000000000001137
 20
250.0000000000001137
 30
-0.0000000000000555
 11
-146.0000000000001137
 21
248.0000000000001137
 31
-0.0000000000000551
210
-0.0000000000000002
220
1.0
230
-0.0000000000000002
  0
ARC
  5
714E
  8
0
  6
CONTINUOUS
 62
     3
 10
118.4999999999978968
 20
210.0000000000084128
 30
0.0
 40
37.9999999999914806
210
0.0
220
-0.0000000000000002
230
-1.0
 50
89.9999999999966747
 51
120.187454074824899
  0
ARC
  5
714F
  8
0
  6
CONTINUOUS
 62
     3
 10
-118.4999999999978968
 20
210.0000000000081002
 30
0.0
 40
37.9999999999918785
210
0.0
220
-0.0000000000000002
230
-1.0
 50
59.8125459251751721
 51
90.000000000003098
  0
LINE
  5
7150
  8
0
  6
CONTINUOUS
 62
     3
 10
-65.2753327585627972
 20
223.000000000000199
 30
-0.0000000000000495
 11
-99.3924339203991849
 21
242.8466272014902074
 31
-0.0000000000000539
210
-0.0000000000000002
220
1.0
230
-0.0000000000000002
  0
LINE
  5
7151
  8
0
  6
CONTINUOUS
 62
     3
 10
65.2753327585626124
 20
223.0000000000003126
 30
-0.0000000000000495
 11
99.3924339203989859
 21
242.8466272014902927
 31
-0.0000000000000539
210
-0.0000000000000002
220
1.0
230
-0.0000000000000002
  0
LINE
  5
7152
  8
0
  6
CONTINUOUS
 62
     3
 10
-62.1816463358975895
 20
63.0000000000000782
 30
-0.000000000000014
 11
-0.0000000000000353
 21
62.9999999999999076
 31
-0.000000000000014
210
-0.0000000000000002
220
1.0
230
-0.0000000000000002
  0
LINE
  5
7153
  8
0
  6
CONTINUOUS
 62
     3
 10
-0.0000000000000175
 20
62.9999999999998721
 30
-0.000000000000014
 11
62.1816463358975113
 21
63.0000000000001066
 31
-0.000000000000014
210
-0.0000000000000002
220
1.0
230
-0.0000000000000002
  0
LINE
  5
7154
  8
0
  6
CONTINUOUS
 62
     3
 10
-74.9999999999996589
 20
223.0000000000003126
 30
-0.0000000000000495
 11
-0.0000000000000779
 21
223.0000000000001137
 31
-0.0000000000000495
210
-0.0000000000000002
220
1.0
230
-0.0000000000000002
  0
LINE
  5
7155
  8
0
  6
CONTINUOUS
 62
     3
 10
-0.0000000000000545
 20
223.000000000000199
 30
-0.0000000000000495
 11
74.9999999999994884
 21
223.0000000000003126
 31
-0.0000000000000495
210
-0.0000000000000002
220
1.0
230
-0.0000000000000002
  0
LINE
  5
7156
  8
0
  6
CONTINUOUS
 62
     3
 10
-65.175804071346235
 20
65.8128651415345445
 30
-0.0000000000000146
 11
-74.9999999999996589
 21
223.0000000000003126
 31
-0.0000000000000495
210
-0.0000000000000002
220
1.0
230
-0.0000000000000002
  0
LINE
  5
7157
  8
0
  6
CONTINUOUS
 62
     3
 10
65.1758040713461497
 20
65.8128651415345729
 30
-0.0000000000000146
 11
74.9999999999995026
 21
223.0000000000003126
 31
-0.0000000000000495
210
-0.0000000000000002
220
1.0
230
-0.0000000000000002
  0
ARC
  5
7158
  8
0
  6
CONTINUOUS
 62
     3
 10
62.1816463358975895
 20
66.0000000000001137
 30
0.0
 40
2.9999999999999858
210
0.0
220
-0.0000000000000002
230
-1.0
 50
270.0
 51
356.4236656250021156
  0
ARC
  5
7159
  8
0
  6
CONTINUOUS
 62
     3
 10
-62.1816463358975184
 20
66.0000000000001421
 30
0.0
 40
2.9999999999999889
210
0.0
220
-0.0000000000000002
230
-1.0
 50
183.5763343749977992
 51
270.0000000000001137
  0
LINE
  5
715A
  8
0
  6
VERDECKT
 62
     1
 10
-34.6921457176084829
 20
0.1045868912972212
 30
0.0
 11
34.6921457176084829
 21
0.1045868912972408
 31
0.0
210
-0.0000000000000002
220
1.0
230
-0.0000000000000002
  0
ARC
  5
715B
  8
0
  6
VERDECKT
 62
     1
 10
34.2999999999993008
 20
7.0960540743962914
 30
0.0
 40
1.000000000000661
210
0.0
220
-0.0000000000000002
230
-1.0
 50
355.0000000000038085
 51
0.0000000000005089
  0
ARC
  5
715C
  8
0
  6
VERDECKT
 62
     1
 10
-34.2999999999992724
 20
7.0960540743963101
 30
0.0
 40
1.0000000000006961
210
0.0
220
-0.0000000000000002
230
-1.0
 50
179.9999999999994884
 51
184.9999999999959925
  0
LINE
  5
715D
  8
0
  6
VERDECKT
 62
     1
 10
-34.6921457176084189
 20
0.1045868912972264
 30
0.0
 11
-35.2961946980917034
 21
7.0088983316486422
 31
-0.0000000000000016
210
-0.0000000000000002
220
1.0
230
-0.0000000000000002
  0
LINE
  5
715E
  8
0
  6
VERDECKT
 62
     1
 10
34.6921457176084189
 20
0.1045868912972463
 30
0.0
 11
35.2961946980917034
 21
7.0088983316486608
 31
-0.0000000000000016
210
-0.0000000000000002
220
1.0
230
-0.0000000000000002
  0
LINE
  5
715F
  8
0
  6
VERDECKT
 62
     1
 10
35.299999999999919
 20
160.5069422202890053
 30
-0.0000000000000356
 11
35.2999999999999616
 21
7.0960540743963181
 31
-0.0000000000000016
210
-0.0000000000000002
220
1.0
230
-0.0000000000000002
  0
LINE
  5
7160
  8
0
  6
VERDECKT
 62
     1
 10
-35.3000000000000114
 20
160.5069422202890053
 30
-0.0000000000000356
 11
-35.2999999999999616
 21
7.0960540743963021
 31
-0.0000000000000016
210
-0.0000000000000002
220
1.0
230
-0.0000000000000002
  0
LINE
  5
7161
  8
0
  6
VERDECKT
 62
     1
 10
36.4999999999999716
 20
160.5069422202890053
 30
-0.0000000000000356
 11
36.4999999999999929
 21
62.9999999999999503
 31
-0.000000000000014
210
-0.0000000000000002
220
1.0
230
-0.0000000000000002
  0
LINE
  5
7162
  8
0
  6
VERDECKT
 62
     1
 10
-36.5000000000000497
 20
160.5069422202890053
 30
-0.0000000000000356
 11
-36.5000000000000213
 21
62.9999999999999289
 31
-0.000000000000014
210
-0.0000000000000002
220
1.0
230
-0.0000000000000002
  0
LINE
  5
7163
  8
0
  6
VERDECKT
 62
     1
 10
-40.6999999999996831
 20
204.6376752632727118
 30
-0.0000000000000454
 11
-40.6999999999996902
 21
220.0000000000001137
 31
-0.0000000000000488
210
-0.0000000000000002
220
1.0
230
-0.0000000000000002
  0
LINE
  5
7164
  8
0
  6
VERDECKT
 62
     1
 10
40.6999999999995126
 20
204.6376752632727118
 30
-0.0000000000000454
 11
40.6999999999994984
 21
220.0000000000001137
 31
-0.0000000000000488
210
-0.0000000000000002
220
1.0
230
-0.0000000000000002
  0
ARC
  5
7165
  8
0
  6
VERDECKT
 62
     1
 10
-16.9941909850667194
 20
204.5737405743473118
 30
0.0
 40
23.7058952308685384
210
0.0
220
-0.0000000000000002
230
-1.0
 50
179.8454733624222115
 51
201.0124127937330911
  0
ARC
  5
7166
  8
0
  6
VERDECKT
 62
     1
 10
16.99419098506689
 20
204.5737405743473118
 30
0.0
 40
23.7058952308685384
210
0.0
220
-0.0000000000000002
230
-1.0
 50
338.9875872062668236
 51
0.1545266375777181
  0
ARC
  5
7167
  8
0
  6
VERDECKT
 62
     1
 10
-51.8999999999706318
 20
191.1281710573175872
 30
0.0
 40
13.6999999999710997
210
0.0
220
-0.0000000000000002
230
-1.0
 50
359.9999999999831175
 51
21.160016770849289
  0
ARC
  5
7168
  8
0
  6
VERDECKT
 62
     1
 10
51.8999999999707669
 20
191.1281710573175872
 30
0.0
 40
13.6999999999710997
210
0.0
220
-0.0000000000000002
230
-1.0
 50
158.8399832291507039
 51
180.0000000000167972
  0
LINE
  5
7169
  8
0
  6
VERDECKT
 62
     1
 10
-38.1999999999996618
 20
170.8515060100291123
 30
-0.0000000000000379
 11
-38.1999999999996689
 21
191.1281710573134944
 31
-0.0000000000000424
210
-0.0000000000000002
220
1.0
230
-0.0000000000000002
  0
LINE
  5
716A
  8
0
  6
VERDECKT
 62
     1
 10
38.199999999999541
 20
170.8515060100291123
 30
-0.0000000000000379
 11
38.1999999999995268
 21
191.1281710573134944
 31
-0.0000000000000424
210
-0.0000000000000002
220
1.0
230
-0.0000000000000002
  0
ARC
  5
716B
  8
0
  6
VERDECKT
 62
     1
 10
-27.4999999999947491
 20
170.8515060100311871
 30
0.0
 40
10.7000000000047599
210
0.0
220
-0.0000000000000002
230
-1.0
 50
180.0000000000111982
 51
211.3206695884101123
  0
ARC
  5
716C
  8
0
  6
VERDECKT
 62
     1
 10
27.4999999999948912
 20
170.8515060100311871
 30
0.0
 40
10.7000000000047599
210
0.0
220
-0.0000000000000002
230
-1.0
 50
328.679330411589774
 51
359.9999999999888018
  0
ARC
  5
716D
  8
0
  6
VERDECKT
 62
     1
 10
-44.4999999999829967
 20
160.5069422202952865
 30
0.0
 40
9.1999999999831061
210
0.0
220
-0.0000000000000002
230
-1.0
 50
0.0
 51
31.3206695884721
  0
ARC
  5
716E
  8
0
  6
VERDECKT
 62
     1
 10
44.4999999999828688
 20
160.5069422202954001
 30
0.0
 40
9.1999999999828521
210
0.0
220
-0.0000000000000002
230
-1.0
 50
148.6793304115666956
 51
180.0000000000397051
  0
ARC
  5
716F
  8
0
  6
VERDECKT
 62
     1
 10
-44.4999999999829328
 20
160.5069422202952865
 30
0.0
 40
7.9999999999829914
210
0.0
220
-0.0000000000000002
230
-1.0
 50
359.9999999999545821
 51
31.3206695884371484
  0
ARC
  5
7170
  8
0
  6
VERDECKT
 62
     1
 10
44.4999999999830607
 20
160.5069422202952865
 30
0.0
 40
7.9999999999829976
210
0.0
220
-0.0000000000000002
230
-1.0
 50
148.6793304115628018
 51
180.0000000000453042
  0
ARC
  5
7171
  8
0
  6
VERDECKT
 62
     1
 10
-27.4999999999919282
 20
170.8515060100322103
 30
0.0
 40
11.9000000000076405
210
0.0
220
-0.0000000000000002
230
-1.0
 50
180.0000000000144098
 51
211.3206695884061901
  0
ARC
  5
7172
  8
0
  6
VERDECKT
 62
     1
 10
27.4999999999920703
 20
170.8515060100322103
 30
0.0
 40
11.9000000000076405
210
0.0
220
-0.0000000000000002
230
-1.0
 50
328.6793304115938099
 51
359.9999999999855049
  0
LINE
  5
7173
  8
0
  6
VERDECKT
 62
     1
 10
-39.3999999999997073
 20
170.8515060100291123
 30
-0.0000000000000379
 11
-39.3999999999997073
 21
191.1281710573140913
 31
-0.0000000000000424
210
-0.0000000000000002
220
1.0
230
-0.0000000000000002
  0
LINE
  5
7174
  8
0
  6
VERDECKT
 62
     1
 10
39.3999999999995794
 20
170.8515060100291123
 30
-0.0000000000000379
 11
39.3999999999995723
 21
191.1281710573140913
 31
-0.0000000000000424
210
-0.0000000000000002
220
1.0
230
-0.0000000000000002
  0
ARC
  5
7175
  8
0
  6
VERDECKT
 62
     1
 10
-51.8999999999661128
 20
191.1281710573207988
 30
0.0
 40
12.4999999999665299
210
0.0
220
-0.0000000000000002
230
-1.0
 50
0.0
 51
21.1668520398420696
  0
ARC
  5
7176
  8
0
  6
VERDECKT
 62
     1
 10
51.8999999999662478
 20
191.1281710573207988
 30
0.0
 40
12.4999999999665192
210
0.0
220
-0.0000000000000002
230
-1.0
 50
158.8331479601885121
 51
180.0000000000306102
  0
ARC
  5
7177
  8
0
  6
VERDECKT
 62
     1
 10
-16.9941909850609392
 20
204.5737405743483066
 30
0.0
 40
24.9058952308743891
210
0.0
220
-0.0000000000000002
230
-1.0
 50
179.8492419712250978
 51
201.0160940109917078
  0
ARC
  5
7178
  8
0
  6
VERDECKT
 62
     1
 10
16.9941909850611097
 20
204.5737405743483066
 30
0.0
 40
24.9058952308743891
210
0.0
220
-0.0000000000000002
230
-1.0
 50
338.9839059890081785
 51
0.1507580287747676
  0
LINE
  5
7179
  8
0
  6
VERDECKT
 62
     1
 10
-41.8999999999997215
 20
204.6392734874040968
 30
-0.0000000000000454
 11
-41.8999999999997286
 21
220.0000000000001137
 31
-0.0000000000000488
210
-0.0000000000000002
220
1.0
230
-0.0000000000000002
  0
LINE
  5
717A
  8
0
  6
VERDECKT
 62
     1
 10
41.8999999999995509
 20
204.6392734874040968
 30
-0.0000000000000454
 11
41.8999999999995509
 21
220.0000000000001137
 31
-0.0000000000000488
210
-0.0000000000000002
220
1.0
230
-0.0000000000000002
  0
LINE
  5
717B
  8
0
  6
VERDECKT
 62
     1
 10
34.6921457176084829
 20
0.1045868912972408
 30
0.0
 11
35.8875793553185218
 21
0.0000000000000102
 31
0.0
210
-0.0000000000000002
220
1.0
230
-0.0000000000000002
  0
LINE
  5
717C
  8
0
  6
VERDECKT
 62
     1
 10
-34.6921457176084829
 20
0.1045868912972212
 30
0.0
 11
-35.8875793553185218
 21
-0.0000000000000102
 31
0.0
210
-0.0000000000000002
220
1.0
230
-0.0000000000000002
  0
LINE
  5
717D
  8
0
  6
VERDECKT
 62
     1
 10
-58.4999999999999787
 20
220.0000000000001137
 30
-0.0000000000000488
 11
-0.0000000000000915
 21
220.0000000000001137
 31
-0.0000000000000488
210
-0.0000000000000002
220
1.0
230
-0.0000000000000002
  0
LINE
  5
717E
  8
0
  6
VERDECKT
 62
     1
 10
-0.0000000000000743
 20
220.0000000000001137
 30
-0.0000000000000488
 11
58.4999999999998082
 21
220.0000000000001137
 31
-0.0000000000000488
210
-0.0000000000000002
220
1.0
230
-0.0000000000000002
  0
LINE
  5
717F
  8
0
  6
VERDECKT
 62
     1
 10
-58.4999999999999787
 20
221.9999999999998863
 30
-0.0000000000000493
 11
-0.0000000000000919
 21
221.9999999999998863
 31
-0.0000000000000493
210
-0.0000000000000002
220
1.0
230
-0.0000000000000002
  0
LINE
  5
7180
  8
0
  6
VERDECKT
 62
     1
 10
-0.0000000000000749
 20
221.9999999999998863
 30
-0.0000000000000493
 11
58.4999999999998082
 21
221.9999999999998863
 31
-0.0000000000000493
210
-0.0000000000000002
220
1.0
230
-0.0000000000000002
  0
LINE
  5
7181
  8
0
  6
VERDECKT
 62
     1
 10
-61.5169841178316972
 20
220.8136904418699942
 30
-0.000000000000049
 11
-65.2753327585627972
 21
223.000000000000199
 31
-0.0000000000000495
210
-0.0000000000000002
220
1.0
230
-0.0000000000000002
  0
LINE
  5
7182
  8
0
  6
VERDECKT
 62
     1
 10
61.5169841178315195
 20
220.8136904418699942
 30
-0.000000000000049
 11
65.2753327585626124
 21
223.0000000000003126
 31
-0.0000000000000495
210
-0.0000000000000002
220
1.0
230
-0.0000000000000002
  0
ARC
  5
7183
  8
0
  6
VERDECKT
 62
     1
 10
58.5000000000000071
 20
226.0000000000005116
 30
0.0
 40
6.0000000000003419
210
0.0
220
-0.0000000000000002
230
-1.0
 50
270.0
 51
300.1874540748192999
  0
ARC
  5
7184
  8
0
  6
VERDECKT
 62
     1
 10
-58.4999999999998295
 20
226.0000000000005116
 30
0.0
 40
6.0000000000003437
210
0.0
220
-0.0000000000000002
230
-1.0
 50
239.8125459251808991
 51
270.0000000000002274
  0
LINE
  5
7185
  8
0
  6
VERDECKT
 62
     1
 10
37.7999999999998835
 20
222.0
 30
-0.0000000000000493
 11
37.7999999999998835
 21
220.0
 31
-0.0000000000000488
210
-0.0000000000000002
220
1.0
230
-0.0000000000000002
  0
LINE
  5
7186
  8
0
  6
VERDECKT
 62
     1
 10
-37.8000000000000469
 20
222.0
 30
-0.0000000000000493
 11
-37.8000000000000469
 21
220.0
 31
-0.0000000000000488
210
-0.0000000000000002
220
1.0
230
-0.0000000000000002
  0
ARC
  5
7187
  8
0
  6
VERDECKT
 62
     1
 10
58.4999999999997726
 20
226.0000000000005969
 30
0.0
 40
4.00000000000054
210
0.0
220
-0.0000000000000002
230
-1.0
 50
270.0
 51
300.1874540748210052
  0
ARC
  5
7188
  8
0
  6
VERDECKT
 62
     1
 10
-58.4999999999996021
 20
226.0000000000005969
 30
0.0
 40
4.00000000000054
210
0.0
220
-0.0000000000000002
230
-1.0
 50
239.8125459251758969
 51
269.9999999999968736
  0
LINE
  5
7189
  8
0
  6
VERDECKT
 62
     1
 10
-60.5113227452213494
 20
222.5424602945801951
 30
-0.0000000000000494
 11
-98.3867725477865633
 21
244.5753970541991862
 31
-0.0000000000000543
210
-0.0000000000000002
220
1.0
230
-0.0000000000000002
  0
LINE
  5
718A
  8
0
  6
VERDECKT
 62
     1
 10
60.5113227452211788
 20
222.5424602945801951
 30
-0.0000000000000494
 11
98.3867725477863644
 21
244.5753970541991862
 31
-0.0000000000000543
210
-0.0000000000000002
220
1.0
230
-0.0000000000000002
  0
ARC
  5
718B
  8
0
  6
VERDECKT
 62
     1
 10
118.5000000000000995
 20
209.9999999999990905
 30
0.0
 40
40.0000000000008029
210
0.0
220
-0.0000000000000002
230
-1.0
 50
90.0000000000004832
 51
120.1874540748239042
  0
ARC
  5
718C
  8
0
  6
VERDECKT
 62
     1
 10
-118.4999999999999005
 20
209.9999999999994884
 30
0.0
 40
40.0000000000004334
210
0.0
220
-0.0000000000000002
230
-1.0
 50
59.812545925175769
 51
89.9999999999995453
  0
LINE
  5
718D
  8
0
  6
VERDECKT
 62
     1
 10
-36.4962323052838613
 20
71.4113290991517857
 30
-0.0000000000000159
 11
36.4962323052838329
 21
71.4113290991518141
 31
-0.0000000000000159
210
-0.0000000000000002
220
1.0
230
-0.0000000000000002
  0
LINE
  5
718E
  8
0
  6
VERDECKT
 62
     1
 10
-42.4999999999999716
 20
64.99999999999973
 30
-0.0000000000000144
 11
-0.0000000000000357
 21
64.9999999999996305
 31
-0.0000000000000144
210
-0.0000000000000002
220
1.0
230
-0.0000000000000002
  0
LINE
  5
718F
  8
0
  6
VERDECKT
 62
     1
 10
-0.0000000000000229
 20
64.9999999999996732
 30
-0.0000000000000144
 11
42.4999999999999716
 21
64.9999999999997584
 31
-0.0000000000000144
210
-0.0000000000000002
220
1.0
230
-0.0000000000000002
  0
LINE
  5
7190
  8
0
  6
VERDECKT
 62
     1
 10
-47.5000000000000213
 20
86.9999999999981242
 30
-0.0000000000000193
 11
-0.0000000000000406
 21
86.9999999999980531
 31
-0.0000000000000193
210
-0.0000000000000002
220
1.0
230
-0.0000000000000002
  0
LINE
  5
7191
  8
0
  6
VERDECKT
 62
     1
 10
-0.0000000000000223
 20
86.9999999999980247
 30
-0.0000000000000193
 11
47.4999999999999574
 21
86.999999999998181
 31
-0.0000000000000193
210
-0.0000000000000002
220
1.0
230
-0.0000000000000002
  0
LINE
  5
7192
  8
0
  6
VERDECKT
 62
     1
 10
-47.50000000000027
 20
153.0
 30
-0.000000000000034
 11
-0.0000000000000553
 21
152.9999999999998863
 31
-0.000000000000034
210
-0.0000000000000002
220
1.0
230
-0.0000000000000002
  0
LINE
  5
7193
  8
0
  6
VERDECKT
 62
     1
 10
-0.0000000000000412
 20
152.9999999999998863
 30
-0.000000000000034
 11
47.5000000000001634
 21
153.0
 31
-0.000000000000034
210
-0.0000000000000002
220
1.0
230
-0.0000000000000002
  0
LINE
  5
7194
  8
0
  6
VERDECKT
 62
     1
 10
-53.5000000000001208
 20
158.9999999999998863
 30
-0.0000000000000353
 11
-0.0000000000000566
 21
158.999999999999801
 31
-0.0000000000000353
210
-0.0000000000000002
220
1.0
230
-0.0000000000000002
  0
LINE
  5
7195
  8
0
  6
VERDECKT
 62
     1
 10
-0.0000000000000458
 20
158.999999999999801
 30
-0.0000000000000353
 11
53.4999999999999574
 21
158.9999999999998863
 31
-0.0000000000000353
210
-0.0000000000000002
220
1.0
230
-0.0000000000000002
  0
LINE
  5
7196
  8
0
  6
VERDECKT
 62
     1
 10
-53.5000000000000426
 20
213.000000000000199
 30
-0.0000000000000473
 11
-0.0000000000000757
 21
213.0000000000001137
 31
-0.0000000000000473
210
-0.0000000000000002
220
1.0
230
-0.0000000000000002
  0
LINE
  5
7197
  8
0
  6
VERDECKT
 62
     1
 10
-0.0000000000000664
 20
213.0000000000001137
 30
-0.0000000000000473
 11
53.4999999999998224
 21
213.000000000000199
 31
-0.0000000000000473
210
-0.0000000000000002
220
1.0
230
-0.0000000000000002
  0
LINE
  5
7198
  8
0
  6
VERDECKT
 62
     1
 10
-36.4962323052838613
 20
64.9999999999995595
 30
-0.0000000000000144
 11
-36.4962323052838613
 21
71.4113290991517857
 31
-0.0000000000000159
210
-0.0000000000000002
220
1.0
230
-0.0000000000000002
  0
LINE
  5
7199
  8
0
  6
VERDECKT
 62
     1
 10
36.4962323052838329
 20
64.9999999999995879
 30
-0.0000000000000144
 11
36.4962323052838329
 21
71.4113290991518141
 31
-0.0000000000000159
210
-0.0000000000000002
220
1.0
230
-0.0000000000000002
  0
LINE
  5
719A
  8
0
  6
VERDECKT
 62
     1
 10
42.4999999999999716
 20
64.9999999999997584
 30
-0.0000000000000144
 11
42.4999999999999716
 21
62.9999999999998082
 31
-0.000000000000014
210
-0.0000000000000002
220
1.0
230
-0.0000000000000002
  0
LINE
  5
719B
  8
0
  6
VERDECKT
 62
     1
 10
-42.5000000000000426
 20
64.99999999999973
 30
-0.0000000000000144
 11
-42.5000000000000426
 21
62.9999999999997868
 31
-0.000000000000014
210
-0.0000000000000002
220
1.0
230
-0.0000000000000002
  0
LINE
  5
719C
  8
0
  6
VERDECKT
 62
     1
 10
-36.4962323052838684
 20
71.4113290991517715
 30
-0.0000000000000159
 11
-47.5000000000000426
 21
86.9999999999981668
 31
-0.0000000000000193
210
-0.0000000000000002
220
1.0
230
-0.0000000000000002
  0
LINE
  5
719D
  8
0
  6
VERDECKT
 62
     1
 10
36.4962323052838187
 20
71.4113290991518284
 30
-0.0000000000000159
 11
47.4999999999999503
 21
86.9999999999981952
 31
-0.0000000000000193
210
-0.0000000000000002
220
1.0
230
-0.0000000000000002
  0
LINE
  5
719E
  8
0
  6
VERDECKT
 62
     1
 10
47.5000000000000568
 20
153.0
 30
-0.000000000000034
 11
47.5000000000000711
 21
86.999999999998181
 31
-0.0000000000000193
210
-0.0000000000000002
220
1.0
230
-0.0000000000000002
  0
LINE
  5
719F
  8
0
  6
VERDECKT
 62
     1
 10
-47.5000000000001705
 20
153.0
 30
-0.000000000000034
 11
-47.5000000000001634
 21
86.9999999999981668
 31
-0.0000000000000193
210
-0.0000000000000002
220
1.0
230
-0.0000000000000002
  0
LINE
  5
71A0
  8
0
  6
VERDECKT
 62
     1
 10
-47.5000000000003126
 20
153.0
 30
-0.000000000000034
 11
-53.5000000000001066
 21
158.9999999999998863
 31
-0.0000000000000353
210
-0.0000000000000002
220
1.0
230
-0.0000000000000002
  0
LINE
  5
71A1
  8
0
  6
VERDECKT
 62
     1
 10
47.500000000000199
 20
153.0
 30
-0.000000000000034
 11
53.4999999999999929
 21
158.9999999999998863
 31
-0.0000000000000353
210
-0.0000000000000002
220
1.0
230
-0.0000000000000002
  0
LINE
  5
71A2
  8
0
  6
VERDECKT
 62
     1
 10
53.4999999999998224
 20
213.000000000000199
 30
-0.0000000000000473
 11
53.4999999999998295
 21
158.9999999999998863
 31
-0.0000000000000353
210
-0.0000000000000002
220
1.0
230
-0.0000000000000002
  0
LINE
  5
71A3
  8
0
  6
VERDECKT
 62
     1
 10
-53.4999999999999716
 20
213.000000000000199
 30
-0.0000000000000473
 11
-53.4999999999999574
 21
158.9999999999998863
 31
-0.0000000000000353
210
-0.0000000000000002
220
1.0
230
-0.0000000000000002
  0
LINE
  5
71A4
  8
0
  6
VERDECKT
 62
     1
 10
-53.4999999999999076
 20
213.0000000000003126
 30
-0.0000000000000473
 11
-64.9999999999998437
 21
223.000000000000199
 31
-0.0000000000000495
210
-0.0000000000000002
220
1.0
230
-0.0000000000000002
  0
LINE
  5
71A5
  8
0
  6
VERDECKT
 62
     1
 10
53.4999999999997584
 20
213.0000000000003126
 30
-0.0000000000000473
 11
64.9999999999997016
 21
223.0000000000003126
 31
-0.0000000000000495
210
-0.0000000000000002
220
1.0
230
-0.0000000000000002
  0
LINE
  5
71A6
  8
0
  6
VERDECKT
 62
     1
 10
-55.0000000000000284
 20
235.0000000000003126
 30
-0.0000000000000522
 11
-47.0000000000000213
 21
235.0000000000003126
 31
-0.0000000000000522
210
-0.0000000000000002
220
1.0
230
-0.0000000000000002
  0
LINE
  5
71A7
  8
0
  6
VERDECKT
 62
     1
 10
-54.0000000000000284
 20
234.0000000000003126
 30
-0.000000000000052
 11
-48.0000000000000284
 21
234.0000000000003126
 31
-0.000000000000052
210
-0.0000000000000002
220
1.0
230
-0.0000000000000002
  0
LINE
  5
71A8
  8
0
  6
VERDECKT
 62
     1
 10
-55.0000000000000284
 20
233.0000000000003126
 30
-0.0000000000000517
 11
-47.0000000000000213
 21
233.0000000000003126
 31
-0.0000000000000517
210
-0.0000000000000002
220
1.0
230
-0.0000000000000002
  0
LINE
  5
71A9
  8
0
  6
VERDECKT
 62
     1
 10
-54.0000000000000284
 20
232.0000000000003126
 30
-0.0000000000000515
 11
-48.0000000000000284
 21
232.0000000000003126
 31
-0.0000000000000515
210
-0.0000000000000002
220
1.0
230
-0.0000000000000002
  0
LINE
  5
71AA
  8
0
  6
VERDECKT
 62
     1
 10
-55.0000000000000284
 20
231.0000000000003126
 30
-0.0000000000000513
 11
-47.0000000000000213
 21
231.0000000000003126
 31
-0.0000000000000513
210
-0.0000000000000002
220
1.0
230
-0.0000000000000002
  0
LINE
  5
71AB
  8
0
  6
VERDECKT
 62
     1
 10
-54.0000000000000284
 20
230.0000000000003126
 30
-0.0000000000000511
 11
-48.0000000000000284
 21
230.0000000000003126
 31
-0.0000000000000511
210
-0.0000000000000002
220
1.0
230
-0.0000000000000002
  0
LINE
  5
71AC
  8
0
  6
VERDECKT
 62
     1
 10
-55.0000000000000284
 20
229.0000000000003126
 30
-0.0000000000000508
 11
-47.0000000000000213
 21
229.0000000000003126
 31
-0.0000000000000508
210
-0.0000000000000002
220
1.0
230
-0.0000000000000002
  0
LINE
  5
71AD
  8
0
  6
VERDECKT
 62
     1
 10
-54.0000000000000284
 20
228.0000000000003126
 30
-0.0000000000000506
 11
-48.0000000000000284
 21
228.0000000000003126
 31
-0.0000000000000506
210
-0.0000000000000002
220
1.0
230
-0.0000000000000002
  0
LINE
  5
71AE
  8
0
  6
VERDECKT
 62
     1
 10
-55.0000000000000284
 20
227.0000000000003126
 30
-0.0000000000000504
 11
-47.0000000000000213
 21
227.0000000000003126
 31
-0.0000000000000504
210
-0.0000000000000002
220
1.0
230
-0.0000000000000002
  0
LINE
  5
71AF
  8
0
  6
VERDECKT
 62
     1
 10
-54.0000000000000284
 20
226.0000000000003126
 30
-0.0000000000000502
 11
-48.0000000000000284
 21
226.0000000000003126
 31
-0.0000000000000502
210
-0.0000000000000002
220
1.0
230
-0.0000000000000002
  0
LINE
  5
71B0
  8
0
  6
VERDECKT
 62
     1
 10
-55.0000000000000284
 20
225.0000000000003126
 30
-0.00000000000005
 11
-47.0000000000000213
 21
225.0000000000003126
 31
-0.00000000000005
210
-0.0000000000000002
220
1.0
230
-0.0000000000000002
  0
LINE
  5
71B1
  8
0
  6
VERDECKT
 62
     1
 10
-54.0000000000000284
 20
224.0000000000003126
 30
-0.0000000000000497
 11
-48.0000000000000284
 21
224.0000000000003126
 31
-0.0000000000000497
210
-0.0000000000000002
220
1.0
230
-0.0000000000000002
  0
LINE
  5
71B2
  8
0
  6
VERDECKT
 62
     1
 10
-54.0000000000000426
 20
242.0000000000003126
 30
-0.0000000000000537
 11
-48.0000000000000426
 21
242.0000000000003126
 31
-0.0000000000000537
210
-0.0000000000000002
220
1.0
230
-0.0000000000000002
  0
LINE
  5
71B3
  8
0
  6
VERDECKT
 62
     1
 10
-55.0000000000000426
 20
241.0000000000003126
 30
-0.0000000000000535
 11
-47.0000000000000284
 21
241.0000000000003126
 31
-0.0000000000000535
210
-0.0000000000000002
220
1.0
230
-0.0000000000000002
  0
LINE
  5
71B4
  8
0
  6
VERDECKT
 62
     1
 10
-54.0000000000000426
 20
240.0000000000003126
 30
-0.0000000000000533
 11
-48.0000000000000426
 21
240.0000000000003126
 31
-0.0000000000000533
210
-0.0000000000000002
220
1.0
230
-0.0000000000000002
  0
LINE
  5
71B5
  8
0
  6
VERDECKT
 62
     1
 10
-55.0000000000000284
 20
239.0000000000003126
 30
-0.0000000000000531
 11
-47.0000000000000213
 21
239.0000000000003126
 31
-0.0000000000000531
210
-0.0000000000000002
220
1.0
230
-0.0000000000000002
  0
LINE
  5
71B6
  8
0
  6
VERDECKT
 62
     1
 10
-54.0000000000000284
 20
238.0000000000003126
 30
-0.0000000000000528
 11
-48.0000000000000284
 21
238.0000000000003126
 31
-0.0000000000000528
210
-0.0000000000000002
220
1.0
230
-0.0000000000000002
  0
LINE
  5
71B7
  8
0
  6
VERDECKT
 62
     1
 10
-55.0000000000000284
 20
237.0000000000003126
 30
-0.0000000000000526
 11
-47.0000000000000213
 21
237.0000000000003126
 31
-0.0000000000000526
210
-0.0000000000000002
220
1.0
230
-0.0000000000000002
  0
LINE
  5
71B8
  8
0
  6
VERDECKT
 62
     1
 10
-54.0000000000000284
 20
236.0000000000003126
 30
-0.0000000000000524
 11
-48.0000000000000284
 21
236.0000000000003126
 31
-0.0000000000000524
210
-0.0000000000000002
220
1.0
230
-0.0000000000000002
  0
LINE
  5
71B9
  8
0
  6
VERDECKT
 62
     1
 10
-54.0000000000000284
 20
234.0000000000003126
 30
-0.000000000000052
 11
-55.0000000000000284
 21
235.0000000000003126
 31
-0.0000000000000522
210
-0.0000000000000002
220
1.0
230
-0.0000000000000002
  0
LINE
  5
71BA
  8
0
  6
VERDECKT
 62
     1
 10
-48.0000000000000284
 20
234.0000000000003126
 30
-0.000000000000052
 11
-47.0000000000000213
 21
235.0000000000003126
 31
-0.0000000000000522
210
-0.0000000000000002
220
1.0
230
-0.0000000000000002
  0
LINE
  5
71BB
  8
0
  6
VERDECKT
 62
     1
 10
-48.0000000000000284
 20
234.0000000000003126
 30
-0.000000000000052
 11
-47.0000000000000213
 21
233.0000000000003126
 31
-0.0000000000000517
210
-0.0000000000000002
220
1.0
230
-0.0000000000000002
  0
LINE
  5
71BC
  8
0
  6
VERDECKT
 62
     1
 10
-54.0000000000000284
 20
234.0000000000003126
 30
-0.000000000000052
 11
-55.0000000000000284
 21
233.0000000000003126
 31
-0.0000000000000517
210
-0.0000000000000002
220
1.0
230
-0.0000000000000002
  0
LINE
  5
71BD
  8
0
  6
VERDECKT
 62
     1
 10
-54.0000000000000284
 20
232.0000000000003126
 30
-0.0000000000000515
 11
-55.0000000000000284
 21
233.0000000000003126
 31
-0.0000000000000517
210
-0.0000000000000002
220
1.0
230
-0.0000000000000002
  0
LINE
  5
71BE
  8
0
  6
VERDECKT
 62
     1
 10
-48.0000000000000284
 20
232.0000000000003126
 30
-0.0000000000000515
 11
-47.0000000000000213
 21
233.0000000000003126
 31
-0.0000000000000517
210
-0.0000000000000002
220
1.0
230
-0.0000000000000002
  0
LINE
  5
71BF
  8
0
  6
VERDECKT
 62
     1
 10
-48.0000000000000284
 20
232.0000000000003126
 30
-0.0000000000000515
 11
-47.0000000000000213
 21
231.0000000000003126
 31
-0.0000000000000513
210
-0.0000000000000002
220
1.0
230
-0.0000000000000002
  0
LINE
  5
71C0
  8
0
  6
VERDECKT
 62
     1
 10
-54.0000000000000284
 20
232.0000000000003126
 30
-0.0000000000000515
 11
-55.0000000000000284
 21
231.0000000000003126
 31
-0.0000000000000513
210
-0.0000000000000002
220
1.0
230
-0.0000000000000002
  0
LINE
  5
71C1
  8
0
  6
VERDECKT
 62
     1
 10
-54.0000000000000284
 20
230.0000000000003126
 30
-0.0000000000000511
 11
-55.0000000000000284
 21
231.0000000000003126
 31
-0.0000000000000513
210
-0.0000000000000002
220
1.0
230
-0.0000000000000002
  0
LINE
  5
71C2
  8
0
  6
VERDECKT
 62
     1
 10
-48.0000000000000284
 20
230.0000000000003126
 30
-0.0000000000000511
 11
-47.0000000000000213
 21
231.0000000000003126
 31
-0.0000000000000513
210
-0.0000000000000002
220
1.0
230
-0.0000000000000002
  0
LINE
  5
71C3
  8
0
  6
VERDECKT
 62
     1
 10
-48.0000000000000284
 20
230.0000000000003126
 30
-0.0000000000000511
 11
-47.0000000000000213
 21
229.0000000000003126
 31
-0.0000000000000508
210
-0.0000000000000002
220
1.0
230
-0.0000000000000002
  0
LINE
  5
71C4
  8
0
  6
VERDECKT
 62
     1
 10
-54.0000000000000284
 20
230.0000000000003126
 30
-0.0000000000000511
 11
-55.0000000000000284
 21
229.0000000000003126
 31
-0.0000000000000508
210
-0.0000000000000002
220
1.0
230
-0.0000000000000002
  0
LINE
  5
71C5
  8
0
  6
VERDECKT
 62
     1
 10
-54.0000000000000284
 20
228.0000000000003126
 30
-0.0000000000000506
 11
-55.0000000000000284
 21
229.0000000000003126
 31
-0.0000000000000508
210
-0.0000000000000002
220
1.0
230
-0.0000000000000002
  0
LINE
  5
71C6
  8
0
  6
VERDECKT
 62
     1
 10
-48.0000000000000284
 20
228.0000000000003126
 30
-0.0000000000000506
 11
-47.0000000000000213
 21
229.0000000000003126
 31
-0.0000000000000508
210
-0.0000000000000002
220
1.0
230
-0.0000000000000002
  0
LINE
  5
71C7
  8
0
  6
VERDECKT
 62
     1
 10
-48.0000000000000284
 20
228.0000000000003126
 30
-0.0000000000000506
 11
-47.0000000000000213
 21
227.0000000000003126
 31
-0.0000000000000504
210
-0.0000000000000002
220
1.0
230
-0.0000000000000002
  0
LINE
  5
71C8
  8
0
  6
VERDECKT
 62
     1
 10
-54.0000000000000284
 20
228.0000000000003126
 30
-0.0000000000000506
 11
-55.0000000000000284
 21
227.0000000000003126
 31
-0.0000000000000504
210
-0.0000000000000002
220
1.0
230
-0.0000000000000002
  0
LINE
  5
71C9
  8
0
  6
VERDECKT
 62
     1
 10
-54.0000000000000284
 20
226.0000000000003126
 30
-0.0000000000000502
 11
-55.0000000000000284
 21
227.0000000000003126
 31
-0.0000000000000504
210
-0.0000000000000002
220
1.0
230
-0.0000000000000002
  0
LINE
  5
71CA
  8
0
  6
VERDECKT
 62
     1
 10
-48.0000000000000284
 20
226.0000000000003126
 30
-0.0000000000000502
 11
-47.0000000000000213
 21
227.0000000000003126
 31
-0.0000000000000504
210
-0.0000000000000002
220
1.0
230
-0.0000000000000002
  0
LINE
  5
71CB
  8
0
  6
VERDECKT
 62
     1
 10
-48.0000000000000284
 20
226.0000000000003126
 30
-0.0000000000000502
 11
-47.0000000000000213
 21
225.0000000000003126
 31
-0.00000000000005
210
-0.0000000000000002
220
1.0
230
-0.0000000000000002
  0
LINE
  5
71CC
  8
0
  6
VERDECKT
 62
     1
 10
-54.0000000000000284
 20
226.0000000000003126
 30
-0.0000000000000502
 11
-55.0000000000000284
 21
225.0000000000003126
 31
-0.00000000000005
210
-0.0000000000000002
220
1.0
230
-0.0000000000000002
  0
LINE
  5
71CD
  8
0
  6
VERDECKT
 62
     1
 10
-54.0000000000000284
 20
224.0000000000003126
 30
-0.0000000000000497
 11
-55.0000000000000284
 21
225.0000000000003126
 31
-0.00000000000005
210
-0.0000000000000002
220
1.0
230
-0.0000000000000002
  0
LINE
  5
71CE
  8
0
  6
VERDECKT
 62
     1
 10
-48.0000000000000284
 20
224.0000000000003126
 30
-0.0000000000000497
 11
-47.0000000000000213
 21
225.0000000000003126
 31
-0.00000000000005
210
-0.0000000000000002
220
1.0
230
-0.0000000000000002
  0
LINE
  5
71CF
  8
0
  6
VERDECKT
 62
     1
 10
-48.0000000000000284
 20
224.0000000000003126
 30
-0.0000000000000497
 11
-47.0000000000000213
 21
223.0000000000003126
 31
-0.0000000000000495
210
-0.0000000000000002
220
1.0
230
-0.0000000000000002
  0
LINE
  5
71D0
  8
0
  6
VERDECKT
 62
     1
 10
-54.0000000000000284
 20
224.0000000000003126
 30
-0.0000000000000497
 11
-55.0000000000000284
 21
223.0000000000003126
 31
-0.0000000000000495
210
-0.0000000000000002
220
1.0
230
-0.0000000000000002
  0
LINE
  5
71D1
  8
0
  6
VERDECKT
 62
     1
 10
-54.0000000000000284
 20
222.000000000000199
 30
-0.0000000000000493
 11
-55.0000000000000284
 21
223.0000000000003126
 31
-0.0000000000000495
210
-0.0000000000000002
220
1.0
230
-0.0000000000000002
  0
LINE
  5
71D2
  8
0
  6
VERDECKT
 62
     1
 10
-48.0000000000000284
 20
222.000000000000199
 30
-0.0000000000000493
 11
-47.0000000000000213
 21
223.0000000000003126
 31
-0.0000000000000495
210
-0.0000000000000002
220
1.0
230
-0.0000000000000002
  0
LINE
  5
71D3
  8
0
  6
VERDECKT
 62
     1
 10
-48.0000000000000426
 20
242.0000000000003126
 30
-0.0000000000000537
 11
-47.0000000000000284
 21
241.0000000000003126
 31
-0.0000000000000535
210
-0.0000000000000002
220
1.0
230
-0.0000000000000002
  0
LINE
  5
71D4
  8
0
  6
VERDECKT
 62
     1
 10
-54.0000000000000426
 20
242.0000000000003126
 30
-0.0000000000000537
 11
-55.0000000000000426
 21
241.0000000000003126
 31
-0.0000000000000535
210
-0.0000000000000002
220
1.0
230
-0.0000000000000002
  0
LINE
  5
71D5
  8
0
  6
VERDECKT
 62
     1
 10
-54.0000000000000426
 20
240.0000000000003126
 30
-0.0000000000000533
 11
-55.0000000000000426
 21
241.0000000000003126
 31
-0.0000000000000535
210
-0.0000000000000002
220
1.0
230
-0.0000000000000002
  0
LINE
  5
71D6
  8
0
  6
VERDECKT
 62
     1
 10
-48.0000000000000426
 20
240.0000000000003126
 30
-0.0000000000000533
 11
-47.0000000000000284
 21
241.0000000000003126
 31
-0.0000000000000535
210
-0.0000000000000002
220
1.0
230
-0.0000000000000002
  0
LINE
  5
71D7
  8
0
  6
VERDECKT
 62
     1
 10
-48.0000000000000426
 20
240.0000000000003126
 30
-0.0000000000000533
 11
-47.0000000000000213
 21
239.0000000000003126
 31
-0.0000000000000531
210
-0.0000000000000002
220
1.0
230
-0.0000000000000002
  0
LINE
  5
71D8
  8
0
  6
VERDECKT
 62
     1
 10
-54.0000000000000426
 20
240.0000000000003126
 30
-0.0000000000000533
 11
-55.0000000000000284
 21
239.0000000000003126
 31
-0.0000000000000531
210
-0.0000000000000002
220
1.0
230
-0.0000000000000002
  0
LINE
  5
71D9
  8
0
  6
VERDECKT
 62
     1
 10
-54.0000000000000284
 20
238.0000000000003126
 30
-0.0000000000000528
 11
-55.0000000000000284
 21
239.0000000000003126
 31
-0.0000000000000531
210
-0.0000000000000002
220
1.0
230
-0.0000000000000002
  0
LINE
  5
71DA
  8
0
  6
VERDECKT
 62
     1
 10
-48.0000000000000284
 20
238.0000000000003126
 30
-0.0000000000000528
 11
-47.0000000000000213
 21
239.0000000000003126
 31
-0.0000000000000531
210
-0.0000000000000002
220
1.0
230
-0.0000000000000002
  0
LINE
  5
71DB
  8
0
  6
VERDECKT
 62
     1
 10
-48.0000000000000284
 20
238.0000000000003126
 30
-0.0000000000000528
 11
-47.0000000000000213
 21
237.0000000000003126
 31
-0.0000000000000526
210
-0.0000000000000002
220
1.0
230
-0.0000000000000002
  0
LINE
  5
71DC
  8
0
  6
VERDECKT
 62
     1
 10
-54.0000000000000284
 20
238.0000000000003126
 30
-0.0000000000000528
 11
-55.0000000000000284
 21
237.0000000000003126
 31
-0.0000000000000526
210
-0.0000000000000002
220
1.0
230
-0.0000000000000002
  0
LINE
  5
71DD
  8
0
  6
VERDECKT
 62
     1
 10
-54.0000000000000284
 20
236.0000000000003126
 30
-0.0000000000000524
 11
-55.0000000000000284
 21
237.0000000000003126
 31
-0.0000000000000526
210
-0.0000000000000002
220
1.0
230
-0.0000000000000002
  0
LINE
  5
71DE
  8
0
  6
VERDECKT
 62
     1
 10
-48.0000000000000284
 20
236.0000000000003126
 30
-0.0000000000000524
 11
-47.0000000000000213
 21
237.0000000000003126
 31
-0.0000000000000526
210
-0.0000000000000002
220
1.0
230
-0.0000000000000002
  0
LINE
  5
71DF
  8
0
  6
VERDECKT
 62
     1
 10
-48.0000000000000284
 20
236.0000000000003126
 30
-0.0000000000000524
 11
-47.0000000000000213
 21
235.0000000000003126
 31
-0.0000000000000522
210
-0.0000000000000002
220
1.0
230
-0.0000000000000002
  0
LINE
  5
71E0
  8
0
  6
VERDECKT
 62
     1
 10
-54.0000000000000284
 20
236.0000000000003126
 30
-0.0000000000000524
 11
-55.0000000000000284
 21
235.0000000000003126
 31
-0.0000000000000522
210
-0.0000000000000002
220
1.0
230
-0.0000000000000002
  0
LINE
  5
71E1
  8
0
  6
VERDECKT
 62
     1
 10
-4.0000000000000968
 20
235.0000000000003126
 30
-0.0000000000000522
 11
3.9999999999999041
 21
235.0000000000003126
 31
-0.0000000000000522
210
-0.0000000000000002
220
1.0
230
-0.0000000000000002
  0
LINE
  5
71E2
  8
0
  6
VERDECKT
 62
     1
 10
-3.0000000000000968
 20
234.0000000000003126
 30
-0.000000000000052
 11
2.9999999999999041
 21
234.0000000000003126
 31
-0.000000000000052
210
-0.0000000000000002
220
1.0
230
-0.0000000000000002
  0
LINE
  5
71E3
  8
0
  6
VERDECKT
 62
     1
 10
-4.0000000000000959
 20
233.0000000000003126
 30
-0.0000000000000517
 11
3.9999999999999041
 21
233.0000000000003126
 31
-0.0000000000000517
210
-0.0000000000000002
220
1.0
230
-0.0000000000000002
  0
LINE
  5
71E4
  8
0
  6
VERDECKT
 62
     1
 10
-3.0000000000000959
 20
232.0000000000003126
 30
-0.0000000000000515
 11
2.9999999999999041
 21
232.0000000000003126
 31
-0.0000000000000515
210
-0.0000000000000002
220
1.0
230
-0.0000000000000002
  0
LINE
  5
71E5
  8
0
  6
VERDECKT
 62
     1
 10
-4.0000000000000959
 20
231.0000000000003126
 30
-0.0000000000000513
 11
3.9999999999999041
 21
231.0000000000003126
 31
-0.0000000000000513
210
-0.0000000000000002
220
1.0
230
-0.0000000000000002
  0
LINE
  5
71E6
  8
0
  6
VERDECKT
 62
     1
 10
-3.0000000000000959
 20
230.0000000000003126
 30
-0.0000000000000511
 11
2.9999999999999041
 21
230.0000000000003126
 31
-0.0000000000000511
210
-0.0000000000000002
220
1.0
230
-0.0000000000000002
  0
LINE
  5
71E7
  8
0
  6
VERDECKT
 62
     1
 10
-4.000000000000095
 20
229.0000000000003126
 30
-0.0000000000000508
 11
3.999999999999905
 21
229.0000000000003126
 31
-0.0000000000000508
210
-0.0000000000000002
220
1.0
230
-0.0000000000000002
  0
LINE
  5
71E8
  8
0
  6
VERDECKT
 62
     1
 10
-3.000000000000095
 20
228.0000000000003126
 30
-0.0000000000000506
 11
2.999999999999905
 21
228.0000000000003126
 31
-0.0000000000000506
210
-0.0000000000000002
220
1.0
230
-0.0000000000000002
  0
LINE
  5
71E9
  8
0
  6
VERDECKT
 62
     1
 10
-4.000000000000095
 20
227.0000000000003126
 30
-0.0000000000000504
 11
3.999999999999905
 21
227.0000000000003126
 31
-0.0000000000000504
210
-0.0000000000000002
220
1.0
230
-0.0000000000000002
  0
LINE
  5
71EA
  8
0
  6
VERDECKT
 62
     1
 10
-3.000000000000095
 20
226.0000000000003126
 30
-0.0000000000000502
 11
2.999999999999905
 21
226.0000000000003126
 31
-0.0000000000000502
210
-0.0000000000000002
220
1.0
230
-0.0000000000000002
  0
LINE
  5
71EB
  8
0
  6
VERDECKT
 62
     1
 10
-4.000000000000095
 20
225.0000000000003126
 30
-0.00000000000005
 11
3.9999999999999059
 21
225.0000000000003126
 31
-0.00000000000005
210
-0.0000000000000002
220
1.0
230
-0.0000000000000002
  0
LINE
  5
71EC
  8
0
  6
VERDECKT
 62
     1
 10
-3.000000000000095
 20
224.0000000000003126
 30
-0.0000000000000497
 11
2.9999999999999059
 21
224.0000000000003126
 31
-0.0000000000000497
210
-0.0000000000000002
220
1.0
230
-0.0000000000000002
  0
LINE
  5
71ED
  8
0
  6
VERDECKT
 62
     1
 10
-3.000000000000099
 20
242.0000000000003126
 30
-0.0000000000000537
 11
2.9999999999999019
 21
242.0000000000003126
 31
-0.0000000000000537
210
-0.0000000000000002
220
1.0
230
-0.0000000000000002
  0
LINE
  5
71EE
  8
0
  6
VERDECKT
 62
     1
 10
-4.0000000000000977
 20
241.0000000000003126
 30
-0.0000000000000535
 11
3.9999999999999019
 21
241.0000000000003126
 31
-0.0000000000000535
210
-0.0000000000000002
220
1.0
230
-0.0000000000000002
  0
LINE
  5
71EF
  8
0
  6
VERDECKT
 62
     1
 10
-3.0000000000000981
 20
240.0000000000003126
 30
-0.0000000000000533
 11
2.9999999999999019
 21
240.0000000000003126
 31
-0.0000000000000533
210
-0.0000000000000002
220
1.0
230
-0.0000000000000002
  0
LINE
  5
71F0
  8
0
  6
VERDECKT
 62
     1
 10
-4.0000000000000977
 20
239.0000000000003126
 30
-0.0000000000000531
 11
3.9999999999999032
 21
239.0000000000003126
 31
-0.0000000000000531
210
-0.0000000000000002
220
1.0
230
-0.0000000000000002
  0
LINE
  5
71F1
  8
0
  6
VERDECKT
 62
     1
 10
-3.0000000000000981
 20
238.0000000000003126
 30
-0.0000000000000528
 11
2.9999999999999032
 21
238.0000000000003126
 31
-0.0000000000000528
210
-0.0000000000000002
220
1.0
230
-0.0000000000000002
  0
LINE
  5
71F2
  8
0
  6
VERDECKT
 62
     1
 10
-4.0000000000000968
 20
237.0000000000003126
 30
-0.0000000000000526
 11
3.9999999999999032
 21
237.0000000000003126
 31
-0.0000000000000526
210
-0.0000000000000002
220
1.0
230
-0.0000000000000002
  0
LINE
  5
71F3
  8
0
  6
VERDECKT
 62
     1
 10
-3.0000000000000968
 20
236.0000000000003126
 30
-0.0000000000000524
 11
2.9999999999999032
 21
236.0000000000003126
 31
-0.0000000000000524
210
-0.0000000000000002
220
1.0
230
-0.0000000000000002
  0
LINE
  5
71F4
  8
0
  6
VERDECKT
 62
     1
 10
-3.0000000000000968
 20
234.0000000000003126
 30
-0.000000000000052
 11
-4.0000000000000977
 21
235.0000000000003126
 31
-0.0000000000000522
210
-0.0000000000000002
220
1.0
230
-0.0000000000000002
  0
LINE
  5
71F5
  8
0
  6
VERDECKT
 62
     1
 10
2.9999999999999041
 20
234.0000000000003126
 30
-0.000000000000052
 11
3.9999999999999041
 21
235.0000000000003126
 31
-0.0000000000000522
210
-0.0000000000000002
220
1.0
230
-0.0000000000000002
  0
LINE
  5
71F6
  8
0
  6
VERDECKT
 62
     1
 10
2.9999999999999041
 20
234.0000000000003126
 30
-0.000000000000052
 11
3.9999999999999041
 21
233.0000000000003126
 31
-0.0000000000000517
210
-0.0000000000000002
220
1.0
230
-0.0000000000000002
  0
LINE
  5
71F7
  8
0
  6
VERDECKT
 62
     1
 10
-3.0000000000000968
 20
234.0000000000003126
 30
-0.000000000000052
 11
-4.0000000000000959
 21
233.0000000000003126
 31
-0.0000000000000517
210
-0.0000000000000002
220
1.0
230
-0.0000000000000002
  0
LINE
  5
71F8
  8
0
  6
VERDECKT
 62
     1
 10
-3.0000000000000968
 20
232.0000000000003126
 30
-0.0000000000000515
 11
-4.0000000000000959
 21
233.0000000000003126
 31
-0.0000000000000517
210
-0.0000000000000002
220
1.0
230
-0.0000000000000002
  0
LINE
  5
71F9
  8
0
  6
VERDECKT
 62
     1
 10
2.999999999999905
 20
232.0000000000003126
 30
-0.0000000000000515
 11
3.9999999999999041
 21
233.0000000000003126
 31
-0.0000000000000517
210
-0.0000000000000002
220
1.0
230
-0.0000000000000002
  0
LINE
  5
71FA
  8
0
  6
VERDECKT
 62
     1
 10
2.9999999999999041
 20
232.0000000000003126
 30
-0.0000000000000515
 11
3.9999999999999041
 21
231.0000000000003126
 31
-0.0000000000000513
210
-0.0000000000000002
220
1.0
230
-0.0000000000000002
  0
LINE
  5
71FB
  8
0
  6
VERDECKT
 62
     1
 10
-3.0000000000000968
 20
232.0000000000003126
 30
-0.0000000000000515
 11
-4.0000000000000959
 21
231.0000000000003126
 31
-0.0000000000000513
210
-0.0000000000000002
220
1.0
230
-0.0000000000000002
  0
LINE
  5
71FC
  8
0
  6
VERDECKT
 62
     1
 10
-3.0000000000000959
 20
230.0000000000003126
 30
-0.0000000000000511
 11
-4.0000000000000959
 21
231.0000000000003126
 31
-0.0000000000000513
210
-0.0000000000000002
220
1.0
230
-0.0000000000000002
  0
LINE
  5
71FD
  8
0
  6
VERDECKT
 62
     1
 10
2.999999999999905
 20
230.0000000000003126
 30
-0.0000000000000511
 11
3.9999999999999041
 21
231.0000000000003126
 31
-0.0000000000000513
210
-0.0000000000000002
220
1.0
230
-0.0000000000000002
  0
LINE
  5
71FE
  8
0
  6
VERDECKT
 62
     1
 10
2.999999999999905
 20
230.0000000000003126
 30
-0.0000000000000511
 11
3.999999999999905
 21
229.0000000000003126
 31
-0.0000000000000508
210
-0.0000000000000002
220
1.0
230
-0.0000000000000002
  0
LINE
  5
71FF
  8
0
  6
VERDECKT
 62
     1
 10
-3.0000000000000959
 20
230.0000000000003126
 30
-0.0000000000000511
 11
-4.000000000000095
 21
229.0000000000003126
 31
-0.0000000000000508
210
-0.0000000000000002
220
1.0
230
-0.0000000000000002
  0
LINE
  5
7200
  8
0
  6
VERDECKT
 62
     1
 10
-3.0000000000000959
 20
228.0000000000003126
 30
-0.0000000000000506
 11
-4.000000000000095
 21
229.0000000000003126
 31
-0.0000000000000508
210
-0.0000000000000002
220
1.0
230
-0.0000000000000002
  0
LINE
  5
7201
  8
0
  6
VERDECKT
 62
     1
 10
2.9999999999999059
 20
228.0000000000003126
 30
-0.0000000000000506
 11
3.999999999999905
 21
229.0000000000003126
 31
-0.0000000000000508
210
-0.0000000000000002
220
1.0
230
-0.0000000000000002
  0
LINE
  5
7202
  8
0
  6
VERDECKT
 62
     1
 10
2.999999999999905
 20
228.0000000000003126
 30
-0.0000000000000506
 11
3.999999999999905
 21
227.0000000000003126
 31
-0.0000000000000504
210
-0.0000000000000002
220
1.0
230
-0.0000000000000002
  0
LINE
  5
7203
  8
0
  6
VERDECKT
 62
     1
 10
-3.0000000000000959
 20
228.0000000000003126
 30
-0.0000000000000506
 11
-4.000000000000095
 21
227.0000000000003126
 31
-0.0000000000000504
210
-0.0000000000000002
220
1.0
230
-0.0000000000000002
  0
LINE
  5
7204
  8
0
  6
VERDECKT
 62
     1
 10
-3.0000000000000959
 20
226.0000000000003126
 30
-0.0000000000000502
 11
-4.000000000000095
 21
227.0000000000003126
 31
-0.0000000000000504
210
-0.0000000000000002
220
1.0
230
-0.0000000000000002
  0
LINE
  5
7205
  8
0
  6
VERDECKT
 62
     1
 10
2.9999999999999059
 20
226.0000000000003126
 30
-0.0000000000000502
 11
3.999999999999905
 21
227.0000000000003126
 31
-0.0000000000000504
210
-0.0000000000000002
220
1.0
230
-0.0000000000000002
  0
LINE
  5
7206
  8
0
  6
VERDECKT
 62
     1
 10
2.9999999999999059
 20
226.0000000000003126
 30
-0.0000000000000502
 11
3.9999999999999059
 21
225.0000000000003126
 31
-0.00000000000005
210
-0.0000000000000002
220
1.0
230
-0.0000000000000002
  0
LINE
  5
7207
  8
0
  6
VERDECKT
 62
     1
 10
-3.000000000000095
 20
226.0000000000003126
 30
-0.0000000000000502
 11
-4.000000000000095
 21
225.0000000000003126
 31
-0.00000000000005
210
-0.0000000000000002
220
1.0
230
-0.0000000000000002
  0
LINE
  5
7208
  8
0
  6
VERDECKT
 62
     1
 10
-3.000000000000095
 20
224.0000000000003126
 30
-0.0000000000000497
 11
-4.000000000000095
 21
225.0000000000003126
 31
-0.00000000000005
210
-0.0000000000000002
220
1.0
230
-0.0000000000000002
  0
LINE
  5
7209
  8
0
  6
VERDECKT
 62
     1
 10
2.9999999999999072
 20
224.0000000000003126
 30
-0.0000000000000497
 11
3.9999999999999059
 21
225.0000000000003126
 31
-0.00000000000005
210
-0.0000000000000002
220
1.0
230
-0.0000000000000002
  0
LINE
  5
720A
  8
0
  6
VERDECKT
 62
     1
 10
2.9999999999999059
 20
224.0000000000003126
 30
-0.0000000000000497
 11
3.9999999999999059
 21
223.0000000000003126
 31
-0.0000000000000495
210
-0.0000000000000002
220
1.0
230
-0.0000000000000002
  0
LINE
  5
720B
  8
0
  6
VERDECKT
 62
     1
 10
-3.000000000000095
 20
224.0000000000003126
 30
-0.0000000000000497
 11
-4.000000000000095
 21
223.0000000000003126
 31
-0.0000000000000495
210
-0.0000000000000002
220
1.0
230
-0.0000000000000002
  0
LINE
  5
720C
  8
0
  6
VERDECKT
 62
     1
 10
-3.000000000000095
 20
222.000000000000199
 30
-0.0000000000000493
 11
-4.000000000000095
 21
223.0000000000003126
 31
-0.0000000000000495
210
-0.0000000000000002
220
1.0
230
-0.0000000000000002
  0
LINE
  5
720D
  8
0
  6
VERDECKT
 62
     1
 10
2.9999999999999072
 20
222.000000000000199
 30
-0.0000000000000493
 11
3.9999999999999059
 21
223.0000000000003126
 31
-0.0000000000000495
210
-0.0000000000000002
220
1.0
230
-0.0000000000000002
  0
LINE
  5
720E
  8
0
  6
VERDECKT
 62
     1
 10
2.9999999999999019
 20
242.0000000000003126
 30
-0.0000000000000537
 11
3.9999999999999019
 21
241.0000000000003126
 31
-0.0000000000000535
210
-0.0000000000000002
220
1.0
230
-0.0000000000000002
  0
LINE
  5
720F
  8
0
  6
VERDECKT
 62
     1
 10
-3.000000000000099
 20
242.0000000000003126
 30
-0.0000000000000537
 11
-4.0000000000000977
 21
241.0000000000003126
 31
-0.0000000000000535
210
-0.0000000000000002
220
1.0
230
-0.0000000000000002
  0
LINE
  5
7210
  8
0
  6
VERDECKT
 62
     1
 10
-3.000000000000099
 20
240.0000000000003126
 30
-0.0000000000000533
 11
-4.0000000000000986
 21
241.0000000000003126
 31
-0.0000000000000535
210
-0.0000000000000002
220
1.0
230
-0.0000000000000002
  0
LINE
  5
7211
  8
0
  6
VERDECKT
 62
     1
 10
2.9999999999999032
 20
240.0000000000003126
 30
-0.0000000000000533
 11
3.9999999999999032
 21
241.0000000000003126
 31
-0.0000000000000535
210
-0.0000000000000002
220
1.0
230
-0.0000000000000002
  0
LINE
  5
7212
  8
0
  6
VERDECKT
 62
     1
 10
2.9999999999999032
 20
240.0000000000003126
 30
-0.0000000000000533
 11
3.9999999999999032
 21
239.0000000000003126
 31
-0.0000000000000531
210
-0.0000000000000002
220
1.0
230
-0.0000000000000002
  0
LINE
  5
7213
  8
0
  6
VERDECKT
 62
     1
 10
-3.000000000000099
 20
240.0000000000003126
 30
-0.0000000000000533
 11
-4.0000000000000977
 21
239.0000000000003126
 31
-0.0000000000000531
210
-0.0000000000000002
220
1.0
230
-0.0000000000000002
  0
LINE
  5
7214
  8
0
  6
VERDECKT
 62
     1
 10
-3.0000000000000981
 20
238.0000000000003126
 30
-0.0000000000000528
 11
-4.0000000000000986
 21
239.0000000000003126
 31
-0.0000000000000531
210
-0.0000000000000002
220
1.0
230
-0.0000000000000002
  0
LINE
  5
7215
  8
0
  6
VERDECKT
 62
     1
 10
2.9999999999999032
 20
238.0000000000003126
 30
-0.0000000000000528
 11
3.9999999999999032
 21
239.0000000000003126
 31
-0.0000000000000531
210
-0.0000000000000002
220
1.0
230
-0.0000000000000002
  0
LINE
  5
7216
  8
0
  6
VERDECKT
 62
     1
 10
2.9999999999999032
 20
238.0000000000003126
 30
-0.0000000000000528
 11
3.9999999999999032
 21
237.0000000000003126
 31
-0.0000000000000526
210
-0.0000000000000002
220
1.0
230
-0.0000000000000002
  0
LINE
  5
7217
  8
0
  6
VERDECKT
 62
     1
 10
-3.0000000000000981
 20
238.0000000000003126
 30
-0.0000000000000528
 11
-4.0000000000000968
 21
237.0000000000003126
 31
-0.0000000000000526
210
-0.0000000000000002
220
1.0
230
-0.0000000000000002
  0
LINE
  5
7218
  8
0
  6
VERDECKT
 62
     1
 10
-3.0000000000000981
 20
236.0000000000003126
 30
-0.0000000000000524
 11
-4.0000000000000968
 21
237.0000000000003126
 31
-0.0000000000000526
210
-0.0000000000000002
220
1.0
230
-0.0000000000000002
  0
LINE
  5
7219
  8
0
  6
VERDECKT
 62
     1
 10
2.9999999999999041
 20
236.0000000000003126
 30
-0.0000000000000524
 11
3.9999999999999032
 21
237.0000000000003126
 31
-0.0000000000000526
210
-0.0000000000000002
220
1.0
230
-0.0000000000000002
  0
LINE
  5
721A
  8
0
  6
VERDECKT
 62
     1
 10
2.9999999999999041
 20
236.0000000000003126
 30
-0.0000000000000524
 11
3.9999999999999041
 21
235.0000000000003126
 31
-0.0000000000000522
210
-0.0000000000000002
220
1.0
230
-0.0000000000000002
  0
LINE
  5
721B
  8
0
  6
VERDECKT
 62
     1
 10
-3.0000000000000981
 20
236.0000000000003126
 30
-0.0000000000000524
 11
-4.0000000000000968
 21
235.0000000000003126
 31
-0.0000000000000522
210
-0.0000000000000002
220
1.0
230
-0.0000000000000002
  0
LINE
  5
721C
  8
0
  6
VERDECKT
 62
     1
 10
46.9999999999998508
 20
235.0000000000003126
 30
-0.0000000000000522
 11
50.9999999999998721
 21
235.0000000000003126
 31
-0.0000000000000522
210
-0.0000000000000002
220
1.0
230
-0.0000000000000002
  0
LINE
  5
721D
  8
0
  6
VERDECKT
 62
     1
 10
50.9999999999998721
 20
235.0000000000003126
 30
-0.0000000000000522
 11
54.9999999999998579
 21
235.0000000000003126
 31
-0.0000000000000522
210
-0.0000000000000002
220
1.0
230
-0.0000000000000002
  0
LINE
  5
721E
  8
0
  6
VERDECKT
 62
     1
 10
47.9999999999998508
 20
234.0000000000003126
 30
-0.000000000000052
 11
50.9999999999998721
 21
234.0000000000003126
 31
-0.000000000000052
210
-0.0000000000000002
220
1.0
230
-0.0000000000000002
  0
LINE
  5
721F
  8
0
  6
VERDECKT
 62
     1
 10
50.9999999999998721
 20
234.0000000000003126
 30
-0.000000000000052
 11
53.9999999999998721
 21
234.0000000000003126
 31
-0.000000000000052
210
-0.0000000000000002
220
1.0
230
-0.0000000000000002
  0
LINE
  5
7220
  8
0
  6
VERDECKT
 62
     1
 10
46.9999999999998508
 20
233.0000000000003126
 30
-0.0000000000000517
 11
50.9999999999998721
 21
233.0000000000003126
 31
-0.0000000000000517
210
-0.0000000000000002
220
1.0
230
-0.0000000000000002
  0
LINE
  5
7221
  8
0
  6
VERDECKT
 62
     1
 10
50.9999999999998721
 20
233.0000000000003126
 30
-0.0000000000000517
 11
54.9999999999998579
 21
233.0000000000003126
 31
-0.0000000000000517
210
-0.0000000000000002
220
1.0
230
-0.0000000000000002
  0
LINE
  5
7222
  8
0
  6
VERDECKT
 62
     1
 10
47.9999999999998508
 20
232.0000000000003126
 30
-0.0000000000000515
 11
50.9999999999998721
 21
232.0000000000003126
 31
-0.0000000000000515
210
-0.0000000000000002
220
1.0
230
-0.0000000000000002
  0
LINE
  5
7223
  8
0
  6
VERDECKT
 62
     1
 10
50.9999999999998721
 20
232.0000000000003126
 30
-0.0000000000000515
 11
53.9999999999998721
 21
232.0000000000003126
 31
-0.0000000000000515
210
-0.0000000000000002
220
1.0
230
-0.0000000000000002
  0
LINE
  5
7224
  8
0
  6
VERDECKT
 62
     1
 10
46.9999999999998508
 20
231.0000000000003126
 30
-0.0000000000000513
 11
50.9999999999998721
 21
231.0000000000003126
 31
-0.0000000000000513
210
-0.0000000000000002
220
1.0
230
-0.0000000000000002
  0
LINE
  5
7225
  8
0
  6
VERDECKT
 62
     1
 10
50.9999999999998721
 20
231.0000000000003126
 30
-0.0000000000000513
 11
54.9999999999998579
 21
231.0000000000003126
 31
-0.0000000000000513
210
-0.0000000000000002
220
1.0
230
-0.0000000000000002
  0
LINE
  5
7226
  8
0
  6
VERDECKT
 62
     1
 10
47.9999999999998508
 20
230.0000000000003126
 30
-0.0000000000000511
 11
50.9999999999998721
 21
230.0000000000003126
 31
-0.0000000000000511
210
-0.0000000000000002
220
1.0
230
-0.0000000000000002
  0
LINE
  5
7227
  8
0
  6
VERDECKT
 62
     1
 10
50.9999999999998721
 20
230.0000000000003126
 30
-0.0000000000000511
 11
53.9999999999998721
 21
230.0000000000003126
 31
-0.0000000000000511
210
-0.0000000000000002
220
1.0
230
-0.0000000000000002
  0
LINE
  5
7228
  8
0
  6
VERDECKT
 62
     1
 10
46.9999999999998508
 20
229.0000000000003126
 30
-0.0000000000000508
 11
50.9999999999998721
 21
229.0000000000003126
 31
-0.0000000000000508
210
-0.0000000000000002
220
1.0
230
-0.0000000000000002
  0
LINE
  5
7229
  8
0
  6
VERDECKT
 62
     1
 10
50.9999999999998721
 20
229.0000000000003126
 30
-0.0000000000000508
 11
54.9999999999998579
 21
229.0000000000003126
 31
-0.0000000000000508
210
-0.0000000000000002
220
1.0
230
-0.0000000000000002
  0
LINE
  5
722A
  8
0
  6
VERDECKT
 62
     1
 10
47.9999999999998508
 20
228.0000000000003126
 30
-0.0000000000000506
 11
50.9999999999998721
 21
228.0000000000003126
 31
-0.0000000000000506
210
-0.0000000000000002
220
1.0
230
-0.0000000000000002
  0
LINE
  5
722B
  8
0
  6
VERDECKT
 62
     1
 10
50.9999999999998721
 20
228.0000000000003126
 30
-0.0000000000000506
 11
53.9999999999998721
 21
228.0000000000003126
 31
-0.0000000000000506
210
-0.0000000000000002
220
1.0
230
-0.0000000000000002
  0
LINE
  5
722C
  8
0
  6
VERDECKT
 62
     1
 10
46.9999999999998508
 20
227.0000000000003126
 30
-0.0000000000000504
 11
50.9999999999998721
 21
227.0000000000003126
 31
-0.0000000000000504
210
-0.0000000000000002
220
1.0
230
-0.0000000000000002
  0
LINE
  5
722D
  8
0
  6
VERDECKT
 62
     1
 10
50.9999999999998721
 20
227.0000000000003126
 30
-0.0000000000000504
 11
54.9999999999998579
 21
227.0000000000003126
 31
-0.0000000000000504
210
-0.0000000000000002
220
1.0
230
-0.0000000000000002
  0
LINE
  5
722E
  8
0
  6
VERDECKT
 62
     1
 10
47.9999999999998508
 20
226.0000000000003126
 30
-0.0000000000000502
 11
50.9999999999998721
 21
226.0000000000003126
 31
-0.0000000000000502
210
-0.0000000000000002
220
1.0
230
-0.0000000000000002
  0
LINE
  5
722F
  8
0
  6
VERDECKT
 62
     1
 10
50.9999999999998721
 20
226.0000000000003126
 30
-0.0000000000000502
 11
53.9999999999998721
 21
226.0000000000003126
 31
-0.0000000000000502
210
-0.0000000000000002
220
1.0
230
-0.0000000000000002
  0
LINE
  5
7230
  8
0
  6
VERDECKT
 62
     1
 10
46.9999999999998508
 20
225.0000000000003126
 30
-0.00000000000005
 11
50.9999999999998721
 21
225.0000000000003126
 31
-0.00000000000005
210
-0.0000000000000002
220
1.0
230
-0.0000000000000002
  0
LINE
  5
7231
  8
0
  6
VERDECKT
 62
     1
 10
50.9999999999998721
 20
225.0000000000003126
 30
-0.00000000000005
 11
54.9999999999998579
 21
225.0000000000003126
 31
-0.00000000000005
210
-0.0000000000000002
220
1.0
230
-0.0000000000000002
  0
LINE
  5
7232
  8
0
  6
VERDECKT
 62
     1
 10
47.9999999999998508
 20
224.0000000000003126
 30
-0.0000000000000497
 11
50.9999999999998721
 21
224.0000000000003126
 31
-0.0000000000000497
210
-0.0000000000000002
220
1.0
230
-0.0000000000000002
  0
LINE
  5
7233
  8
0
  6
VERDECKT
 62
     1
 10
50.9999999999998721
 20
224.0000000000003126
 30
-0.0000000000000497
 11
53.9999999999998721
 21
224.0000000000003126
 31
-0.0000000000000497
210
-0.0000000000000002
220
1.0
230
-0.0000000000000002
  0
LINE
  5
7234
  8
0
  6
VERDECKT
 62
     1
 10
47.9999999999998508
 20
242.0000000000003126
 30
-0.0000000000000537
 11
50.9999999999998579
 21
242.0000000000003126
 31
-0.0000000000000537
210
-0.0000000000000002
220
1.0
230
-0.0000000000000002
  0
LINE
  5
7235
  8
0
  6
VERDECKT
 62
     1
 10
50.9999999999998579
 20
242.0000000000003126
 30
-0.0000000000000537
 11
53.9999999999998579
 21
242.0000000000003126
 31
-0.0000000000000537
210
-0.0000000000000002
220
1.0
230
-0.0000000000000002
  0
LINE
  5
7236
  8
0
  6
VERDECKT
 62
     1
 10
46.9999999999998508
 20
241.0000000000003126
 30
-0.0000000000000535
 11
50.9999999999998579
 21
241.0000000000003126
 31
-0.0000000000000535
210
-0.0000000000000002
220
1.0
230
-0.0000000000000002
  0
LINE
  5
7237
  8
0
  6
VERDECKT
 62
     1
 10
50.9999999999998579
 20
241.0000000000003126
 30
-0.0000000000000535
 11
54.9999999999998508
 21
241.0000000000003126
 31
-0.0000000000000535
210
-0.0000000000000002
220
1.0
230
-0.0000000000000002
  0
LINE
  5
7238
  8
0
  6
VERDECKT
 62
     1
 10
47.9999999999998508
 20
240.0000000000003126
 30
-0.0000000000000533
 11
50.9999999999998579
 21
240.0000000000003126
 31
-0.0000000000000533
210
-0.0000000000000002
220
1.0
230
-0.0000000000000002
  0
LINE
  5
7239
  8
0
  6
VERDECKT
 62
     1
 10
50.9999999999998579
 20
240.0000000000003126
 30
-0.0000000000000533
 11
53.9999999999998579
 21
240.0000000000003126
 31
-0.0000000000000533
210
-0.0000000000000002
220
1.0
230
-0.0000000000000002
  0
LINE
  5
723A
  8
0
  6
VERDECKT
 62
     1
 10
46.9999999999998508
 20
239.0000000000003126
 30
-0.0000000000000531
 11
50.9999999999998721
 21
239.0000000000003126
 31
-0.0000000000000531
210
-0.0000000000000002
220
1.0
230
-0.0000000000000002
  0
LINE
  5
723B
  8
0
  6
VERDECKT
 62
     1
 10
50.9999999999998721
 20
239.0000000000003126
 30
-0.0000000000000531
 11
54.9999999999998579
 21
239.0000000000003126
 31
-0.0000000000000531
210
-0.0000000000000002
220
1.0
230
-0.0000000000000002
  0
LINE
  5
723C
  8
0
  6
VERDECKT
 62
     1
 10
47.9999999999998508
 20
238.0000000000003126
 30
-0.0000000000000528
 11
50.9999999999998721
 21
238.0000000000003126
 31
-0.0000000000000528
210
-0.0000000000000002
220
1.0
230
-0.0000000000000002
  0
LINE
  5
723D
  8
0
  6
VERDECKT
 62
     1
 10
50.9999999999998721
 20
238.0000000000003126
 30
-0.0000000000000528
 11
53.9999999999998721
 21
238.0000000000003126
 31
-0.0000000000000528
210
-0.0000000000000002
220
1.0
230
-0.0000000000000002
  0
LINE
  5
723E
  8
0
  6
VERDECKT
 62
     1
 10
46.9999999999998508
 20
237.0000000000003126
 30
-0.0000000000000526
 11
50.9999999999998721
 21
237.0000000000003126
 31
-0.0000000000000526
210
-0.0000000000000002
220
1.0
230
-0.0000000000000002
  0
LINE
  5
723F
  8
0
  6
VERDECKT
 62
     1
 10
50.9999999999998721
 20
237.0000000000003126
 30
-0.0000000000000526
 11
54.9999999999998579
 21
237.0000000000003126
 31
-0.0000000000000526
210
-0.0000000000000002
220
1.0
230
-0.0000000000000002
  0
LINE
  5
7240
  8
0
  6
VERDECKT
 62
     1
 10
47.9999999999998508
 20
236.0000000000003126
 30
-0.0000000000000524
 11
50.9999999999998721
 21
236.0000000000003126
 31
-0.0000000000000524
210
-0.0000000000000002
220
1.0
230
-0.0000000000000002
  0
LINE
  5
7241
  8
0
  6
VERDECKT
 62
     1
 10
50.9999999999998721
 20
236.0000000000003126
 30
-0.0000000000000524
 11
53.9999999999998721
 21
236.0000000000003126
 31
-0.0000000000000524
210
-0.0000000000000002
220
1.0
230
-0.0000000000000002
  0
LINE
  5
7242
  8
0
  6
VERDECKT
 62
     1
 10
47.9999999999998508
 20
234.0000000000003126
 30
-0.000000000000052
 11
46.9999999999998508
 21
235.0000000000003126
 31
-0.0000000000000522
210
-0.0000000000000002
220
1.0
230
-0.0000000000000002
  0
LINE
  5
7243
  8
0
  6
VERDECKT
 62
     1
 10
53.9999999999998721
 20
234.0000000000003126
 30
-0.000000000000052
 11
54.9999999999998579
 21
235.0000000000003126
 31
-0.0000000000000522
210
-0.0000000000000002
220
1.0
230
-0.0000000000000002
  0
LINE
  5
7244
  8
0
  6
VERDECKT
 62
     1
 10
53.9999999999998721
 20
234.0000000000003126
 30
-0.000000000000052
 11
54.9999999999998579
 21
233.0000000000003126
 31
-0.0000000000000517
210
-0.0000000000000002
220
1.0
230
-0.0000000000000002
  0
LINE
  5
7245
  8
0
  6
VERDECKT
 62
     1
 10
47.9999999999998508
 20
234.0000000000003126
 30
-0.000000000000052
 11
46.9999999999998508
 21
233.0000000000003126
 31
-0.0000000000000517
210
-0.0000000000000002
220
1.0
230
-0.0000000000000002
  0
LINE
  5
7246
  8
0
  6
VERDECKT
 62
     1
 10
47.9999999999998508
 20
232.0000000000003126
 30
-0.0000000000000515
 11
46.9999999999998508
 21
233.0000000000003126
 31
-0.0000000000000517
210
-0.0000000000000002
220
1.0
230
-0.0000000000000002
  0
LINE
  5
7247
  8
0
  6
VERDECKT
 62
     1
 10
53.9999999999998721
 20
232.0000000000003126
 30
-0.0000000000000515
 11
54.9999999999998579
 21
233.0000000000003126
 31
-0.0000000000000517
210
-0.0000000000000002
220
1.0
230
-0.0000000000000002
  0
LINE
  5
7248
  8
0
  6
VERDECKT
 62
     1
 10
53.9999999999998721
 20
232.0000000000003126
 30
-0.0000000000000515
 11
54.9999999999998579
 21
231.0000000000003126
 31
-0.0000000000000513
210
-0.0000000000000002
220
1.0
230
-0.0000000000000002
  0
LINE
  5
7249
  8
0
  6
VERDECKT
 62
     1
 10
47.9999999999998508
 20
232.0000000000003126
 30
-0.0000000000000515
 11
46.9999999999998508
 21
231.0000000000003126
 31
-0.0000000000000513
210
-0.0000000000000002
220
1.0
230
-0.0000000000000002
  0
LINE
  5
724A
  8
0
  6
VERDECKT
 62
     1
 10
47.9999999999998508
 20
230.0000000000003126
 30
-0.0000000000000511
 11
46.9999999999998508
 21
231.0000000000003126
 31
-0.0000000000000513
210
-0.0000000000000002
220
1.0
230
-0.0000000000000002
  0
LINE
  5
724B
  8
0
  6
VERDECKT
 62
     1
 10
53.9999999999998721
 20
230.0000000000003126
 30
-0.0000000000000511
 11
54.9999999999998579
 21
231.0000000000003126
 31
-0.0000000000000513
210
-0.0000000000000002
220
1.0
230
-0.0000000000000002
  0
LINE
  5
724C
  8
0
  6
VERDECKT
 62
     1
 10
53.9999999999998721
 20
230.0000000000003126
 30
-0.0000000000000511
 11
54.9999999999998579
 21
229.0000000000003126
 31
-0.0000000000000508
210
-0.0000000000000002
220
1.0
230
-0.0000000000000002
  0
LINE
  5
724D
  8
0
  6
VERDECKT
 62
     1
 10
47.9999999999998508
 20
230.0000000000003126
 30
-0.0000000000000511
 11
46.9999999999998508
 21
229.0000000000003126
 31
-0.0000000000000508
210
-0.0000000000000002
220
1.0
230
-0.0000000000000002
  0
LINE
  5
724E
  8
0
  6
VERDECKT
 62
     1
 10
47.9999999999998508
 20
228.0000000000003126
 30
-0.0000000000000506
 11
46.9999999999998508
 21
229.0000000000003126
 31
-0.0000000000000508
210
-0.0000000000000002
220
1.0
230
-0.0000000000000002
  0
LINE
  5
724F
  8
0
  6
VERDECKT
 62
     1
 10
53.9999999999998721
 20
228.0000000000003126
 30
-0.0000000000000506
 11
54.9999999999998579
 21
229.0000000000003126
 31
-0.0000000000000508
210
-0.0000000000000002
220
1.0
230
-0.0000000000000002
  0
LINE
  5
7250
  8
0
  6
VERDECKT
 62
     1
 10
53.9999999999998721
 20
228.0000000000003126
 30
-0.0000000000000506
 11
54.9999999999998579
 21
227.0000000000003126
 31
-0.0000000000000504
210
-0.0000000000000002
220
1.0
230
-0.0000000000000002
  0
LINE
  5
7251
  8
0
  6
VERDECKT
 62
     1
 10
47.9999999999998508
 20
228.0000000000003126
 30
-0.0000000000000506
 11
46.9999999999998508
 21
227.0000000000003126
 31
-0.0000000000000504
210
-0.0000000000000002
220
1.0
230
-0.0000000000000002
  0
LINE
  5
7252
  8
0
  6
VERDECKT
 62
     1
 10
47.9999999999998508
 20
226.0000000000003126
 30
-0.0000000000000502
 11
46.9999999999998508
 21
227.0000000000003126
 31
-0.0000000000000504
210
-0.0000000000000002
220
1.0
230
-0.0000000000000002
  0
LINE
  5
7253
  8
0
  6
VERDECKT
 62
     1
 10
53.9999999999998721
 20
226.0000000000003126
 30
-0.0000000000000502
 11
54.9999999999998579
 21
227.0000000000003126
 31
-0.0000000000000504
210
-0.0000000000000002
220
1.0
230
-0.0000000000000002
  0
LINE
  5
7254
  8
0
  6
VERDECKT
 62
     1
 10
53.9999999999998721
 20
226.0000000000003126
 30
-0.0000000000000502
 11
54.9999999999998579
 21
225.0000000000003126
 31
-0.00000000000005
210
-0.0000000000000002
220
1.0
230
-0.0000000000000002
  0
LINE
  5
7255
  8
0
  6
VERDECKT
 62
     1
 10
47.9999999999998508
 20
226.0000000000003126
 30
-0.0000000000000502
 11
46.9999999999998508
 21
225.0000000000003126
 31
-0.00000000000005
210
-0.0000000000000002
220
1.0
230
-0.0000000000000002
  0
LINE
  5
7256
  8
0
  6
VERDECKT
 62
     1
 10
47.9999999999998508
 20
224.0000000000003126
 30
-0.0000000000000497
 11
46.9999999999998508
 21
225.0000000000003126
 31
-0.00000000000005
210
-0.0000000000000002
220
1.0
230
-0.0000000000000002
  0
LINE
  5
7257
  8
0
  6
VERDECKT
 62
     1
 10
53.9999999999998721
 20
224.0000000000003126
 30
-0.0000000000000497
 11
54.9999999999998579
 21
225.0000000000003126
 31
-0.00000000000005
210
-0.0000000000000002
220
1.0
230
-0.0000000000000002
  0
LINE
  5
7258
  8
0
  6
VERDECKT
 62
     1
 10
53.9999999999998721
 20
224.0000000000003126
 30
-0.0000000000000497
 11
54.9999999999998579
 21
223.0000000000003126
 31
-0.0000000000000495
210
-0.0000000000000002
220
1.0
230
-0.0000000000000002
  0
LINE
  5
7259
  8
0
  6
VERDECKT
 62
     1
 10
47.9999999999998508
 20
224.0000000000003126
 30
-0.0000000000000497
 11
46.9999999999998508
 21
223.0000000000003126
 31
-0.0000000000000495
210
-0.0000000000000002
220
1.0
230
-0.0000000000000002
  0
LINE
  5
725A
  8
0
  6
VERDECKT
 62
     1
 10
47.9999999999998508
 20
222.000000000000199
 30
-0.0000000000000493
 11
46.9999999999998508
 21
223.0000000000003126
 31
-0.0000000000000495
210
-0.0000000000000002
220
1.0
230
-0.0000000000000002
  0
LINE
  5
725B
  8
0
  6
VERDECKT
 62
     1
 10
53.9999999999998721
 20
222.000000000000199
 30
-0.0000000000000493
 11
54.9999999999998579
 21
223.0000000000003126
 31
-0.0000000000000495
210
-0.0000000000000002
220
1.0
230
-0.0000000000000002
  0
LINE
  5
725C
  8
0
  6
VERDECKT
 62
     1
 10
53.9999999999998579
 20
242.0000000000003126
 30
-0.0000000000000537
 11
54.9999999999998508
 21
241.0000000000003126
 31
-0.0000000000000535
210
-0.0000000000000002
220
1.0
230
-0.0000000000000002
  0
LINE
  5
725D
  8
0
  6
VERDECKT
 62
     1
 10
47.9999999999998508
 20
242.0000000000003126
 30
-0.0000000000000537
 11
46.9999999999998508
 21
241.0000000000003126
 31
-0.0000000000000535
210
-0.0000000000000002
220
1.0
230
-0.0000000000000002
  0
LINE
  5
725E
  8
0
  6
VERDECKT
 62
     1
 10
47.9999999999998508
 20
240.0000000000003126
 30
-0.0000000000000533
 11
46.9999999999998508
 21
241.0000000000003126
 31
-0.0000000000000535
210
-0.0000000000000002
220
1.0
230
-0.0000000000000002
  0
LINE
  5
725F
  8
0
  6
VERDECKT
 62
     1
 10
53.9999999999998579
 20
240.0000000000003126
 30
-0.0000000000000533
 11
54.9999999999998508
 21
241.0000000000003126
 31
-0.0000000000000535
210
-0.0000000000000002
220
1.0
230
-0.0000000000000002
  0
LINE
  5
7260
  8
0
  6
VERDECKT
 62
     1
 10
53.9999999999998579
 20
240.0000000000003126
 30
-0.0000000000000533
 11
54.9999999999998579
 21
239.0000000000003126
 31
-0.0000000000000531
210
-0.0000000000000002
220
1.0
230
-0.0000000000000002
  0
LINE
  5
7261
  8
0
  6
VERDECKT
 62
     1
 10
47.9999999999998508
 20
240.0000000000003126
 30
-0.0000000000000533
 11
46.9999999999998508
 21
239.0000000000003126
 31
-0.0000000000000531
210
-0.0000000000000002
220
1.0
230
-0.0000000000000002
  0
LINE
  5
7262
  8
0
  6
VERDECKT
 62
     1
 10
47.9999999999998508
 20
238.0000000000003126
 30
-0.0000000000000528
 11
46.9999999999998508
 21
239.0000000000003126
 31
-0.0000000000000531
210
-0.0000000000000002
220
1.0
230
-0.0000000000000002
  0
LINE
  5
7263
  8
0
  6
VERDECKT
 62
     1
 10
53.9999999999998721
 20
238.0000000000003126
 30
-0.0000000000000528
 11
54.9999999999998579
 21
239.0000000000003126
 31
-0.0000000000000531
210
-0.0000000000000002
220
1.0
230
-0.0000000000000002
  0
LINE
  5
7264
  8
0
  6
VERDECKT
 62
     1
 10
53.9999999999998721
 20
238.0000000000003126
 30
-0.0000000000000528
 11
54.9999999999998579
 21
237.0000000000003126
 31
-0.0000000000000526
210
-0.0000000000000002
220
1.0
230
-0.0000000000000002
  0
LINE
  5
7265
  8
0
  6
VERDECKT
 62
     1
 10
47.9999999999998508
 20
238.0000000000003126
 30
-0.0000000000000528
 11
46.9999999999998508
 21
237.0000000000003126
 31
-0.0000000000000526
210
-0.0000000000000002
220
1.0
230
-0.0000000000000002
  0
LINE
  5
7266
  8
0
  6
VERDECKT
 62
     1
 10
47.9999999999998508
 20
236.0000000000003126
 30
-0.0000000000000524
 11
46.9999999999998508
 21
237.0000000000003126
 31
-0.0000000000000526
210
-0.0000000000000002
220
1.0
230
-0.0000000000000002
  0
LINE
  5
7267
  8
0
  6
VERDECKT
 62
     1
 10
53.9999999999998721
 20
236.0000000000003126
 30
-0.0000000000000524
 11
54.9999999999998579
 21
237.0000000000003126
 31
-0.0000000000000526
210
-0.0000000000000002
220
1.0
230
-0.0000000000000002
  0
LINE
  5
7268
  8
0
  6
VERDECKT
 62
     1
 10
53.9999999999998721
 20
236.0000000000003126
 30
-0.0000000000000524
 11
54.9999999999998579
 21
235.0000000000003126
 31
-0.0000000000000522
210
-0.0000000000000002
220
1.0
230
-0.0000000000000002
  0
LINE
  5
7269
  8
0
  6
VERDECKT
 62
     1
 10
47.9999999999998508
 20
236.0000000000003126
 30
-0.0000000000000524
 11
46.9999999999998508
 21
235.0000000000003126
 31
-0.0000000000000522
210
-0.0000000000000002
220
1.0
230
-0.0000000000000002
  0
ENDBLK
  5
726B
  8
0
  0
ENDSEC
  0
SECTION
  2
ENTITIES
  0
TEXT
  5
8F
  8
VOLL
 10
78.076754716981128
 20
31.025947764705851
 30
0.0
 40
1.8
  1

  7
GREEKS
  0
TEXT
  5
96
  8
TEXT
 10
225.1296391125314926
 20
71.5033441758528738
 30
0.0
 40
5.0
  1

 41
0.8
  7
GREEKS
  0
TEXT
  5
948
  8
TEXT
 62
     1
 10
234.6057658946467939
 20
129.0783465745483056
 30
0.0
 40
7.0
  1

 41
0.8
  7
GREEKS
  0
TEXT
  5
1B1A
  8
VOLL
 10
1902.4659371282109532
 20
395.0545597310775747
 30
0.0
 40
3.6000000000000001
  1

  7
GREEKS
  0
TEXT
  5
1B1B
  8
VOLL
 10
2145.2714744665731814
 20
809.6953758216026245
 30
0.0
 40
3.6000000000000001
  1

  7
GREEKS
  0
TEXT
  5
1B1C
  8
VOLL
 10
2804.9378963954118262
 20
442.516527753416085
 30
0.0
 40
3.6000000000000001
  1

  7
GREEKS
  0
TEXT
  5
1B1D
  8
VOLL
 10
2797.2733433667372083
 20
420.1088802964944193
 30
0.0
 40
3.6000000000000001
  1

  7
GREEKS
  0
INSERT
  5
1DE0
  8
ADSK_ASSOC_ENTITY_BACKUPS
  2
*S0
 10
0.0
 20
0.0
 30
0.0
  0
INSERT
  5
701B
  8
STEMPEL
  2
A$CCB44DE85
 10
0.0000000000000769
 20
-200.0
 30
0.0
  0
INSERT
  5
713E
  8
STEMPEL
  2
A$C02D53643
 10
0.0
 20
0.0
 30
0.0
  0
INSERT
  5
726C
  8
STEMPEL
  2
A$C4F34DB49
 10
350.0
 20
0.0
 30
0.0
  0
VIEWPORT
  5
3066
 67
     1
  8
0
 10
148.5
 20
210.0
 30
0.0
 40
829.4607021921226533
 41
422.3204419889502219
 68
     1
 69
     1
1001
ACAD
1000
MVIEW
1002
{
1070
    16
1010
0.0
1020
0.0
1030
0.0
1010
0.0
1020
0.0
1030
1.0
1040
0.0
1040
422.3204419889502219
1040
148.5
1040
210.0
1040
50.0
1040
0.0
1040
0.0
1070
     0
1070
  1500
1070
     1
1070
     1
1070
     0
1070
     0
1070
     0
1070
     0
1040
0.0
1040
0.0
1040
0.0
1040
10.0
1040
10.0
1040
10.0
1040
10.0
1070
     0
1002
{
1002
}
1002
}
  0
TEXT
  5
45B5
 67
     1
  8
VOLL
 10
929.3032217407619555
 20
550.5909282839196521
 30
0.0
 40
1.8
  1

  7
GREEKS
  0
TEXT
  5
45B6
 67
     1
  8
VOLL
 10
1050.7059904099430696
 20
757.9113363291820633
 30
0.0
 40
1.8
  1

  7
GREEKS
  0
TEXT
  5
45B7
 67
     1
  8
VOLL
 10
1380.5392013743619373
 20
574.3219122950888504
 30
0.0
 40
1.8
  1

  7
GREEKS
  0
TEXT
  5
45B8
 67
     1
  8
VOLL
 10
1376.706924860025083
 20
563.1180885666281029
 30
0.0
 40
1.8
  1

  7
GREEKS
  0
ENDSEC
  0
EOF
