  0
SECTION
  2
HEADER
  9
$ACADVER
  1
AC1009
  9
$INSBASE
 10
0.0
 20
0.0
 30
0.0
  9
$EXTMIN
 10
-146.0000002662723091
 20
-346.0000003346177095
 30
-0.0000001185988481
  9
$EXTMAX
 10
145.9999991867215954
 20
254.6889446475281886
 30
-0.0000001185988481
  9
$LIMMIN
 10
0.0
 20
0.0
  9
$LIMMAX
 10
420.0
 20
297.0
  9
$ORTHOMODE
 70
     1
  9
$REGENMODE
 70
     1
  9
$FILLMODE
 70
     1
  9
$QTEXTMODE
 70
     0
  9
$MIRRTEXT
 70
     1
  9
$DRAGMODE
 70
     2
  9
$LTSCALE
 40
10.0
  9
$OSMODE
 70
   511
  9
$ATTMODE
 70
     1
  9
$TEXTSIZE
 40
3.5
  9
$TRACEWID
 40
1.0
  9
$TEXTSTYLE
  7
STANDARD
  9
$CLAYER
  8
STEMPEL
  9
$CELTYPE
  6
BYLAYER
  9
$CECOLOR
 62
   256
  9
$DIMSCALE
 40
1.0
  9
$DIMASZ
 40
3.5
  9
$DIMEXO
 40
1.0
  9
$DIMDLI
 40
0.38
  9
$DIMRND
 40
0.0
  9
$DIMDLE
 40
0.0
  9
$DIMEXE
 40
1.0
  9
$DIMTP
 40
0.0
  9
$DIMTM
 40
0.000000001
  9
$DIMTXT
 40
3.5
  9
$DIMCEN
 40
0.09
  9
$DIMTSZ
 40
0.0
  9
$DIMTOL
 70
     0
  9
$DIMLIM
 70
     0
  9
$DIMTIH
 70
     0
  9
$DIMTOH
 70
     0
  9
$DIMSE1
 70
     0
  9
$DIMSE2
 70
     0
  9
$DIMTAD
 70
     1
  9
$DIMZIN
 70
     8
  9
$DIMBLK
  1

  9
$DIMASO
 70
     1
  9
$DIMSHO
 70
     0
  9
$DIMPOST
  1

  9
$DIMAPOST
  1

  9
$DIMALT
 70
     0
  9
$DIMALTD
 70
     2
  9
$DIMALTF
 40
25.3999999999999986
  9
$DIMLFAC
 40
2.0
  9
$DIMTOFL
 70
     1
  9
$DIMTVP
 40
0.0
  9
$DIMTIX
 70
     0
  9
$DIMSOXD
 70
     0
  9
$DIMSAH
 70
     0
  9
$DIMBLK1
  1

  9
$DIMBLK2
  1

  9
$DIMSTYLE
  2
LORO
  9
$DIMCLRD
 70
     0
  9
$DIMCLRE
 70
     0
  9
$DIMCLRT
 70
     1
  9
$DIMTFAC
 40
0.5
  9
$DIMGAP
 40
1.5
  9
$LUNITS
 70
     2
  9
$LUPREC
 70
     2
  9
$SKETCHINC
 40
1.0
  9
$FILLETRAD
 40
0.0
  9
$AUNITS
 70
     0
  9
$AUPREC
 70
     0
  9
$MENU
  1
ACAD
  9
$ELEVATION
 40
0.0
  9
$PELEVATION
 40
0.0
  9
$THICKNESS
 40
0.0
  9
$LIMCHECK
 70
     0
  9
$BLIPMODE
 70
     0
  9
$CHAMFERA
 40
0.0
  9
$CHAMFERB
 40
0.0
  9
$SKPOLY
 70
     0
  9
$TDCREATE
 40
2455397.867048610933125
  9
$TDUPDATE
 40
2460539.5884259259328246
  9
$TDINDWG
 40
2.2225172800999999
  9
$TDUSRTIMER
 40
2.2225172800999999
  9
$USRTIMER
 70
     1
  9
$ANGBASE
 50
0.0
  9
$ANGDIR
 70
     0
  9
$PDMODE
 70
     0
  9
$PDSIZE
 40
0.0
  9
$PLINEWID
 40
0.0
  9
$COORDS
 70
     1
  9
$SPLFRAME
 70
     0
  9
$SPLINETYPE
 70
     6
  9
$SPLINESEGS
 70
     8
  9
$ATTDIA
 70
     1
  9
$ATTREQ
 70
     1
  9
$HANDLING
 70
     1
  9
$HANDSEED
  5
1CE81
  9
$SURFTAB1
 70
     6
  9
$SURFTAB2
 70
     6
  9
$SURFTYPE
 70
     6
  9
$SURFU
 70
     6
  9
$SURFV
 70
     6
  9
$UCSNAME
  2

  9
$UCSORG
 10
0.0
 20
0.0
 30
0.0
  9
$UCSXDIR
 10
1.0
 20
0.0
 30
0.0
  9
$UCSYDIR
 10
0.0
 20
1.0
 30
0.0
  9
$PUCSNAME
  2

  9
$PUCSORG
 10
0.0
 20
0.0
 30
0.0
  9
$PUCSXDIR
 10
1.0
 20
0.0
 30
0.0
  9
$PUCSYDIR
 10
0.0
 20
1.0
 30
0.0
  9
$USERI1
 70
     0
  9
$USERI2
 70
     0
  9
$USERI3
 70
     0
  9
$USERI4
 70
     0
  9
$USERI5
 70
     0
  9
$USERR1
 40
0.0
  9
$USERR2
 40
0.0
  9
$USERR3
 40
0.0
  9
$USERR4
 40
0.0
  9
$USERR5
 40
0.0
  9
$WORLDVIEW
 70
     1
  9
$SHADEDGE
 70
     3
  9
$SHADEDIF
 70
    70
  9
$TILEMODE
 70
     1
  9
$MAXACTVP
 70
    16
  9
$PLIMCHECK
 70
     0
  9
$PEXTMIN
 10
1.0000000000000000E+20
 20
1.0000000000000000E+20
 30
1.0000000000000000E+20
  9
$PEXTMAX
 10
-1.0000000000000000E+20
 20
-1.0000000000000000E+20
 30
-1.0000000000000000E+20
  9
$PLIMMIN
 10
-0.2447491974439799
 20
-0.2501651782987437
  9
$PLIMMAX
 10
296.7552508025560201
 20
419.7498348217011994
  9
$UNITMODE
 70
     0
  9
$VISRETAIN
 70
     0
  9
$PLINEGEN
 70
     0
  9
$PSLTSCALE
 70
     0
  0
ENDSEC
  0
SECTION
  2
TABLES
  0
TABLE
  2
VPORT
 70
     1
  0
VPORT
  2
*ACTIVE
 70
     0
 10
0.0
 20
0.0
 11
1.0
 21
1.0
 12
-0.0000005397753284
 22
-97.6606166496971042
 13
0.0
 23
0.0
 14
1.0
 24
1.0
 15
10.0
 25
10.0
 16
-0.0000000000002828
 26
0.0
 36
1273.7034938989870625
 17
0.0
 27
52.0050888061523509
 37
-0.0000000000000278
 40
603.7852797500950146
 41
1.8847807394668961
 42
49.9999999999999574
 43
0.0
 44
0.0
 50
0.0
 51
0.0
 71
     0
 72
  1500
 73
     1
 74
     0
 75
     0
 76
     0
 77
     0
 78
     0
  0
ENDTAB
  0
TABLE
  2
LTYPE
 70
     4
  0
LTYPE
  2
CONTINUOUS
 70
     0
  3
Solid line
 72
    65
 73
     0
 40
0.0
  0
LTYPE
  2
STRICHPUNKT
 70
     0
  3
__ . __ . __ . __ . __ . __ . __ . __ . __ . __
 72
    65
 73
     4
 40
1.0
 49
0.5
 49
-0.25
 49
0.0
 49
-0.25
  0
LTYPE
  2
VERDECKT
 70
     0
  3
Verdeckt __ __ __ __ __ __ __ __ __ __ __ __ __
 72
    65
 73
     2
 40
0.375
 49
0.25
 49
-0.125
  0
ENDTAB
  0
TABLE
  2
LAYER
 70
     5
  0
LAYER
  2
0
 70
     0
 62
     7
  6
CONTINUOUS
  0
LAYER
  2
STEMPEL
 70
     0
 62
     3
  6
CONTINUOUS
  0
LAYER
  2
ADSK_ASSOC_ENTITY_BACKUPS
 70
     1
 62
    -7
  6
CONTINUOUS
  0
ENDTAB
  0
TABLE
  2
STYLE
 70
     1
  0
STYLE
  2
STANDARD
 70
     0
 40
0.0
 41
0.8
 50
0.0
 71
     0
 42
3.5
  3
simplex.shx
  4

  0
ENDTAB
  0
TABLE
  2
VIEW
 70
     0
  0
ENDTAB
  0
TABLE
  2
UCS
 70
     0
  0
ENDTAB
  0
TABLE
  2
APPID
 70
    31
  0
APPID
  2
ACAD
 70
     0
  0
APPID
  2
ACAD_NAV_VCDISPLAY
 70
     0
  0
APPID
  2
GRADIENTCOLOR1ACI
 70
     0
  0
APPID
  2
GRADIENTCOLOR2ACI
 70
     0
  0
APPID
  2
ACAD_DSTYLE_DIMRADIAL_EXTENSION
 70
     0
  0
APPID
  2
ACADANNOMONITORALERTICONDI
 70
     0
  0
APPID
  2
ACAD_EXEMPT_FROM_CAD_STANDARDS
 70
     0
  0
APPID
  2
ACAD_MLEADERVER
 70
     0
  0
APPID
  2
ACAD_PSEXT
 70
     0
  0
APPID
  2
ACAECLAYERSTANDARD
 70
     0
  0
APPID
  2
ACAUTHENVIRON
 70
     0
  0
APPID
  2
ACCMTRANSPARENCY
 70
     0
  0
APPID
  2
ACAD_STEPID
 70
     0
  0
APPID
  2
ACSYNERGY
 70
     0
  0
APPID
  2
SYNERGY_BODY_TBR_ID
 70
     0
  0
APPID
  2
ACAD_VIEW_EDGE_ID
 70
     0
  0
APPID
  2
ACAD_MODELDOC_XFORM
 70
     0
  0
APPID
  2
ACAD_DIMASSOC_CALC_DIMLFAC
 70
     0
  0
APPID
  2
ACAD_DIMASSOC_DIMLFAC
 70
     0
  0
APPID
  2
ACAD_DIMASSOC_OVERRIDDEN_D
 70
     0
  0
APPID
  2
ACSYNERGYSKETCH
 70
     0
  0
APPID
  2
ACAD_DSTYLE_DIMJAG
 70
     0
  0
APPID
  2
ACAD_DSTYLE_DIMTALN
 70
     0
  0
APPID
  2
ACDBDYNAMICBLOCKGUID
 70
     0
  0
APPID
  2
ACAD_DSTYLE_DIMBREAK
 70
     0
  0
APPID
  2
PLOTTRANSPARENCY
 70
     0
  0
APPID
  2
ACADANNOPO
 70
     0
  0
APPID
  2
ACADANNOAV
 70
     0
  0
APPID
  2
ACDBDYNAMICBLOCKTRUENAME
 70
     0
  0
APPID
  2
ACADANNOTATIVE
 70
     0
  0
APPID
  2
SYNERGY_EXCLUDED_FROM_SNAPSHOT
 70
     0
  0
ENDTAB
  0
TABLE
  2
DIMSTYLE
 70
     3
  0
DIMSTYLE
  2
LORO
 70
     0
  3

  4

  5

  6

  7

 40
1.0
 41
3.5
 42
1.0
 43
0.38
 44
1.0
 45
0.0
 46
0.0
 47
0.0
 48
0.000000001
140
3.5
141
0.09
142
0.0
143
25.3999999999999986
144
2.0
145
0.0
146
0.5
147
1.5
 71
     0
 72
     0
 73
     0
 74
     0
 75
     0
 76
     0
 77
     1
 78
     8
170
     0
171
     2
172
     1
173
     0
174
     0
175
     0
176
     0
177
     0
178
     1
  0
ENDTAB
  0
ENDSEC
  0
SECTION
  2
BLOCKS
  0
BLOCK
  8
0
  2
$MODEL_SPACE
 70
     0
 10
0.0
 20
0.0
 30
0.0
  3
$MODEL_SPACE
  1

  0
ENDBLK
  5
38
  8
0
  0
BLOCK
 67
     1
  8
0
  2
$PAPER_SPACE
 70
     0
 10
0.0
 20
0.0
 30
0.0
  3
$PAPER_SPACE
  1

  0
ENDBLK
  5
36
 67
     1
  8
0
  0
BLOCK
  8
0
  2
*S0
 70
     1
 10
0.0
 20
0.0
 30
0.0
  3
*S0
  1

  0
ENDBLK
  5
D6E
  8
0
  0
BLOCK
  8
0
  2
A$C176FFFE6
 70
     0
 10
0.0
 20
0.0
 30
0.0
  3
A$C176FFFE6
  1

  0
LINE
  5
1CD0E
  8
0
  6
CONTINUOUS
 62
     3
 10
-146.0
 20
250.0000000000001137
 30
-0.0000000000000555
 11
146.0
 21
250.0000000000001137
 31
-0.0000000000000555
210
0.0
220
1.0
230
-0.0000000000000002
  0
LINE
  5
1CD0F
  8
0
  6
CONTINUOUS
 62
     3
 10
-146.0
 20
248.0000000000001137
 30
-0.0000000000000551
 11
146.0
 21
248.0000000000001137
 31
-0.0000000000000551
210
0.0
220
1.0
230
-0.0000000000000002
  0
LINE
  5
1CD10
  8
0
  6
CONTINUOUS
 62
     3
 10
-58.5
 20
220.0000000000001137
 30
-0.0000000000000488
 11
58.5
 21
220.0000000000001137
 31
-0.0000000000000488
210
0.0
220
1.0
230
-0.0000000000000002
  0
LINE
  5
1CD11
  8
0
  6
CONTINUOUS
 62
     3
 10
146.0
 20
250.0000000000001137
 30
-0.0000000000000555
 11
146.0
 21
248.0000000000001137
 31
-0.0000000000000551
210
0.0
220
1.0
230
-0.0000000000000002
  0
LINE
  5
1CD12
  8
0
  6
CONTINUOUS
 62
     3
 10
-146.0
 20
250.0000000000001137
 30
-0.0000000000000555
 11
-146.0
 21
248.0000000000001137
 31
-0.0000000000000551
210
0.0
220
1.0
230
-0.0000000000000002
  0
ARC
  5
1CD13
  8
0
  6
CONTINUOUS
 62
     3
 10
118.4999999999977973
 20
210.0000000000084128
 30
0.0
 40
37.9999999999914806
210
0.0
220
-0.0000000000000002
230
-1.0
 50
89.9999999999966889
 51
120.187454074824899
  0
ARC
  5
1CD14
  8
0
  6
CONTINUOUS
 62
     3
 10
-118.4999999999977973
 20
210.0000000000084981
 30
0.0
 40
37.9999999999913882
210
0.0
220
-0.0000000000000002
230
-1.0
 50
59.8125459251750726
 51
90.0000000000033253
  0
LINE
  5
1CD15
  8
0
  6
CONTINUOUS
 62
     3
 10
-61.5169841178315977
 20
220.8136904418699942
 30
-0.000000000000049
 11
-99.3924339203990712
 21
242.8466272014902074
 31
-0.0000000000000539
210
0.0
220
1.0
230
-0.0000000000000002
  0
LINE
  5
1CD16
  8
0
  6
CONTINUOUS
 62
     3
 10
61.5169841178315977
 20
220.8136904418699942
 30
-0.000000000000049
 11
99.3924339203990712
 21
242.8466272014902074
 31
-0.0000000000000539
210
0.0
220
1.0
230
-0.0000000000000002
  0
ARC
  5
1CD17
  8
0
  6
CONTINUOUS
 62
     3
 10
58.4999999999999005
 20
226.0000000000005116
 30
0.0
 40
6.0000000000003411
210
0.0
220
-0.0000000000000002
230
-1.0
 50
270.0
 51
300.1874540748194136
  0
ARC
  5
1CD18
  8
0
  6
CONTINUOUS
 62
     3
 10
-58.4999999999999005
 20
226.0000000000005116
 30
0.0
 40
6.0000000000003419
210
0.0
220
-0.0000000000000002
230
-1.0
 50
239.8125459251808991
 51
270.0000000000002274
  0
LINE
  5
1CD19
  8
0
  6
CONTINUOUS
 62
     3
 10
-35.8875793553185076
 20
0.0
 30
0.0
 11
35.8875793553185076
 21
0.0
 31
0.0
210
0.0
220
1.0
230
-0.0000000000000002
  0
ARC
  5
1CD1A
  8
0
  6
CONTINUOUS
 62
     3
 10
35.4999999999993392
 20
7.0436609429074153
 30
0.0
 40
1.0000000000006599
210
0.0
220
-0.0000000000000002
230
-1.0
 50
355.0000000000038085
 51
0.0000000000005216
  0
ARC
  5
1CD1B
  8
0
  6
CONTINUOUS
 62
     3
 10
-35.4999999999992966
 20
7.0436609429074153
 30
0.0
 40
1.0000000000006961
210
0.0
220
-0.0000000000000002
230
-1.0
 50
179.9999999999994884
 51
184.9999999999959925
  0
LINE
  5
1CD1C
  8
0
  6
CONTINUOUS
 62
     3
 10
-35.8875793553184579
 20
0.000000000000004
 30
0.0
 11
-36.4961946980917489
 21
6.956505200159766
 31
-0.0000000000000015
210
0.0
220
1.0
230
-0.0000000000000002
  0
LINE
  5
1CD1D
  8
0
  6
CONTINUOUS
 62
     3
 10
35.8875793553184579
 20
0.000000000000004
 30
0.0
 11
36.4961946980917489
 21
6.956505200159766
 31
-0.0000000000000015
210
0.0
220
1.0
230
-0.0000000000000002
  0
LINE
  5
1CD1E
  8
0
  6
CONTINUOUS
 62
     3
 10
36.5
 20
160.5069422202888916
 30
-0.0000000000000356
 11
36.5
 21
7.0436609429074242
 31
-0.0000000000000016
210
0.0
220
1.0
230
-0.0000000000000002
  0
LINE
  5
1CD1F
  8
0
  6
CONTINUOUS
 62
     3
 10
-36.5
 20
160.5069422202888916
 30
-0.0000000000000356
 11
-36.5
 21
7.0436609429074242
 31
-0.0000000000000016
210
0.0
220
1.0
230
-0.0000000000000002
  0
ARC
  5
1CD20
  8
0
  6
CONTINUOUS
 62
     3
 10
-44.4999999999829896
 20
160.5069422202952865
 30
0.0
 40
7.9999999999829887
210
0.0
220
-0.0000000000000002
230
-1.0
 50
359.9999999999545821
 51
31.3206695884371591
  0
ARC
  5
1CD21
  8
0
  6
CONTINUOUS
 62
     3
 10
44.4999999999829896
 20
160.5069422202952865
 30
0.0
 40
7.9999999999829958
210
0.0
220
-0.0000000000000002
230
-1.0
 50
148.6793304115628018
 51
180.0000000000453042
  0
ARC
  5
1CD22
  8
0
  6
CONTINUOUS
 62
     3
 10
-27.4999999999919886
 20
170.8515060100320966
 30
0.0
 40
11.9000000000076405
210
0.0
220
-0.0000000000000002
230
-1.0
 50
180.0000000000144098
 51
211.3206695884061901
  0
ARC
  5
1CD23
  8
0
  6
CONTINUOUS
 62
     3
 10
27.4999999999919886
 20
170.8515060100320966
 30
0.0
 40
11.9000000000076405
210
0.0
220
-0.0000000000000002
230
-1.0
 50
328.6793304115938099
 51
359.9999999999855049
  0
LINE
  5
1CD24
  8
0
  6
CONTINUOUS
 62
     3
 10
-39.3999999999996433
 20
170.8515060100291123
 30
-0.0000000000000379
 11
-39.3999999999996433
 21
191.128171057314006
 31
-0.0000000000000424
210
0.0
220
1.0
230
-0.0000000000000002
  0
LINE
  5
1CD25
  8
0
  6
CONTINUOUS
 62
     3
 10
39.3999999999996433
 20
170.8515060100291123
 30
-0.0000000000000379
 11
39.3999999999996433
 21
191.128171057314006
 31
-0.0000000000000424
210
0.0
220
1.0
230
-0.0000000000000002
  0
ARC
  5
1CD26
  8
0
  6
CONTINUOUS
 62
     3
 10
-51.8999999999661625
 20
191.1281710573207135
 30
0.0
 40
12.4999999999665192
210
0.0
220
-0.0000000000000002
230
-1.0
 50
0.0
 51
21.1668520398420803
  0
ARC
  5
1CD27
  8
0
  6
CONTINUOUS
 62
     3
 10
51.8999999999661625
 20
191.1281710573207135
 30
0.0
 40
12.4999999999665192
210
0.0
220
-0.0000000000000002
230
-1.0
 50
158.8331479601885121
 51
180.0000000000306102
  0
ARC
  5
1CD28
  8
0
  6
CONTINUOUS
 62
     3
 10
-16.9941909850610209
 20
204.5737405743483066
 30
0.0
 40
24.9058952308743784
210
0.0
220
-0.0000000000000002
230
-1.0
 50
179.8492419712250978
 51
201.0160940109917078
  0
ARC
  5
1CD29
  8
0
  6
CONTINUOUS
 62
     3
 10
16.9941909850610209
 20
204.5737405743483066
 30
0.0
 40
24.9058952308743784
210
0.0
220
-0.0000000000000002
230
-1.0
 50
338.9839059890081785
 51
0.1507580287747803
  0
LINE
  5
1CD2A
  8
0
  6
CONTINUOUS
 62
     3
 10
-41.8999999999996291
 20
204.6392734874040968
 30
-0.0000000000000454
 11
-41.8999999999996291
 21
220.0000000000001137
 31
-0.0000000000000488
210
0.0
220
1.0
230
-0.0000000000000002
  0
LINE
  5
1CD2B
  8
0
  6
CONTINUOUS
 62
     3
 10
41.8999999999996291
 20
204.6392734874040968
 30
-0.0000000000000454
 11
41.8999999999996291
 21
220.0000000000001137
 31
-0.0000000000000488
210
0.0
220
1.0
230
-0.0000000000000002
  0
LINE
  5
1CD2C
  8
0
  6
VERDECKT
 62
     1
 10
-58.5
 20
221.9999999999998863
 30
-0.0000000000000493
 11
58.5
 21
221.9999999999998863
 31
-0.0000000000000493
210
0.0
220
1.0
230
-0.0000000000000002
  0
LINE
  5
1CD2D
  8
0
  6
VERDECKT
 62
     1
 10
37.7999999999999616
 20
222.0
 30
-0.0000000000000493
 11
37.7999999999999616
 21
220.0
 31
-0.0000000000000488
210
0.0
220
1.0
230
-0.0000000000000002
  0
LINE
  5
1CD2E
  8
0
  6
VERDECKT
 62
     1
 10
-37.7999999999999616
 20
222.0
 30
-0.0000000000000493
 11
-37.7999999999999616
 21
220.0
 31
-0.0000000000000488
210
0.0
220
1.0
230
-0.0000000000000002
  0
ARC
  5
1CD2F
  8
0
  6
VERDECKT
 62
     1
 10
58.4999999999996732
 20
226.0000000000005116
 30
0.0
 40
4.00000000000054
210
0.0
220
-0.0000000000000002
230
-1.0
 50
270.0
 51
300.1874540748210052
  0
ARC
  5
1CD30
  8
0
  6
VERDECKT
 62
     1
 10
-58.4999999999996732
 20
226.0000000000005116
 30
0.0
 40
4.0000000000005391
210
0.0
220
-0.0000000000000002
230
-1.0
 50
239.8125459251758969
 51
269.9999999999968736
  0
LINE
  5
1CD31
  8
0
  6
VERDECKT
 62
     1
 10
-60.5113227452212428
 20
222.5424602945801951
 30
-0.0000000000000494
 11
-98.3867725477864354
 21
244.5753970541991009
 31
-0.0000000000000543
210
0.0
220
1.0
230
-0.0000000000000002
  0
LINE
  5
1CD32
  8
0
  6
VERDECKT
 62
     1
 10
60.5113227452212428
 20
222.5424602945801951
 30
-0.0000000000000494
 11
98.3867725477864354
 21
244.5753970541991009
 31
-0.0000000000000543
210
0.0
220
1.0
230
-0.0000000000000002
  0
ARC
  5
1CD33
  8
0
  6
VERDECKT
 62
     1
 10
118.4999999999999005
 20
209.9999999999994884
 30
0.0
 40
40.0000000000004192
210
0.0
220
-0.0000000000000002
230
-1.0
 50
90.0000000000004405
 51
120.1874540748242026
  0
ARC
  5
1CD34
  8
0
  6
VERDECKT
 62
     1
 10
-118.4999999999999005
 20
209.9999999999994884
 30
0.0
 40
40.0000000000004192
210
0.0
220
-0.0000000000000002
230
-1.0
 50
59.8125459251757832
 51
89.9999999999995737
  0
LINE
  5
1CD35
  8
0
  6
VERDECKT
 62
     1
 10
-34.6921457176084687
 20
0.104586891297231
 30
0.0
 11
34.6921457176084687
 21
0.104586891297231
 31
0.0
210
0.0
220
1.0
230
-0.0000000000000002
  0
ARC
  5
1CD36
  8
0
  6
VERDECKT
 62
     1
 10
34.2999999999992866
 20
7.0960540743962994
 30
0.0
 40
1.0000000000006599
210
0.0
220
-0.0000000000000002
230
-1.0
 50
355.0000000000038085
 51
0.0000000000005216
  0
ARC
  5
1CD37
  8
0
  6
VERDECKT
 62
     1
 10
-34.2999999999992582
 20
7.0960540743962994
 30
0.0
 40
1.0000000000006961
210
0.0
220
-0.0000000000000002
230
-1.0
 50
179.9999999999994884
 51
184.9999999999959925
  0
LINE
  5
1CD38
  8
0
  6
VERDECKT
 62
     1
 10
-34.6921457176084118
 20
0.1045868912972363
 30
0.0
 11
-35.2961946980917034
 21
7.0088983316486502
 31
-0.0000000000000016
210
0.0
220
1.0
230
-0.0000000000000002
  0
LINE
  5
1CD39
  8
0
  6
VERDECKT
 62
     1
 10
34.6921457176084118
 20
0.1045868912972363
 30
0.0
 11
35.2961946980917034
 21
7.0088983316486502
 31
-0.0000000000000016
210
0.0
220
1.0
230
-0.0000000000000002
  0
LINE
  5
1CD3A
  8
0
  6
VERDECKT
 62
     1
 10
35.2999999999999616
 20
160.5069422202888916
 30
-0.0000000000000356
 11
35.2999999999999616
 21
7.0960540743963083
 31
-0.0000000000000016
210
0.0
220
1.0
230
-0.0000000000000002
  0
LINE
  5
1CD3B
  8
0
  6
VERDECKT
 62
     1
 10
-35.2999999999999616
 20
160.5069422202888916
 30
-0.0000000000000356
 11
-35.2999999999999616
 21
7.0960540743963083
 31
-0.0000000000000016
210
0.0
220
1.0
230
-0.0000000000000002
  0
LINE
  5
1CD3C
  8
0
  6
VERDECKT
 62
     1
 10
-40.6999999999995907
 20
204.6376752632727118
 30
-0.0000000000000454
 11
-40.6999999999995907
 21
220.0000000000001137
 31
-0.0000000000000488
210
0.0
220
1.0
230
-0.0000000000000002
  0
LINE
  5
1CD3D
  8
0
  6
VERDECKT
 62
     1
 10
40.6999999999995907
 20
204.6376752632727118
 30
-0.0000000000000454
 11
40.6999999999995907
 21
220.0000000000001137
 31
-0.0000000000000488
210
0.0
220
1.0
230
-0.0000000000000002
  0
ARC
  5
1CD3E
  8
0
  6
VERDECKT
 62
     1
 10
-16.9941909850668011
 20
204.5737405743471982
 30
0.0
 40
23.7058952308685384
210
0.0
220
-0.0000000000000002
230
-1.0
 50
179.8454733624222115
 51
201.0124127937330911
  0
ARC
  5
1CD3F
  8
0
  6
VERDECKT
 62
     1
 10
16.9941909850669504
 20
204.5737405743471982
 30
0.0
 40
23.7058952308683892
210
0.0
220
-0.0000000000000002
230
-1.0
 50
338.9875872062669941
 51
0.1545266375778072
  0
ARC
  5
1CD40
  8
0
  6
VERDECKT
 62
     1
 10
-51.8999999999706887
 20
191.1281710573175019
 30
0.0
 40
13.6999999999710909
210
0.0
220
-0.0000000000000002
230
-1.0
 50
359.9999999999831175
 51
21.1600167708493103
  0
ARC
  5
1CD41
  8
0
  6
VERDECKT
 62
     1
 10
51.8999999999713566
 20
191.1281710573173882
 30
0.0
 40
13.6999999999717694
210
0.0
220
-0.0000000000000002
230
-1.0
 50
158.8399832291509028
 51
180.0000000000162004
  0
LINE
  5
1CD42
  8
0
  6
VERDECKT
 62
     1
 10
-38.1999999999995907
 20
170.8515060100291123
 30
-0.0000000000000379
 11
-38.1999999999995907
 21
191.1281710573134944
 31
-0.0000000000000424
210
0.0
220
1.0
230
-0.0000000000000002
  0
LINE
  5
1CD43
  8
0
  6
VERDECKT
 62
     1
 10
38.1999999999995907
 20
170.8515060100291123
 30
-0.0000000000000379
 11
38.1999999999995907
 21
191.1281710573134944
 31
-0.0000000000000424
210
0.0
220
1.0
230
-0.0000000000000002
  0
ARC
  5
1CD44
  8
0
  6
VERDECKT
 62
     1
 10
-27.4999999999948095
 20
170.8515060100311871
 30
0.0
 40
10.7000000000047599
210
0.0
220
-0.0000000000000002
230
-1.0
 50
180.0000000000111982
 51
211.3206695884101123
  0
ARC
  5
1CD45
  8
0
  6
VERDECKT
 62
     1
 10
27.4999999999948095
 20
170.8515060100311871
 30
0.0
 40
10.7000000000047599
210
0.0
220
-0.0000000000000002
230
-1.0
 50
328.679330411589774
 51
359.9999999999888018
  0
ARC
  5
1CD46
  8
0
  6
VERDECKT
 62
     1
 10
-44.4999999999830607
 20
160.5069422202952865
 30
0.0
 40
9.1999999999831061
210
0.0
220
-0.0000000000000002
230
-1.0
 50
0.0
 51
31.3206695884721107
  0
ARC
  5
1CD47
  8
0
  6
VERDECKT
 62
     1
 10
44.4999999999827978
 20
160.5069422202952865
 30
0.0
 40
9.1999999999828521
210
0.0
220
-0.0000000000000002
230
-1.0
 50
148.6793304115668093
 51
180.0000000000397051
  0
LINE
  5
1CD48
  8
0
  6
VERDECKT
 62
     1
 10
34.6921457176084687
 20
0.104586891297231
 30
0.0
 11
35.8875793553185076
 21
0.0
 31
0.0
210
0.0
220
1.0
230
-0.0000000000000002
  0
LINE
  5
1CD49
  8
0
  6
VERDECKT
 62
     1
 10
-34.6921457176084687
 20
0.104586891297231
 30
0.0
 11
-35.8875793553185076
 21
0.0
 31
0.0
210
0.0
220
1.0
230
-0.0000000000000002
  0
LINE
  5
1CD4A
  8
0
  6
VERDECKT
 62
     1
 10
-54.9999999999999289
 20
235.000000000000199
 30
-0.0000000000000522
 11
-46.9999999999999289
 21
235.000000000000199
 31
-0.0000000000000522
210
0.0
220
1.0
230
-0.0000000000000002
  0
LINE
  5
1CD4B
  8
0
  6
VERDECKT
 62
     1
 10
-53.9999999999999432
 20
234.000000000000199
 30
-0.000000000000052
 11
-47.9999999999999289
 21
234.000000000000199
 31
-0.000000000000052
210
0.0
220
1.0
230
-0.0000000000000002
  0
LINE
  5
1CD4C
  8
0
  6
VERDECKT
 62
     1
 10
-54.9999999999999289
 20
233.000000000000199
 30
-0.0000000000000517
 11
-46.9999999999999289
 21
233.000000000000199
 31
-0.0000000000000517
210
0.0
220
1.0
230
-0.0000000000000002
  0
LINE
  5
1CD4D
  8
0
  6
VERDECKT
 62
     1
 10
-53.9999999999999432
 20
232.000000000000199
 30
-0.0000000000000515
 11
-47.9999999999999289
 21
232.000000000000199
 31
-0.0000000000000515
210
0.0
220
1.0
230
-0.0000000000000002
  0
LINE
  5
1CD4E
  8
0
  6
VERDECKT
 62
     1
 10
-54.9999999999999289
 20
231.000000000000199
 30
-0.0000000000000513
 11
-46.9999999999999289
 21
231.000000000000199
 31
-0.0000000000000513
210
0.0
220
1.0
230
-0.0000000000000002
  0
LINE
  5
1CD4F
  8
0
  6
VERDECKT
 62
     1
 10
-53.9999999999999432
 20
230.000000000000199
 30
-0.0000000000000511
 11
-47.9999999999999289
 21
230.000000000000199
 31
-0.0000000000000511
210
0.0
220
1.0
230
-0.0000000000000002
  0
LINE
  5
1CD50
  8
0
  6
VERDECKT
 62
     1
 10
-54.9999999999999289
 20
229.000000000000199
 30
-0.0000000000000508
 11
-46.9999999999999289
 21
229.000000000000199
 31
-0.0000000000000508
210
0.0
220
1.0
230
-0.0000000000000002
  0
LINE
  5
1CD51
  8
0
  6
VERDECKT
 62
     1
 10
-53.9999999999999432
 20
228.000000000000199
 30
-0.0000000000000506
 11
-47.9999999999999289
 21
228.000000000000199
 31
-0.0000000000000506
210
0.0
220
1.0
230
-0.0000000000000002
  0
LINE
  5
1CD52
  8
0
  6
VERDECKT
 62
     1
 10
-54.9999999999999289
 20
227.000000000000199
 30
-0.0000000000000504
 11
-46.9999999999999289
 21
227.000000000000199
 31
-0.0000000000000504
210
0.0
220
1.0
230
-0.0000000000000002
  0
LINE
  5
1CD53
  8
0
  6
VERDECKT
 62
     1
 10
-53.9999999999999432
 20
226.000000000000199
 30
-0.0000000000000502
 11
-47.9999999999999289
 21
226.000000000000199
 31
-0.0000000000000502
210
0.0
220
1.0
230
-0.0000000000000002
  0
LINE
  5
1CD54
  8
0
  6
VERDECKT
 62
     1
 10
-54.9999999999999289
 20
225.000000000000199
 30
-0.00000000000005
 11
-46.9999999999999289
 21
225.000000000000199
 31
-0.00000000000005
210
0.0
220
1.0
230
-0.0000000000000002
  0
LINE
  5
1CD55
  8
0
  6
VERDECKT
 62
     1
 10
-53.9999999999999432
 20
224.000000000000199
 30
-0.0000000000000497
 11
-47.9999999999999289
 21
224.000000000000199
 31
-0.0000000000000497
210
0.0
220
1.0
230
-0.0000000000000002
  0
LINE
  5
1CD56
  8
0
  6
VERDECKT
 62
     1
 10
-54.9999999999999289
 20
223.000000000000199
 30
-0.0000000000000495
 11
-46.9999999999999289
 21
223.000000000000199
 31
-0.0000000000000495
210
0.0
220
1.0
230
-0.0000000000000002
  0
LINE
  5
1CD57
  8
0
  6
VERDECKT
 62
     1
 10
-53.9999999999999432
 20
242.000000000000199
 30
-0.0000000000000537
 11
-47.9999999999999289
 21
242.000000000000199
 31
-0.0000000000000537
210
0.0
220
1.0
230
-0.0000000000000002
  0
LINE
  5
1CD58
  8
0
  6
VERDECKT
 62
     1
 10
-54.9999999999999289
 20
241.000000000000199
 30
-0.0000000000000535
 11
-46.9999999999999289
 21
241.000000000000199
 31
-0.0000000000000535
210
0.0
220
1.0
230
-0.0000000000000002
  0
LINE
  5
1CD59
  8
0
  6
VERDECKT
 62
     1
 10
-53.9999999999999432
 20
240.000000000000199
 30
-0.0000000000000533
 11
-47.9999999999999289
 21
240.000000000000199
 31
-0.0000000000000533
210
0.0
220
1.0
230
-0.0000000000000002
  0
LINE
  5
1CD5A
  8
0
  6
VERDECKT
 62
     1
 10
-54.9999999999999289
 20
239.000000000000199
 30
-0.0000000000000531
 11
-46.9999999999999289
 21
239.000000000000199
 31
-0.0000000000000531
210
0.0
220
1.0
230
-0.0000000000000002
  0
LINE
  5
1CD5B
  8
0
  6
VERDECKT
 62
     1
 10
-53.9999999999999432
 20
238.000000000000199
 30
-0.0000000000000528
 11
-47.9999999999999289
 21
238.000000000000199
 31
-0.0000000000000528
210
0.0
220
1.0
230
-0.0000000000000002
  0
LINE
  5
1CD5C
  8
0
  6
VERDECKT
 62
     1
 10
-54.9999999999999289
 20
237.000000000000199
 30
-0.0000000000000526
 11
-46.9999999999999289
 21
237.000000000000199
 31
-0.0000000000000526
210
0.0
220
1.0
230
-0.0000000000000002
  0
LINE
  5
1CD5D
  8
0
  6
VERDECKT
 62
     1
 10
-53.9999999999999432
 20
236.000000000000199
 30
-0.0000000000000524
 11
-47.9999999999999289
 21
236.000000000000199
 31
-0.0000000000000524
210
0.0
220
1.0
230
-0.0000000000000002
  0
LINE
  5
1CD5E
  8
0
  6
VERDECKT
 62
     1
 10
-53.9999999999999432
 20
234.000000000000199
 30
-0.000000000000052
 11
-54.9999999999999289
 21
235.000000000000199
 31
-0.0000000000000522
210
0.0
220
1.0
230
-0.0000000000000002
  0
LINE
  5
1CD5F
  8
0
  6
VERDECKT
 62
     1
 10
-47.9999999999999289
 20
234.000000000000199
 30
-0.000000000000052
 11
-46.9999999999999289
 21
235.000000000000199
 31
-0.0000000000000522
210
0.0
220
1.0
230
-0.0000000000000002
  0
LINE
  5
1CD60
  8
0
  6
VERDECKT
 62
     1
 10
-47.9999999999999289
 20
234.000000000000199
 30
-0.000000000000052
 11
-46.9999999999999289
 21
233.000000000000199
 31
-0.0000000000000517
210
0.0
220
1.0
230
-0.0000000000000002
  0
LINE
  5
1CD61
  8
0
  6
VERDECKT
 62
     1
 10
-53.9999999999999432
 20
234.000000000000199
 30
-0.000000000000052
 11
-54.9999999999999289
 21
233.000000000000199
 31
-0.0000000000000517
210
0.0
220
1.0
230
-0.0000000000000002
  0
LINE
  5
1CD62
  8
0
  6
VERDECKT
 62
     1
 10
-53.9999999999999432
 20
232.000000000000199
 30
-0.0000000000000515
 11
-54.9999999999999289
 21
233.000000000000199
 31
-0.0000000000000517
210
0.0
220
1.0
230
-0.0000000000000002
  0
LINE
  5
1CD63
  8
0
  6
VERDECKT
 62
     1
 10
-47.9999999999999289
 20
232.000000000000199
 30
-0.0000000000000515
 11
-46.9999999999999289
 21
233.000000000000199
 31
-0.0000000000000517
210
0.0
220
1.0
230
-0.0000000000000002
  0
LINE
  5
1CD64
  8
0
  6
VERDECKT
 62
     1
 10
-47.9999999999999289
 20
232.000000000000199
 30
-0.0000000000000515
 11
-46.9999999999999289
 21
231.000000000000199
 31
-0.0000000000000513
210
0.0
220
1.0
230
-0.0000000000000002
  0
LINE
  5
1CD65
  8
0
  6
VERDECKT
 62
     1
 10
-53.9999999999999432
 20
232.000000000000199
 30
-0.0000000000000515
 11
-54.9999999999999289
 21
231.000000000000199
 31
-0.0000000000000513
210
0.0
220
1.0
230
-0.0000000000000002
  0
LINE
  5
1CD66
  8
0
  6
VERDECKT
 62
     1
 10
-53.9999999999999432
 20
230.000000000000199
 30
-0.0000000000000511
 11
-54.9999999999999289
 21
231.000000000000199
 31
-0.0000000000000513
210
0.0
220
1.0
230
-0.0000000000000002
  0
LINE
  5
1CD67
  8
0
  6
VERDECKT
 62
     1
 10
-47.9999999999999289
 20
230.000000000000199
 30
-0.0000000000000511
 11
-46.9999999999999289
 21
231.000000000000199
 31
-0.0000000000000513
210
0.0
220
1.0
230
-0.0000000000000002
  0
LINE
  5
1CD68
  8
0
  6
VERDECKT
 62
     1
 10
-47.9999999999999289
 20
230.000000000000199
 30
-0.0000000000000511
 11
-46.9999999999999289
 21
229.000000000000199
 31
-0.0000000000000508
210
0.0
220
1.0
230
-0.0000000000000002
  0
LINE
  5
1CD69
  8
0
  6
VERDECKT
 62
     1
 10
-53.9999999999999432
 20
230.000000000000199
 30
-0.0000000000000511
 11
-54.9999999999999289
 21
229.000000000000199
 31
-0.0000000000000508
210
0.0
220
1.0
230
-0.0000000000000002
  0
LINE
  5
1CD6A
  8
0
  6
VERDECKT
 62
     1
 10
-53.9999999999999432
 20
228.000000000000199
 30
-0.0000000000000506
 11
-54.9999999999999289
 21
229.000000000000199
 31
-0.0000000000000508
210
0.0
220
1.0
230
-0.0000000000000002
  0
LINE
  5
1CD6B
  8
0
  6
VERDECKT
 62
     1
 10
-47.9999999999999289
 20
228.000000000000199
 30
-0.0000000000000506
 11
-46.9999999999999289
 21
229.000000000000199
 31
-0.0000000000000508
210
0.0
220
1.0
230
-0.0000000000000002
  0
LINE
  5
1CD6C
  8
0
  6
VERDECKT
 62
     1
 10
-47.9999999999999289
 20
228.000000000000199
 30
-0.0000000000000506
 11
-46.9999999999999289
 21
227.000000000000199
 31
-0.0000000000000504
210
0.0
220
1.0
230
-0.0000000000000002
  0
LINE
  5
1CD6D
  8
0
  6
VERDECKT
 62
     1
 10
-53.9999999999999432
 20
228.000000000000199
 30
-0.0000000000000506
 11
-54.9999999999999289
 21
227.000000000000199
 31
-0.0000000000000504
210
0.0
220
1.0
230
-0.0000000000000002
  0
LINE
  5
1CD6E
  8
0
  6
VERDECKT
 62
     1
 10
-53.9999999999999432
 20
226.000000000000199
 30
-0.0000000000000502
 11
-54.9999999999999289
 21
227.000000000000199
 31
-0.0000000000000504
210
0.0
220
1.0
230
-0.0000000000000002
  0
LINE
  5
1CD6F
  8
0
  6
VERDECKT
 62
     1
 10
-47.9999999999999289
 20
226.000000000000199
 30
-0.0000000000000502
 11
-46.9999999999999289
 21
227.000000000000199
 31
-0.0000000000000504
210
0.0
220
1.0
230
-0.0000000000000002
  0
LINE
  5
1CD70
  8
0
  6
VERDECKT
 62
     1
 10
-47.9999999999999289
 20
226.000000000000199
 30
-0.0000000000000502
 11
-46.9999999999999289
 21
225.000000000000199
 31
-0.00000000000005
210
0.0
220
1.0
230
-0.0000000000000002
  0
LINE
  5
1CD71
  8
0
  6
VERDECKT
 62
     1
 10
-53.9999999999999432
 20
226.000000000000199
 30
-0.0000000000000502
 11
-54.9999999999999289
 21
225.000000000000199
 31
-0.00000000000005
210
0.0
220
1.0
230
-0.0000000000000002
  0
LINE
  5
1CD72
  8
0
  6
VERDECKT
 62
     1
 10
-53.9999999999999432
 20
224.000000000000199
 30
-0.0000000000000497
 11
-54.9999999999999289
 21
225.000000000000199
 31
-0.00000000000005
210
0.0
220
1.0
230
-0.0000000000000002
  0
LINE
  5
1CD73
  8
0
  6
VERDECKT
 62
     1
 10
-47.9999999999999289
 20
224.000000000000199
 30
-0.0000000000000497
 11
-46.9999999999999289
 21
225.000000000000199
 31
-0.00000000000005
210
0.0
220
1.0
230
-0.0000000000000002
  0
LINE
  5
1CD74
  8
0
  6
VERDECKT
 62
     1
 10
-47.9999999999999289
 20
224.000000000000199
 30
-0.0000000000000497
 11
-46.9999999999999289
 21
223.000000000000199
 31
-0.0000000000000495
210
0.0
220
1.0
230
-0.0000000000000002
  0
LINE
  5
1CD75
  8
0
  6
VERDECKT
 62
     1
 10
-53.9999999999999432
 20
224.000000000000199
 30
-0.0000000000000497
 11
-54.9999999999999289
 21
223.000000000000199
 31
-0.0000000000000495
210
0.0
220
1.0
230
-0.0000000000000002
  0
LINE
  5
1CD76
  8
0
  6
VERDECKT
 62
     1
 10
-53.9999999999999432
 20
222.000000000000199
 30
-0.0000000000000493
 11
-54.9999999999999289
 21
223.000000000000199
 31
-0.0000000000000495
210
0.0
220
1.0
230
-0.0000000000000002
  0
LINE
  5
1CD77
  8
0
  6
VERDECKT
 62
     1
 10
-47.9999999999999289
 20
222.000000000000199
 30
-0.0000000000000493
 11
-46.9999999999999289
 21
223.000000000000199
 31
-0.0000000000000495
210
0.0
220
1.0
230
-0.0000000000000002
  0
LINE
  5
1CD78
  8
0
  6
VERDECKT
 62
     1
 10
-47.9999999999999289
 20
242.000000000000199
 30
-0.0000000000000537
 11
-46.9999999999999289
 21
241.000000000000199
 31
-0.0000000000000535
210
0.0
220
1.0
230
-0.0000000000000002
  0
LINE
  5
1CD79
  8
0
  6
VERDECKT
 62
     1
 10
-53.9999999999999432
 20
242.000000000000199
 30
-0.0000000000000537
 11
-54.9999999999999289
 21
241.000000000000199
 31
-0.0000000000000535
210
0.0
220
1.0
230
-0.0000000000000002
  0
LINE
  5
1CD7A
  8
0
  6
VERDECKT
 62
     1
 10
-53.9999999999999432
 20
240.000000000000199
 30
-0.0000000000000533
 11
-54.9999999999999289
 21
241.000000000000199
 31
-0.0000000000000535
210
0.0
220
1.0
230
-0.0000000000000002
  0
LINE
  5
1CD7B
  8
0
  6
VERDECKT
 62
     1
 10
-47.9999999999999289
 20
240.000000000000199
 30
-0.0000000000000533
 11
-46.9999999999999289
 21
241.000000000000199
 31
-0.0000000000000535
210
0.0
220
1.0
230
-0.0000000000000002
  0
LINE
  5
1CD7C
  8
0
  6
VERDECKT
 62
     1
 10
-47.9999999999999289
 20
240.000000000000199
 30
-0.0000000000000533
 11
-46.9999999999999289
 21
239.000000000000199
 31
-0.0000000000000531
210
0.0
220
1.0
230
-0.0000000000000002
  0
LINE
  5
1CD7D
  8
0
  6
VERDECKT
 62
     1
 10
-53.9999999999999432
 20
240.000000000000199
 30
-0.0000000000000533
 11
-54.9999999999999289
 21
239.000000000000199
 31
-0.0000000000000531
210
0.0
220
1.0
230
-0.0000000000000002
  0
LINE
  5
1CD7E
  8
0
  6
VERDECKT
 62
     1
 10
-53.9999999999999432
 20
238.000000000000199
 30
-0.0000000000000528
 11
-54.9999999999999289
 21
239.000000000000199
 31
-0.0000000000000531
210
0.0
220
1.0
230
-0.0000000000000002
  0
LINE
  5
1CD7F
  8
0
  6
VERDECKT
 62
     1
 10
-47.9999999999999289
 20
238.000000000000199
 30
-0.0000000000000528
 11
-46.9999999999999289
 21
239.000000000000199
 31
-0.0000000000000531
210
0.0
220
1.0
230
-0.0000000000000002
  0
LINE
  5
1CD80
  8
0
  6
VERDECKT
 62
     1
 10
-47.9999999999999289
 20
238.000000000000199
 30
-0.0000000000000528
 11
-46.9999999999999289
 21
237.000000000000199
 31
-0.0000000000000526
210
0.0
220
1.0
230
-0.0000000000000002
  0
LINE
  5
1CD81
  8
0
  6
VERDECKT
 62
     1
 10
-53.9999999999999432
 20
238.000000000000199
 30
-0.0000000000000528
 11
-54.9999999999999289
 21
237.000000000000199
 31
-0.0000000000000526
210
0.0
220
1.0
230
-0.0000000000000002
  0
LINE
  5
1CD82
  8
0
  6
VERDECKT
 62
     1
 10
-53.9999999999999432
 20
236.000000000000199
 30
-0.0000000000000524
 11
-54.9999999999999289
 21
237.000000000000199
 31
-0.0000000000000526
210
0.0
220
1.0
230
-0.0000000000000002
  0
LINE
  5
1CD83
  8
0
  6
VERDECKT
 62
     1
 10
-47.9999999999999289
 20
236.000000000000199
 30
-0.0000000000000524
 11
-46.9999999999999289
 21
237.000000000000199
 31
-0.0000000000000526
210
0.0
220
1.0
230
-0.0000000000000002
  0
LINE
  5
1CD84
  8
0
  6
VERDECKT
 62
     1
 10
-47.9999999999999289
 20
236.000000000000199
 30
-0.0000000000000524
 11
-46.9999999999999289
 21
235.000000000000199
 31
-0.0000000000000522
210
0.0
220
1.0
230
-0.0000000000000002
  0
LINE
  5
1CD85
  8
0
  6
VERDECKT
 62
     1
 10
-53.9999999999999432
 20
236.000000000000199
 30
-0.0000000000000524
 11
-54.9999999999999289
 21
235.000000000000199
 31
-0.0000000000000522
210
0.0
220
1.0
230
-0.0000000000000002
  0
LINE
  5
1CD86
  8
0
  6
VERDECKT
 62
     1
 10
-4.0000000000000089
 20
235.000000000000199
 30
-0.0000000000000522
 11
3.9999999999999898
 21
235.000000000000199
 31
-0.0000000000000522
210
0.0
220
1.0
230
-0.0000000000000002
  0
LINE
  5
1CD87
  8
0
  6
VERDECKT
 62
     1
 10
-3.0000000000000089
 20
234.000000000000199
 30
-0.000000000000052
 11
2.9999999999999898
 21
234.000000000000199
 31
-0.000000000000052
210
0.0
220
1.0
230
-0.0000000000000002
  0
LINE
  5
1CD88
  8
0
  6
VERDECKT
 62
     1
 10
-4.0000000000000089
 20
233.000000000000199
 30
-0.0000000000000517
 11
3.9999999999999898
 21
233.000000000000199
 31
-0.0000000000000517
210
0.0
220
1.0
230
-0.0000000000000002
  0
LINE
  5
1CD89
  8
0
  6
VERDECKT
 62
     1
 10
-3.0000000000000089
 20
232.000000000000199
 30
-0.0000000000000515
 11
2.9999999999999898
 21
232.000000000000199
 31
-0.0000000000000515
210
0.0
220
1.0
230
-0.0000000000000002
  0
LINE
  5
1CD8A
  8
0
  6
VERDECKT
 62
     1
 10
-4.0000000000000089
 20
231.000000000000199
 30
-0.0000000000000513
 11
3.9999999999999898
 21
231.000000000000199
 31
-0.0000000000000513
210
0.0
220
1.0
230
-0.0000000000000002
  0
LINE
  5
1CD8B
  8
0
  6
VERDECKT
 62
     1
 10
-3.0000000000000089
 20
230.000000000000199
 30
-0.0000000000000511
 11
2.9999999999999898
 21
230.000000000000199
 31
-0.0000000000000511
210
0.0
220
1.0
230
-0.0000000000000002
  0
LINE
  5
1CD8C
  8
0
  6
VERDECKT
 62
     1
 10
-4.0000000000000089
 20
229.000000000000199
 30
-0.0000000000000508
 11
3.9999999999999898
 21
229.000000000000199
 31
-0.0000000000000508
210
0.0
220
1.0
230
-0.0000000000000002
  0
LINE
  5
1CD8D
  8
0
  6
VERDECKT
 62
     1
 10
-3.0000000000000089
 20
228.000000000000199
 30
-0.0000000000000506
 11
2.9999999999999898
 21
228.000000000000199
 31
-0.0000000000000506
210
0.0
220
1.0
230
-0.0000000000000002
  0
LINE
  5
1CD8E
  8
0
  6
VERDECKT
 62
     1
 10
-4.0000000000000089
 20
227.000000000000199
 30
-0.0000000000000504
 11
3.9999999999999898
 21
227.000000000000199
 31
-0.0000000000000504
210
0.0
220
1.0
230
-0.0000000000000002
  0
LINE
  5
1CD8F
  8
0
  6
VERDECKT
 62
     1
 10
-3.0000000000000089
 20
226.000000000000199
 30
-0.0000000000000502
 11
2.9999999999999898
 21
226.000000000000199
 31
-0.0000000000000502
210
0.0
220
1.0
230
-0.0000000000000002
  0
LINE
  5
1CD90
  8
0
  6
VERDECKT
 62
     1
 10
-4.0000000000000089
 20
225.000000000000199
 30
-0.00000000000005
 11
3.9999999999999898
 21
225.000000000000199
 31
-0.00000000000005
210
0.0
220
1.0
230
-0.0000000000000002
  0
LINE
  5
1CD91
  8
0
  6
VERDECKT
 62
     1
 10
-3.0000000000000089
 20
224.000000000000199
 30
-0.0000000000000497
 11
2.9999999999999898
 21
224.000000000000199
 31
-0.0000000000000497
210
0.0
220
1.0
230
-0.0000000000000002
  0
LINE
  5
1CD92
  8
0
  6
VERDECKT
 62
     1
 10
-4.0000000000000089
 20
223.000000000000199
 30
-0.0000000000000495
 11
3.9999999999999898
 21
223.000000000000199
 31
-0.0000000000000495
210
0.0
220
1.0
230
-0.0000000000000002
  0
LINE
  5
1CD93
  8
0
  6
VERDECKT
 62
     1
 10
-3.0000000000000089
 20
242.000000000000199
 30
-0.0000000000000537
 11
2.9999999999999898
 21
242.000000000000199
 31
-0.0000000000000537
210
0.0
220
1.0
230
-0.0000000000000002
  0
LINE
  5
1CD94
  8
0
  6
VERDECKT
 62
     1
 10
-4.0000000000000089
 20
241.000000000000199
 30
-0.0000000000000535
 11
3.9999999999999898
 21
241.000000000000199
 31
-0.0000000000000535
210
0.0
220
1.0
230
-0.0000000000000002
  0
LINE
  5
1CD95
  8
0
  6
VERDECKT
 62
     1
 10
-3.0000000000000089
 20
240.000000000000199
 30
-0.0000000000000533
 11
2.9999999999999898
 21
240.000000000000199
 31
-0.0000000000000533
210
0.0
220
1.0
230
-0.0000000000000002
  0
LINE
  5
1CD96
  8
0
  6
VERDECKT
 62
     1
 10
-4.0000000000000089
 20
239.000000000000199
 30
-0.0000000000000531
 11
3.9999999999999898
 21
239.000000000000199
 31
-0.0000000000000531
210
0.0
220
1.0
230
-0.0000000000000002
  0
LINE
  5
1CD97
  8
0
  6
VERDECKT
 62
     1
 10
-3.0000000000000089
 20
238.000000000000199
 30
-0.0000000000000528
 11
2.9999999999999898
 21
238.000000000000199
 31
-0.0000000000000528
210
0.0
220
1.0
230
-0.0000000000000002
  0
LINE
  5
1CD98
  8
0
  6
VERDECKT
 62
     1
 10
-4.0000000000000089
 20
237.000000000000199
 30
-0.0000000000000526
 11
3.9999999999999898
 21
237.000000000000199
 31
-0.0000000000000526
210
0.0
220
1.0
230
-0.0000000000000002
  0
LINE
  5
1CD99
  8
0
  6
VERDECKT
 62
     1
 10
-3.0000000000000089
 20
236.000000000000199
 30
-0.0000000000000524
 11
2.9999999999999898
 21
236.000000000000199
 31
-0.0000000000000524
210
0.0
220
1.0
230
-0.0000000000000002
  0
LINE
  5
1CD9A
  8
0
  6
VERDECKT
 62
     1
 10
-3.0000000000000089
 20
234.000000000000199
 30
-0.000000000000052
 11
-4.0000000000000089
 21
235.000000000000199
 31
-0.0000000000000522
210
0.0
220
1.0
230
-0.0000000000000002
  0
LINE
  5
1CD9B
  8
0
  6
VERDECKT
 62
     1
 10
2.9999999999999911
 20
234.000000000000199
 30
-0.000000000000052
 11
3.9999999999999911
 21
235.000000000000199
 31
-0.0000000000000522
210
0.0
220
1.0
230
-0.0000000000000002
  0
LINE
  5
1CD9C
  8
0
  6
VERDECKT
 62
     1
 10
2.9999999999999911
 20
234.000000000000199
 30
-0.000000000000052
 11
3.9999999999999898
 21
233.000000000000199
 31
-0.0000000000000517
210
0.0
220
1.0
230
-0.0000000000000002
  0
LINE
  5
1CD9D
  8
0
  6
VERDECKT
 62
     1
 10
-3.0000000000000089
 20
234.000000000000199
 30
-0.000000000000052
 11
-4.0000000000000089
 21
233.000000000000199
 31
-0.0000000000000517
210
0.0
220
1.0
230
-0.0000000000000002
  0
LINE
  5
1CD9E
  8
0
  6
VERDECKT
 62
     1
 10
-3.0000000000000102
 20
232.000000000000199
 30
-0.0000000000000515
 11
-4.0000000000000089
 21
233.000000000000199
 31
-0.0000000000000517
210
0.0
220
1.0
230
-0.0000000000000002
  0
LINE
  5
1CD9F
  8
0
  6
VERDECKT
 62
     1
 10
2.9999999999999911
 20
232.000000000000199
 30
-0.0000000000000515
 11
3.9999999999999898
 21
233.000000000000199
 31
-0.0000000000000517
210
0.0
220
1.0
230
-0.0000000000000002
  0
LINE
  5
1CDA0
  8
0
  6
VERDECKT
 62
     1
 10
2.9999999999999911
 20
232.000000000000199
 30
-0.0000000000000515
 11
3.9999999999999898
 21
231.000000000000199
 31
-0.0000000000000513
210
0.0
220
1.0
230
-0.0000000000000002
  0
LINE
  5
1CDA1
  8
0
  6
VERDECKT
 62
     1
 10
-3.0000000000000089
 20
232.000000000000199
 30
-0.0000000000000515
 11
-4.0000000000000089
 21
231.000000000000199
 31
-0.0000000000000513
210
0.0
220
1.0
230
-0.0000000000000002
  0
LINE
  5
1CDA2
  8
0
  6
VERDECKT
 62
     1
 10
-3.0000000000000089
 20
230.000000000000199
 30
-0.0000000000000511
 11
-4.0000000000000089
 21
231.000000000000199
 31
-0.0000000000000513
210
0.0
220
1.0
230
-0.0000000000000002
  0
LINE
  5
1CDA3
  8
0
  6
VERDECKT
 62
     1
 10
2.9999999999999911
 20
230.000000000000199
 30
-0.0000000000000511
 11
3.9999999999999898
 21
231.000000000000199
 31
-0.0000000000000513
210
0.0
220
1.0
230
-0.0000000000000002
  0
LINE
  5
1CDA4
  8
0
  6
VERDECKT
 62
     1
 10
2.9999999999999911
 20
230.000000000000199
 30
-0.0000000000000511
 11
3.9999999999999898
 21
229.000000000000199
 31
-0.0000000000000508
210
0.0
220
1.0
230
-0.0000000000000002
  0
LINE
  5
1CDA5
  8
0
  6
VERDECKT
 62
     1
 10
-3.0000000000000089
 20
230.000000000000199
 30
-0.0000000000000511
 11
-4.0000000000000089
 21
229.000000000000199
 31
-0.0000000000000508
210
0.0
220
1.0
230
-0.0000000000000002
  0
LINE
  5
1CDA6
  8
0
  6
VERDECKT
 62
     1
 10
-3.0000000000000102
 20
228.000000000000199
 30
-0.0000000000000506
 11
-4.0000000000000089
 21
229.000000000000199
 31
-0.0000000000000508
210
0.0
220
1.0
230
-0.0000000000000002
  0
LINE
  5
1CDA7
  8
0
  6
VERDECKT
 62
     1
 10
2.9999999999999911
 20
228.000000000000199
 30
-0.0000000000000506
 11
3.9999999999999898
 21
229.000000000000199
 31
-0.0000000000000508
210
0.0
220
1.0
230
-0.0000000000000002
  0
LINE
  5
1CDA8
  8
0
  6
VERDECKT
 62
     1
 10
2.9999999999999911
 20
228.000000000000199
 30
-0.0000000000000506
 11
3.9999999999999898
 21
227.000000000000199
 31
-0.0000000000000504
210
0.0
220
1.0
230
-0.0000000000000002
  0
LINE
  5
1CDA9
  8
0
  6
VERDECKT
 62
     1
 10
-3.0000000000000089
 20
228.000000000000199
 30
-0.0000000000000506
 11
-4.0000000000000089
 21
227.000000000000199
 31
-0.0000000000000504
210
0.0
220
1.0
230
-0.0000000000000002
  0
LINE
  5
1CDAA
  8
0
  6
VERDECKT
 62
     1
 10
-3.0000000000000102
 20
226.000000000000199
 30
-0.0000000000000502
 11
-4.0000000000000089
 21
227.000000000000199
 31
-0.0000000000000504
210
0.0
220
1.0
230
-0.0000000000000002
  0
LINE
  5
1CDAB
  8
0
  6
VERDECKT
 62
     1
 10
2.9999999999999911
 20
226.000000000000199
 30
-0.0000000000000502
 11
3.9999999999999898
 21
227.000000000000199
 31
-0.0000000000000504
210
0.0
220
1.0
230
-0.0000000000000002
  0
LINE
  5
1CDAC
  8
0
  6
VERDECKT
 62
     1
 10
2.9999999999999911
 20
226.000000000000199
 30
-0.0000000000000502
 11
3.9999999999999898
 21
225.000000000000199
 31
-0.00000000000005
210
0.0
220
1.0
230
-0.0000000000000002
  0
LINE
  5
1CDAD
  8
0
  6
VERDECKT
 62
     1
 10
-3.0000000000000089
 20
226.000000000000199
 30
-0.0000000000000502
 11
-4.0000000000000089
 21
225.000000000000199
 31
-0.00000000000005
210
0.0
220
1.0
230
-0.0000000000000002
  0
LINE
  5
1CDAE
  8
0
  6
VERDECKT
 62
     1
 10
-3.0000000000000102
 20
224.000000000000199
 30
-0.0000000000000497
 11
-4.0000000000000089
 21
225.000000000000199
 31
-0.00000000000005
210
0.0
220
1.0
230
-0.0000000000000002
  0
LINE
  5
1CDAF
  8
0
  6
VERDECKT
 62
     1
 10
2.9999999999999911
 20
224.000000000000199
 30
-0.0000000000000497
 11
3.9999999999999898
 21
225.000000000000199
 31
-0.00000000000005
210
0.0
220
1.0
230
-0.0000000000000002
  0
LINE
  5
1CDB0
  8
0
  6
VERDECKT
 62
     1
 10
2.9999999999999911
 20
224.000000000000199
 30
-0.0000000000000497
 11
3.9999999999999898
 21
223.000000000000199
 31
-0.0000000000000495
210
0.0
220
1.0
230
-0.0000000000000002
  0
LINE
  5
1CDB1
  8
0
  6
VERDECKT
 62
     1
 10
-3.0000000000000089
 20
224.000000000000199
 30
-0.0000000000000497
 11
-4.0000000000000089
 21
223.000000000000199
 31
-0.0000000000000495
210
0.0
220
1.0
230
-0.0000000000000002
  0
LINE
  5
1CDB2
  8
0
  6
VERDECKT
 62
     1
 10
-3.0000000000000089
 20
222.000000000000199
 30
-0.0000000000000493
 11
-4.0000000000000089
 21
223.000000000000199
 31
-0.0000000000000495
210
0.0
220
1.0
230
-0.0000000000000002
  0
LINE
  5
1CDB3
  8
0
  6
VERDECKT
 62
     1
 10
2.9999999999999911
 20
222.000000000000199
 30
-0.0000000000000493
 11
3.9999999999999898
 21
223.000000000000199
 31
-0.0000000000000495
210
0.0
220
1.0
230
-0.0000000000000002
  0
LINE
  5
1CDB4
  8
0
  6
VERDECKT
 62
     1
 10
2.9999999999999911
 20
242.000000000000199
 30
-0.0000000000000537
 11
3.9999999999999898
 21
241.000000000000199
 31
-0.0000000000000535
210
0.0
220
1.0
230
-0.0000000000000002
  0
LINE
  5
1CDB5
  8
0
  6
VERDECKT
 62
     1
 10
-3.0000000000000089
 20
242.000000000000199
 30
-0.0000000000000537
 11
-4.0000000000000089
 21
241.000000000000199
 31
-0.0000000000000535
210
0.0
220
1.0
230
-0.0000000000000002
  0
LINE
  5
1CDB6
  8
0
  6
VERDECKT
 62
     1
 10
-3.0000000000000089
 20
240.000000000000199
 30
-0.0000000000000533
 11
-4.0000000000000089
 21
241.000000000000199
 31
-0.0000000000000535
210
0.0
220
1.0
230
-0.0000000000000002
  0
LINE
  5
1CDB7
  8
0
  6
VERDECKT
 62
     1
 10
2.9999999999999911
 20
240.000000000000199
 30
-0.0000000000000533
 11
3.9999999999999911
 21
241.000000000000199
 31
-0.0000000000000535
210
0.0
220
1.0
230
-0.0000000000000002
  0
LINE
  5
1CDB8
  8
0
  6
VERDECKT
 62
     1
 10
2.9999999999999911
 20
240.000000000000199
 30
-0.0000000000000533
 11
3.9999999999999898
 21
239.000000000000199
 31
-0.0000000000000531
210
0.0
220
1.0
230
-0.0000000000000002
  0
LINE
  5
1CDB9
  8
0
  6
VERDECKT
 62
     1
 10
-3.0000000000000089
 20
240.000000000000199
 30
-0.0000000000000533
 11
-4.0000000000000089
 21
239.000000000000199
 31
-0.0000000000000531
210
0.0
220
1.0
230
-0.0000000000000002
  0
LINE
  5
1CDBA
  8
0
  6
VERDECKT
 62
     1
 10
-3.0000000000000089
 20
238.000000000000199
 30
-0.0000000000000528
 11
-4.0000000000000089
 21
239.000000000000199
 31
-0.0000000000000531
210
0.0
220
1.0
230
-0.0000000000000002
  0
LINE
  5
1CDBB
  8
0
  6
VERDECKT
 62
     1
 10
2.9999999999999911
 20
238.000000000000199
 30
-0.0000000000000528
 11
3.9999999999999911
 21
239.000000000000199
 31
-0.0000000000000531
210
0.0
220
1.0
230
-0.0000000000000002
  0
LINE
  5
1CDBC
  8
0
  6
VERDECKT
 62
     1
 10
2.9999999999999911
 20
238.000000000000199
 30
-0.0000000000000528
 11
3.9999999999999898
 21
237.000000000000199
 31
-0.0000000000000526
210
0.0
220
1.0
230
-0.0000000000000002
  0
LINE
  5
1CDBD
  8
0
  6
VERDECKT
 62
     1
 10
-3.0000000000000089
 20
238.000000000000199
 30
-0.0000000000000528
 11
-4.0000000000000089
 21
237.000000000000199
 31
-0.0000000000000526
210
0.0
220
1.0
230
-0.0000000000000002
  0
LINE
  5
1CDBE
  8
0
  6
VERDECKT
 62
     1
 10
-3.0000000000000089
 20
236.000000000000199
 30
-0.0000000000000524
 11
-4.0000000000000089
 21
237.000000000000199
 31
-0.0000000000000526
210
0.0
220
1.0
230
-0.0000000000000002
  0
LINE
  5
1CDBF
  8
0
  6
VERDECKT
 62
     1
 10
2.9999999999999911
 20
236.000000000000199
 30
-0.0000000000000524
 11
3.9999999999999898
 21
237.000000000000199
 31
-0.0000000000000526
210
0.0
220
1.0
230
-0.0000000000000002
  0
LINE
  5
1CDC0
  8
0
  6
VERDECKT
 62
     1
 10
2.9999999999999911
 20
236.000000000000199
 30
-0.0000000000000524
 11
3.9999999999999898
 21
235.000000000000199
 31
-0.0000000000000522
210
0.0
220
1.0
230
-0.0000000000000002
  0
LINE
  5
1CDC1
  8
0
  6
VERDECKT
 62
     1
 10
-3.0000000000000089
 20
236.000000000000199
 30
-0.0000000000000524
 11
-4.0000000000000089
 21
235.000000000000199
 31
-0.0000000000000522
210
0.0
220
1.0
230
-0.0000000000000002
  0
LINE
  5
1CDC2
  8
0
  6
VERDECKT
 62
     1
 10
46.9999999999999289
 20
235.000000000000199
 30
-0.0000000000000522
 11
50.9999999999999432
 21
235.000000000000199
 31
-0.0000000000000522
210
0.0
220
1.0
230
-0.0000000000000002
  0
LINE
  5
1CDC3
  8
0
  6
VERDECKT
 62
     1
 10
50.9999999999999432
 20
235.000000000000199
 30
-0.0000000000000522
 11
54.9999999999999289
 21
235.000000000000199
 31
-0.0000000000000522
210
0.0
220
1.0
230
-0.0000000000000002
  0
LINE
  5
1CDC4
  8
0
  6
VERDECKT
 62
     1
 10
47.9999999999999289
 20
234.000000000000199
 30
-0.000000000000052
 11
50.9999999999999432
 21
234.000000000000199
 31
-0.000000000000052
210
0.0
220
1.0
230
-0.0000000000000002
  0
LINE
  5
1CDC5
  8
0
  6
VERDECKT
 62
     1
 10
50.9999999999999432
 20
234.000000000000199
 30
-0.000000000000052
 11
53.9999999999999432
 21
234.000000000000199
 31
-0.000000000000052
210
0.0
220
1.0
230
-0.0000000000000002
  0
LINE
  5
1CDC6
  8
0
  6
VERDECKT
 62
     1
 10
46.9999999999999289
 20
233.000000000000199
 30
-0.0000000000000517
 11
50.9999999999999432
 21
233.000000000000199
 31
-0.0000000000000517
210
0.0
220
1.0
230
-0.0000000000000002
  0
LINE
  5
1CDC7
  8
0
  6
VERDECKT
 62
     1
 10
50.9999999999999432
 20
233.000000000000199
 30
-0.0000000000000517
 11
54.9999999999999289
 21
233.000000000000199
 31
-0.0000000000000517
210
0.0
220
1.0
230
-0.0000000000000002
  0
LINE
  5
1CDC8
  8
0
  6
VERDECKT
 62
     1
 10
47.9999999999999289
 20
232.000000000000199
 30
-0.0000000000000515
 11
50.9999999999999432
 21
232.000000000000199
 31
-0.0000000000000515
210
0.0
220
1.0
230
-0.0000000000000002
  0
LINE
  5
1CDC9
  8
0
  6
VERDECKT
 62
     1
 10
50.9999999999999432
 20
232.000000000000199
 30
-0.0000000000000515
 11
53.9999999999999432
 21
232.000000000000199
 31
-0.0000000000000515
210
0.0
220
1.0
230
-0.0000000000000002
  0
LINE
  5
1CDCA
  8
0
  6
VERDECKT
 62
     1
 10
46.9999999999999289
 20
231.000000000000199
 30
-0.0000000000000513
 11
50.9999999999999432
 21
231.000000000000199
 31
-0.0000000000000513
210
0.0
220
1.0
230
-0.0000000000000002
  0
LINE
  5
1CDCB
  8
0
  6
VERDECKT
 62
     1
 10
50.9999999999999432
 20
231.000000000000199
 30
-0.0000000000000513
 11
54.9999999999999289
 21
231.000000000000199
 31
-0.0000000000000513
210
0.0
220
1.0
230
-0.0000000000000002
  0
LINE
  5
1CDCC
  8
0
  6
VERDECKT
 62
     1
 10
47.9999999999999289
 20
230.000000000000199
 30
-0.0000000000000511
 11
50.9999999999999432
 21
230.000000000000199
 31
-0.0000000000000511
210
0.0
220
1.0
230
-0.0000000000000002
  0
LINE
  5
1CDCD
  8
0
  6
VERDECKT
 62
     1
 10
50.9999999999999432
 20
230.000000000000199
 30
-0.0000000000000511
 11
53.9999999999999432
 21
230.000000000000199
 31
-0.0000000000000511
210
0.0
220
1.0
230
-0.0000000000000002
  0
LINE
  5
1CDCE
  8
0
  6
VERDECKT
 62
     1
 10
46.9999999999999289
 20
229.000000000000199
 30
-0.0000000000000508
 11
50.9999999999999432
 21
229.000000000000199
 31
-0.0000000000000508
210
0.0
220
1.0
230
-0.0000000000000002
  0
LINE
  5
1CDCF
  8
0
  6
VERDECKT
 62
     1
 10
50.9999999999999432
 20
229.000000000000199
 30
-0.0000000000000508
 11
54.9999999999999289
 21
229.000000000000199
 31
-0.0000000000000508
210
0.0
220
1.0
230
-0.0000000000000002
  0
LINE
  5
1CDD0
  8
0
  6
VERDECKT
 62
     1
 10
47.9999999999999289
 20
228.000000000000199
 30
-0.0000000000000506
 11
50.9999999999999432
 21
228.000000000000199
 31
-0.0000000000000506
210
0.0
220
1.0
230
-0.0000000000000002
  0
LINE
  5
1CDD1
  8
0
  6
VERDECKT
 62
     1
 10
50.9999999999999432
 20
228.000000000000199
 30
-0.0000000000000506
 11
53.9999999999999432
 21
228.000000000000199
 31
-0.0000000000000506
210
0.0
220
1.0
230
-0.0000000000000002
  0
LINE
  5
1CDD2
  8
0
  6
VERDECKT
 62
     1
 10
46.9999999999999289
 20
227.000000000000199
 30
-0.0000000000000504
 11
50.9999999999999432
 21
227.000000000000199
 31
-0.0000000000000504
210
0.0
220
1.0
230
-0.0000000000000002
  0
LINE
  5
1CDD3
  8
0
  6
VERDECKT
 62
     1
 10
50.9999999999999432
 20
227.000000000000199
 30
-0.0000000000000504
 11
54.9999999999999289
 21
227.000000000000199
 31
-0.0000000000000504
210
0.0
220
1.0
230
-0.0000000000000002
  0
LINE
  5
1CDD4
  8
0
  6
VERDECKT
 62
     1
 10
47.9999999999999289
 20
226.000000000000199
 30
-0.0000000000000502
 11
50.9999999999999432
 21
226.000000000000199
 31
-0.0000000000000502
210
0.0
220
1.0
230
-0.0000000000000002
  0
LINE
  5
1CDD5
  8
0
  6
VERDECKT
 62
     1
 10
50.9999999999999432
 20
226.000000000000199
 30
-0.0000000000000502
 11
53.9999999999999432
 21
226.000000000000199
 31
-0.0000000000000502
210
0.0
220
1.0
230
-0.0000000000000002
  0
LINE
  5
1CDD6
  8
0
  6
VERDECKT
 62
     1
 10
46.9999999999999289
 20
225.000000000000199
 30
-0.00000000000005
 11
50.9999999999999432
 21
225.000000000000199
 31
-0.00000000000005
210
0.0
220
1.0
230
-0.0000000000000002
  0
LINE
  5
1CDD7
  8
0
  6
VERDECKT
 62
     1
 10
50.9999999999999432
 20
225.000000000000199
 30
-0.00000000000005
 11
54.9999999999999289
 21
225.000000000000199
 31
-0.00000000000005
210
0.0
220
1.0
230
-0.0000000000000002
  0
LINE
  5
1CDD8
  8
0
  6
VERDECKT
 62
     1
 10
47.9999999999999289
 20
224.000000000000199
 30
-0.0000000000000497
 11
50.9999999999999432
 21
224.000000000000199
 31
-0.0000000000000497
210
0.0
220
1.0
230
-0.0000000000000002
  0
LINE
  5
1CDD9
  8
0
  6
VERDECKT
 62
     1
 10
50.9999999999999432
 20
224.000000000000199
 30
-0.0000000000000497
 11
53.9999999999999432
 21
224.000000000000199
 31
-0.0000000000000497
210
0.0
220
1.0
230
-0.0000000000000002
  0
LINE
  5
1CDDA
  8
0
  6
VERDECKT
 62
     1
 10
46.9999999999999289
 20
223.000000000000199
 30
-0.0000000000000495
 11
50.9999999999999432
 21
223.000000000000199
 31
-0.0000000000000495
210
0.0
220
1.0
230
-0.0000000000000002
  0
LINE
  5
1CDDB
  8
0
  6
VERDECKT
 62
     1
 10
50.9999999999999432
 20
223.000000000000199
 30
-0.0000000000000495
 11
54.9999999999999289
 21
223.000000000000199
 31
-0.0000000000000495
210
0.0
220
1.0
230
-0.0000000000000002
  0
LINE
  5
1CDDC
  8
0
  6
VERDECKT
 62
     1
 10
47.9999999999999289
 20
242.000000000000199
 30
-0.0000000000000537
 11
50.9999999999999432
 21
242.000000000000199
 31
-0.0000000000000537
210
0.0
220
1.0
230
-0.0000000000000002
  0
LINE
  5
1CDDD
  8
0
  6
VERDECKT
 62
     1
 10
50.9999999999999432
 20
242.000000000000199
 30
-0.0000000000000537
 11
53.9999999999999432
 21
242.000000000000199
 31
-0.0000000000000537
210
0.0
220
1.0
230
-0.0000000000000002
  0
LINE
  5
1CDDE
  8
0
  6
VERDECKT
 62
     1
 10
46.9999999999999289
 20
241.000000000000199
 30
-0.0000000000000535
 11
50.9999999999999432
 21
241.000000000000199
 31
-0.0000000000000535
210
0.0
220
1.0
230
-0.0000000000000002
  0
LINE
  5
1CDDF
  8
0
  6
VERDECKT
 62
     1
 10
50.9999999999999432
 20
241.000000000000199
 30
-0.0000000000000535
 11
54.9999999999999289
 21
241.000000000000199
 31
-0.0000000000000535
210
0.0
220
1.0
230
-0.0000000000000002
  0
LINE
  5
1CDE0
  8
0
  6
VERDECKT
 62
     1
 10
47.9999999999999289
 20
240.000000000000199
 30
-0.0000000000000533
 11
50.9999999999999432
 21
240.000000000000199
 31
-0.0000000000000533
210
0.0
220
1.0
230
-0.0000000000000002
  0
LINE
  5
1CDE1
  8
0
  6
VERDECKT
 62
     1
 10
50.9999999999999432
 20
240.000000000000199
 30
-0.0000000000000533
 11
53.9999999999999432
 21
240.000000000000199
 31
-0.0000000000000533
210
0.0
220
1.0
230
-0.0000000000000002
  0
LINE
  5
1CDE2
  8
0
  6
VERDECKT
 62
     1
 10
46.9999999999999289
 20
239.000000000000199
 30
-0.0000000000000531
 11
50.9999999999999432
 21
239.000000000000199
 31
-0.0000000000000531
210
0.0
220
1.0
230
-0.0000000000000002
  0
LINE
  5
1CDE3
  8
0
  6
VERDECKT
 62
     1
 10
50.9999999999999432
 20
239.000000000000199
 30
-0.0000000000000531
 11
54.9999999999999289
 21
239.000000000000199
 31
-0.0000000000000531
210
0.0
220
1.0
230
-0.0000000000000002
  0
LINE
  5
1CDE4
  8
0
  6
VERDECKT
 62
     1
 10
47.9999999999999289
 20
238.000000000000199
 30
-0.0000000000000528
 11
50.9999999999999432
 21
238.000000000000199
 31
-0.0000000000000528
210
0.0
220
1.0
230
-0.0000000000000002
  0
LINE
  5
1CDE5
  8
0
  6
VERDECKT
 62
     1
 10
50.9999999999999432
 20
238.000000000000199
 30
-0.0000000000000528
 11
53.9999999999999432
 21
238.000000000000199
 31
-0.0000000000000528
210
0.0
220
1.0
230
-0.0000000000000002
  0
LINE
  5
1CDE6
  8
0
  6
VERDECKT
 62
     1
 10
46.9999999999999289
 20
237.000000000000199
 30
-0.0000000000000526
 11
50.9999999999999432
 21
237.000000000000199
 31
-0.0000000000000526
210
0.0
220
1.0
230
-0.0000000000000002
  0
LINE
  5
1CDE7
  8
0
  6
VERDECKT
 62
     1
 10
50.9999999999999432
 20
237.000000000000199
 30
-0.0000000000000526
 11
54.9999999999999289
 21
237.000000000000199
 31
-0.0000000000000526
210
0.0
220
1.0
230
-0.0000000000000002
  0
LINE
  5
1CDE8
  8
0
  6
VERDECKT
 62
     1
 10
47.9999999999999289
 20
236.000000000000199
 30
-0.0000000000000524
 11
50.9999999999999432
 21
236.000000000000199
 31
-0.0000000000000524
210
0.0
220
1.0
230
-0.0000000000000002
  0
LINE
  5
1CDE9
  8
0
  6
VERDECKT
 62
     1
 10
50.9999999999999432
 20
236.000000000000199
 30
-0.0000000000000524
 11
53.9999999999999432
 21
236.000000000000199
 31
-0.0000000000000524
210
0.0
220
1.0
230
-0.0000000000000002
  0
LINE
  5
1CDEA
  8
0
  6
VERDECKT
 62
     1
 10
47.9999999999999289
 20
234.000000000000199
 30
-0.000000000000052
 11
46.9999999999999289
 21
235.000000000000199
 31
-0.0000000000000522
210
0.0
220
1.0
230
-0.0000000000000002
  0
LINE
  5
1CDEB
  8
0
  6
VERDECKT
 62
     1
 10
53.9999999999999432
 20
234.000000000000199
 30
-0.000000000000052
 11
54.9999999999999289
 21
235.000000000000199
 31
-0.0000000000000522
210
0.0
220
1.0
230
-0.0000000000000002
  0
LINE
  5
1CDEC
  8
0
  6
VERDECKT
 62
     1
 10
53.9999999999999432
 20
234.000000000000199
 30
-0.000000000000052
 11
54.9999999999999289
 21
233.000000000000199
 31
-0.0000000000000517
210
0.0
220
1.0
230
-0.0000000000000002
  0
LINE
  5
1CDED
  8
0
  6
VERDECKT
 62
     1
 10
47.9999999999999289
 20
234.000000000000199
 30
-0.000000000000052
 11
46.9999999999999289
 21
233.000000000000199
 31
-0.0000000000000517
210
0.0
220
1.0
230
-0.0000000000000002
  0
LINE
  5
1CDEE
  8
0
  6
VERDECKT
 62
     1
 10
47.9999999999999289
 20
232.000000000000199
 30
-0.0000000000000515
 11
46.9999999999999289
 21
233.000000000000199
 31
-0.0000000000000517
210
0.0
220
1.0
230
-0.0000000000000002
  0
LINE
  5
1CDEF
  8
0
  6
VERDECKT
 62
     1
 10
53.9999999999999432
 20
232.000000000000199
 30
-0.0000000000000515
 11
54.9999999999999289
 21
233.000000000000199
 31
-0.0000000000000517
210
0.0
220
1.0
230
-0.0000000000000002
  0
LINE
  5
1CDF0
  8
0
  6
VERDECKT
 62
     1
 10
53.9999999999999432
 20
232.000000000000199
 30
-0.0000000000000515
 11
54.9999999999999289
 21
231.000000000000199
 31
-0.0000000000000513
210
0.0
220
1.0
230
-0.0000000000000002
  0
LINE
  5
1CDF1
  8
0
  6
VERDECKT
 62
     1
 10
47.9999999999999289
 20
232.000000000000199
 30
-0.0000000000000515
 11
46.9999999999999289
 21
231.000000000000199
 31
-0.0000000000000513
210
0.0
220
1.0
230
-0.0000000000000002
  0
LINE
  5
1CDF2
  8
0
  6
VERDECKT
 62
     1
 10
47.9999999999999289
 20
230.000000000000199
 30
-0.0000000000000511
 11
46.9999999999999289
 21
231.000000000000199
 31
-0.0000000000000513
210
0.0
220
1.0
230
-0.0000000000000002
  0
LINE
  5
1CDF3
  8
0
  6
VERDECKT
 62
     1
 10
53.9999999999999432
 20
230.000000000000199
 30
-0.0000000000000511
 11
54.9999999999999289
 21
231.000000000000199
 31
-0.0000000000000513
210
0.0
220
1.0
230
-0.0000000000000002
  0
LINE
  5
1CDF4
  8
0
  6
VERDECKT
 62
     1
 10
53.9999999999999432
 20
230.000000000000199
 30
-0.0000000000000511
 11
54.9999999999999289
 21
229.000000000000199
 31
-0.0000000000000508
210
0.0
220
1.0
230
-0.0000000000000002
  0
LINE
  5
1CDF5
  8
0
  6
VERDECKT
 62
     1
 10
47.9999999999999289
 20
230.000000000000199
 30
-0.0000000000000511
 11
46.9999999999999289
 21
229.000000000000199
 31
-0.0000000000000508
210
0.0
220
1.0
230
-0.0000000000000002
  0
LINE
  5
1CDF6
  8
0
  6
VERDECKT
 62
     1
 10
47.9999999999999289
 20
228.000000000000199
 30
-0.0000000000000506
 11
46.9999999999999289
 21
229.000000000000199
 31
-0.0000000000000508
210
0.0
220
1.0
230
-0.0000000000000002
  0
LINE
  5
1CDF7
  8
0
  6
VERDECKT
 62
     1
 10
53.9999999999999432
 20
228.000000000000199
 30
-0.0000000000000506
 11
54.9999999999999289
 21
229.000000000000199
 31
-0.0000000000000508
210
0.0
220
1.0
230
-0.0000000000000002
  0
LINE
  5
1CDF8
  8
0
  6
VERDECKT
 62
     1
 10
53.9999999999999432
 20
228.000000000000199
 30
-0.0000000000000506
 11
54.9999999999999289
 21
227.000000000000199
 31
-0.0000000000000504
210
0.0
220
1.0
230
-0.0000000000000002
  0
LINE
  5
1CDF9
  8
0
  6
VERDECKT
 62
     1
 10
47.9999999999999289
 20
228.000000000000199
 30
-0.0000000000000506
 11
46.9999999999999289
 21
227.000000000000199
 31
-0.0000000000000504
210
0.0
220
1.0
230
-0.0000000000000002
  0
LINE
  5
1CDFA
  8
0
  6
VERDECKT
 62
     1
 10
47.9999999999999289
 20
226.000000000000199
 30
-0.0000000000000502
 11
46.9999999999999289
 21
227.000000000000199
 31
-0.0000000000000504
210
0.0
220
1.0
230
-0.0000000000000002
  0
LINE
  5
1CDFB
  8
0
  6
VERDECKT
 62
     1
 10
53.9999999999999432
 20
226.000000000000199
 30
-0.0000000000000502
 11
54.9999999999999289
 21
227.000000000000199
 31
-0.0000000000000504
210
0.0
220
1.0
230
-0.0000000000000002
  0
LINE
  5
1CDFC
  8
0
  6
VERDECKT
 62
     1
 10
53.9999999999999432
 20
226.000000000000199
 30
-0.0000000000000502
 11
54.9999999999999289
 21
225.000000000000199
 31
-0.00000000000005
210
0.0
220
1.0
230
-0.0000000000000002
  0
LINE
  5
1CDFD
  8
0
  6
VERDECKT
 62
     1
 10
47.9999999999999289
 20
226.000000000000199
 30
-0.0000000000000502
 11
46.9999999999999289
 21
225.000000000000199
 31
-0.00000000000005
210
0.0
220
1.0
230
-0.0000000000000002
  0
LINE
  5
1CDFE
  8
0
  6
VERDECKT
 62
     1
 10
47.9999999999999289
 20
224.000000000000199
 30
-0.0000000000000497
 11
46.9999999999999289
 21
225.000000000000199
 31
-0.00000000000005
210
0.0
220
1.0
230
-0.0000000000000002
  0
LINE
  5
1CDFF
  8
0
  6
VERDECKT
 62
     1
 10
53.9999999999999432
 20
224.000000000000199
 30
-0.0000000000000497
 11
54.9999999999999289
 21
225.000000000000199
 31
-0.00000000000005
210
0.0
220
1.0
230
-0.0000000000000002
  0
LINE
  5
1CE00
  8
0
  6
VERDECKT
 62
     1
 10
53.9999999999999432
 20
224.000000000000199
 30
-0.0000000000000497
 11
54.9999999999999289
 21
223.000000000000199
 31
-0.0000000000000495
210
0.0
220
1.0
230
-0.0000000000000002
  0
LINE
  5
1CE01
  8
0
  6
VERDECKT
 62
     1
 10
47.9999999999999289
 20
224.000000000000199
 30
-0.0000000000000497
 11
46.9999999999999289
 21
223.000000000000199
 31
-0.0000000000000495
210
0.0
220
1.0
230
-0.0000000000000002
  0
LINE
  5
1CE02
  8
0
  6
VERDECKT
 62
     1
 10
47.9999999999999289
 20
222.000000000000199
 30
-0.0000000000000493
 11
46.9999999999999289
 21
223.000000000000199
 31
-0.0000000000000495
210
0.0
220
1.0
230
-0.0000000000000002
  0
LINE
  5
1CE03
  8
0
  6
VERDECKT
 62
     1
 10
53.9999999999999432
 20
222.000000000000199
 30
-0.0000000000000493
 11
54.9999999999999289
 21
223.000000000000199
 31
-0.0000000000000495
210
0.0
220
1.0
230
-0.0000000000000002
  0
LINE
  5
1CE04
  8
0
  6
VERDECKT
 62
     1
 10
53.9999999999999432
 20
242.000000000000199
 30
-0.0000000000000537
 11
54.9999999999999289
 21
241.000000000000199
 31
-0.0000000000000535
210
0.0
220
1.0
230
-0.0000000000000002
  0
LINE
  5
1CE05
  8
0
  6
VERDECKT
 62
     1
 10
47.9999999999999289
 20
242.000000000000199
 30
-0.0000000000000537
 11
46.9999999999999289
 21
241.000000000000199
 31
-0.0000000000000535
210
0.0
220
1.0
230
-0.0000000000000002
  0
LINE
  5
1CE06
  8
0
  6
VERDECKT
 62
     1
 10
47.9999999999999289
 20
240.000000000000199
 30
-0.0000000000000533
 11
46.9999999999999289
 21
241.000000000000199
 31
-0.0000000000000535
210
0.0
220
1.0
230
-0.0000000000000002
  0
LINE
  5
1CE07
  8
0
  6
VERDECKT
 62
     1
 10
53.9999999999999432
 20
240.000000000000199
 30
-0.0000000000000533
 11
54.9999999999999289
 21
241.000000000000199
 31
-0.0000000000000535
210
0.0
220
1.0
230
-0.0000000000000002
  0
LINE
  5
1CE08
  8
0
  6
VERDECKT
 62
     1
 10
53.9999999999999432
 20
240.000000000000199
 30
-0.0000000000000533
 11
54.9999999999999289
 21
239.000000000000199
 31
-0.0000000000000531
210
0.0
220
1.0
230
-0.0000000000000002
  0
LINE
  5
1CE09
  8
0
  6
VERDECKT
 62
     1
 10
47.9999999999999289
 20
240.000000000000199
 30
-0.0000000000000533
 11
46.9999999999999289
 21
239.000000000000199
 31
-0.0000000000000531
210
0.0
220
1.0
230
-0.0000000000000002
  0
LINE
  5
1CE0A
  8
0
  6
VERDECKT
 62
     1
 10
47.9999999999999289
 20
238.000000000000199
 30
-0.0000000000000528
 11
46.9999999999999289
 21
239.000000000000199
 31
-0.0000000000000531
210
0.0
220
1.0
230
-0.0000000000000002
  0
LINE
  5
1CE0B
  8
0
  6
VERDECKT
 62
     1
 10
53.9999999999999432
 20
238.000000000000199
 30
-0.0000000000000528
 11
54.9999999999999289
 21
239.000000000000199
 31
-0.0000000000000531
210
0.0
220
1.0
230
-0.0000000000000002
  0
LINE
  5
1CE0C
  8
0
  6
VERDECKT
 62
     1
 10
53.9999999999999432
 20
238.000000000000199
 30
-0.0000000000000528
 11
54.9999999999999289
 21
237.000000000000199
 31
-0.0000000000000526
210
0.0
220
1.0
230
-0.0000000000000002
  0
LINE
  5
1CE0D
  8
0
  6
VERDECKT
 62
     1
 10
47.9999999999999289
 20
238.000000000000199
 30
-0.0000000000000528
 11
46.9999999999999289
 21
237.000000000000199
 31
-0.0000000000000526
210
0.0
220
1.0
230
-0.0000000000000002
  0
LINE
  5
1CE0E
  8
0
  6
VERDECKT
 62
     1
 10
47.9999999999999289
 20
236.000000000000199
 30
-0.0000000000000524
 11
46.9999999999999289
 21
237.000000000000199
 31
-0.0000000000000526
210
0.0
220
1.0
230
-0.0000000000000002
  0
LINE
  5
1CE0F
  8
0
  6
VERDECKT
 62
     1
 10
53.9999999999999432
 20
236.000000000000199
 30
-0.0000000000000524
 11
54.9999999999999289
 21
237.000000000000199
 31
-0.0000000000000526
210
0.0
220
1.0
230
-0.0000000000000002
  0
LINE
  5
1CE10
  8
0
  6
VERDECKT
 62
     1
 10
53.9999999999999432
 20
236.000000000000199
 30
-0.0000000000000524
 11
54.9999999999999289
 21
235.000000000000199
 31
-0.0000000000000522
210
0.0
220
1.0
230
-0.0000000000000002
  0
LINE
  5
1CE11
  8
0
  6
VERDECKT
 62
     1
 10
47.9999999999999289
 20
236.000000000000199
 30
-0.0000000000000524
 11
46.9999999999999289
 21
235.000000000000199
 31
-0.0000000000000522
210
0.0
220
1.0
230
-0.0000000000000002
  0
ENDBLK
  5
1CE13
  8
0
  0
BLOCK
  8
0
  2
A$CAA5AF9BC
 70
     0
 10
0.0
 20
0.0
 30
0.0
  3
A$CAA5AF9BC
  1

  0
CIRCLE
  5
1CE17
  8
0
  6
CONTINUOUS
 62
     3
 10
0.0000000000000555
 20
0.000000000000038
 30
0.0
 40
146.0
  0
CIRCLE
  5
1CE18
  8
0
  6
CONTINUOUS
 62
     3
 10
0.0000000000000493
 20
0.0000000000000363
 30
0.0
 40
37.7999999999999616
  0
CIRCLE
  5
1CE19
  8
0
  6
CONTINUOUS
 62
     3
 10
0.0
 20
0.0
 30
0.0
 40
34.6921457176084687
  0
CIRCLE
  5
1CE1A
  8
0
  6
CONTINUOUS
 62
     3
 10
0.0000000000000356
 20
-0.0000000000000142
 30
0.0
 40
35.2999999999999616
  0
CIRCLE
  5
1CE1B
  8
0
  6
CONTINUOUS
 62
     3
 10
0.0000000000000569
 20
50.9999999999999716
 30
0.0
 40
3.0
  0
CIRCLE
  5
1CE1C
  8
0
  6
CONTINUOUS
 62
     3
 10
0.0000000000000566
 20
50.9999999999999716
 30
0.0
 40
4.0
  0
CIRCLE
  5
1CE1D
  8
0
  6
CONTINUOUS
 62
     3
 10
-50.9999999999998792
 20
0.0000000000000442
 30
0.0
 40
3.0
  0
CIRCLE
  5
1CE1E
  8
0
  6
CONTINUOUS
 62
     3
 10
-50.9999999999998792
 20
0.0000000000000442
 30
0.0
 40
4.0
  0
CIRCLE
  5
1CE1F
  8
0
  6
CONTINUOUS
 62
     3
 10
0.0000000000000444
 20
-50.9999999999999005
 30
0.0
 40
3.0
  0
CIRCLE
  5
1CE20
  8
0
  6
CONTINUOUS
 62
     3
 10
0.0000000000000441
 20
-50.9999999999999005
 30
0.0
 40
4.0
  0
CIRCLE
  5
1CE21
  8
0
  6
CONTINUOUS
 62
     3
 10
50.9999999999999929
 20
0.000000000000038
 30
0.0
 40
3.0
  0
CIRCLE
  5
1CE22
  8
0
  6
CONTINUOUS
 62
     3
 10
50.9999999999999929
 20
0.000000000000038
 30
0.0
 40
4.0
  0
CIRCLE
  5
1CE23
  8
0
  6
VERDECKT
 62
     1
 10
0.0
 20
0.0
 30
0.0
 40
35.8875793553185076
  0
CIRCLE
  5
1CE24
  8
0
  6
VERDECKT
 62
     1
 10
0.0000000000000356
 20
-0.0000000000000142
 30
0.0
 40
36.5
  0
CIRCLE
  5
1CE25
  8
0
  6
VERDECKT
 62
     1
 10
0.0000000000000488
 20
0.0
 30
0.0
 40
40.6999999999995765
  0
CIRCLE
  5
1CE26
  8
0
  6
VERDECKT
 62
     1
 10
0.0000000000000488
 20
0.0000000000000284
 30
0.0
 40
41.8999999999996291
  0
CIRCLE
  5
1CE27
  8
0
  6
VERDECKT
 62
     1
 10
0.0000000000000424
 20
0.0000000000000284
 30
0.0
 40
38.1999999999995907
  0
CIRCLE
  5
1CE28
  8
0
  6
VERDECKT
 62
     1
 10
0.0000000000000424
 20
0.0000000000000284
 30
0.0
 40
39.3999999999996433
  0
CIRCLE
  5
1CE29
  8
0
  6
VERDECKT
 62
     1
 10
0.0000000000000454
 20
0.0000000000000426
 30
0.0
 40
40.7000862159353431
  0
CIRCLE
  5
1CE2A
  8
0
  6
VERDECKT
 62
     1
 10
0.0000000000000454
 20
0.0000000000000426
 30
0.0
 40
41.9000862159354028
  0
ENDBLK
  5
1CE2C
  8
0
  0
ENDSEC
  0
SECTION
  2
ENTITIES
  0
INSERT
  5
D70
  8
ADSK_ASSOC_ENTITY_BACKUPS
  2
*S0
 10
0.0
 20
0.0
 30
0.0
  0
INSERT
  5
1CE14
  8
STEMPEL
  2
A$C176FFFE6
 10
0.0
 20
0.0
 30
0.0
  0
INSERT
  5
1CE2D
  8
STEMPEL
  2
A$CAA5AF9BC
 10
0.0
 20
-200.0
 30
0.0
  0
VIEWPORT
  5
D51
 67
     1
  8
0
 10
148.2552508025559916
 20
209.7498348217013131
 30
0.0
 40
795.6883637233959234
 41
422.1649484536083037
 68
     1
 69
     1
1001
ACAD
1000
MVIEW
1002
{
1070
    16
1010
0.0
1020
0.0
1030
0.0
1010
0.0
1020
0.0
1030
1.0
1040
0.0
1040
422.1649484536083037
1040
148.2552508025559916
1040
209.7498348217013131
1040
50.0
1040
0.0
1040
0.0
1070
     0
1070
  1500
1070
     1
1070
     1
1070
     0
1070
     0
1070
     0
1070
     1
1040
0.0
1040
0.0
1040
0.0
1040
10.0
1040
10.0
1040
10.0
1040
10.0
1070
     0
1002
{
1002
}
1002
}
  0
ENDSEC
  0
EOF
