  0
SECTION
  2
HEADER
  9
$ACADVER
  1
AC1009
  9
$INSBASE
 10
0.0
 20
0.0
 30
0.0
  9
$EXTMIN
 10
-146.0000002662723091
 20
-346.0000003346177095
 30
-0.0000000116415251
  9
$EXTMAX
 10
145.9999991867215954
 20
254.6889446475281886
 30
-0.0000000116415251
  9
$LIMMIN
 10
0.0
 20
0.0
  9
$LIMMAX
 10
420.0
 20
297.0
  9
$ORTHOMODE
 70
     1
  9
$REGENMODE
 70
     1
  9
$FILLMODE
 70
     1
  9
$QTEXTMODE
 70
     0
  9
$MIRRTEXT
 70
     1
  9
$DRAGMODE
 70
     2
  9
$LTSCALE
 40
10.0
  9
$OSMODE
 70
   511
  9
$ATTMODE
 70
     1
  9
$TEXTSIZE
 40
3.5
  9
$TRACEWID
 40
1.0
  9
$TEXTSTYLE
  7
STANDARD
  9
$CLAYER
  8
STEMPEL
  9
$CELTYPE
  6
BYLAYER
  9
$CECOLOR
 62
   256
  9
$DIMSCALE
 40
1.0
  9
$DIMASZ
 40
3.5
  9
$DIMEXO
 40
1.0
  9
$DIMDLI
 40
0.38
  9
$DIMRND
 40
0.0
  9
$DIMDLE
 40
0.0
  9
$DIMEXE
 40
1.0
  9
$DIMTP
 40
0.0
  9
$DIMTM
 40
0.000000001
  9
$DIMTXT
 40
3.5
  9
$DIMCEN
 40
0.09
  9
$DIMTSZ
 40
0.0
  9
$DIMTOL
 70
     0
  9
$DIMLIM
 70
     0
  9
$DIMTIH
 70
     0
  9
$DIMTOH
 70
     0
  9
$DIMSE1
 70
     0
  9
$DIMSE2
 70
     0
  9
$DIMTAD
 70
     1
  9
$DIMZIN
 70
     8
  9
$DIMBLK
  1

  9
$DIMASO
 70
     1
  9
$DIMSHO
 70
     0
  9
$DIMPOST
  1

  9
$DIMAPOST
  1

  9
$DIMALT
 70
     0
  9
$DIMALTD
 70
     2
  9
$DIMALTF
 40
25.3999999999999986
  9
$DIMLFAC
 40
2.0
  9
$DIMTOFL
 70
     1
  9
$DIMTVP
 40
0.0
  9
$DIMTIX
 70
     0
  9
$DIMSOXD
 70
     0
  9
$DIMSAH
 70
     0
  9
$DIMBLK1
  1

  9
$DIMBLK2
  1

  9
$DIMSTYLE
  2
LORO
  9
$DIMCLRD
 70
     0
  9
$DIMCLRE
 70
     0
  9
$DIMCLRT
 70
     1
  9
$DIMTFAC
 40
0.5
  9
$DIMGAP
 40
1.5
  9
$LUNITS
 70
     2
  9
$LUPREC
 70
     2
  9
$SKETCHINC
 40
1.0
  9
$FILLETRAD
 40
0.0
  9
$AUNITS
 70
     0
  9
$AUPREC
 70
     0
  9
$MENU
  1
ACAD
  9
$ELEVATION
 40
0.0
  9
$PELEVATION
 40
0.0
  9
$THICKNESS
 40
0.0
  9
$LIMCHECK
 70
     0
  9
$BLIPMODE
 70
     0
  9
$CHAMFERA
 40
0.0
  9
$CHAMFERB
 40
0.0
  9
$SKPOLY
 70
     0
  9
$TDCREATE
 40
2455397.867048610933125
  9
$TDUPDATE
 40
2460539.5876851850189269
  9
$TDINDWG
 40
2.2184663541999998
  9
$TDUSRTIMER
 40
2.2184663541999998
  9
$USRTIMER
 70
     1
  9
$ANGBASE
 50
0.0
  9
$ANGDIR
 70
     0
  9
$PDMODE
 70
     0
  9
$PDSIZE
 40
0.0
  9
$PLINEWID
 40
0.0
  9
$COORDS
 70
     1
  9
$SPLFRAME
 70
     0
  9
$SPLINETYPE
 70
     6
  9
$SPLINESEGS
 70
     8
  9
$ATTDIA
 70
     1
  9
$ATTREQ
 70
     1
  9
$HANDLING
 70
     1
  9
$HANDSEED
  5
1CD32
  9
$SURFTAB1
 70
     6
  9
$SURFTAB2
 70
     6
  9
$SURFTYPE
 70
     6
  9
$SURFU
 70
     6
  9
$SURFV
 70
     6
  9
$UCSNAME
  2

  9
$UCSORG
 10
0.0
 20
0.0
 30
0.0
  9
$UCSXDIR
 10
1.0
 20
0.0
 30
0.0
  9
$UCSYDIR
 10
0.0
 20
1.0
 30
0.0
  9
$PUCSNAME
  2

  9
$PUCSORG
 10
0.0
 20
0.0
 30
0.0
  9
$PUCSXDIR
 10
1.0
 20
0.0
 30
0.0
  9
$PUCSYDIR
 10
0.0
 20
1.0
 30
0.0
  9
$USERI1
 70
     0
  9
$USERI2
 70
     0
  9
$USERI3
 70
     0
  9
$USERI4
 70
     0
  9
$USERI5
 70
     0
  9
$USERR1
 40
0.0
  9
$USERR2
 40
0.0
  9
$USERR3
 40
0.0
  9
$USERR4
 40
0.0
  9
$USERR5
 40
0.0
  9
$WORLDVIEW
 70
     1
  9
$SHADEDGE
 70
     3
  9
$SHADEDIF
 70
    70
  9
$TILEMODE
 70
     1
  9
$MAXACTVP
 70
    16
  9
$PLIMCHECK
 70
     0
  9
$PEXTMIN
 10
1.0000000000000000E+20
 20
1.0000000000000000E+20
 30
1.0000000000000000E+20
  9
$PEXTMAX
 10
-1.0000000000000000E+20
 20
-1.0000000000000000E+20
 30
-1.0000000000000000E+20
  9
$PLIMMIN
 10
-0.2447491974439799
 20
-0.2501651782987437
  9
$PLIMMAX
 10
296.7552508025560201
 20
419.7498348217011994
  9
$UNITMODE
 70
     0
  9
$VISRETAIN
 70
     0
  9
$PLINEGEN
 70
     0
  9
$PSLTSCALE
 70
     0
  0
ENDSEC
  0
SECTION
  2
TABLES
  0
TABLE
  2
VPORT
 70
     1
  0
VPORT
  2
*ACTIVE
 70
     0
 10
0.0
 20
0.0
 11
1.0
 21
1.0
 12
-0.0000005397753284
 22
-97.6606166496971042
 13
0.0
 23
0.0
 14
1.0
 24
1.0
 15
10.0
 25
10.0
 16
-0.0000000000002828
 26
0.0
 36
1273.7034938989870625
 17
0.0
 27
52.0050888061523509
 37
-0.0000000000000278
 40
603.7852797500950146
 41
1.8847807394668961
 42
49.9999999999999574
 43
0.0
 44
0.0
 50
0.0
 51
0.0
 71
     0
 72
  1500
 73
     1
 74
     0
 75
     0
 76
     0
 77
     0
 78
     0
  0
ENDTAB
  0
TABLE
  2
LTYPE
 70
     4
  0
LTYPE
  2
CONTINUOUS
 70
     0
  3
Solid line
 72
    65
 73
     0
 40
0.0
  0
LTYPE
  2
STRICHPUNKT
 70
     0
  3
__ . __ . __ . __ . __ . __ . __ . __ . __ . __
 72
    65
 73
     4
 40
1.0
 49
0.5
 49
-0.25
 49
0.0
 49
-0.25
  0
LTYPE
  2
VERDECKT
 70
     0
  3
Verdeckt __ __ __ __ __ __ __ __ __ __ __ __ __
 72
    65
 73
     2
 40
0.375
 49
0.25
 49
-0.125
  0
ENDTAB
  0
TABLE
  2
LAYER
 70
     5
  0
LAYER
  2
0
 70
     0
 62
     7
  6
CONTINUOUS
  0
LAYER
  2
STEMPEL
 70
     0
 62
     3
  6
CONTINUOUS
  0
LAYER
  2
ADSK_ASSOC_ENTITY_BACKUPS
 70
     1
 62
    -7
  6
CONTINUOUS
  0
ENDTAB
  0
TABLE
  2
STYLE
 70
     1
  0
STYLE
  2
STANDARD
 70
     0
 40
0.0
 41
0.8
 50
0.0
 71
     0
 42
3.5
  3
simplex.shx
  4

  0
ENDTAB
  0
TABLE
  2
VIEW
 70
     0
  0
ENDTAB
  0
TABLE
  2
UCS
 70
     0
  0
ENDTAB
  0
TABLE
  2
APPID
 70
    31
  0
APPID
  2
ACAD
 70
     0
  0
APPID
  2
ACAD_NAV_VCDISPLAY
 70
     0
  0
APPID
  2
GRADIENTCOLOR1ACI
 70
     0
  0
APPID
  2
GRADIENTCOLOR2ACI
 70
     0
  0
APPID
  2
ACAD_DSTYLE_DIMRADIAL_EXTENSION
 70
     0
  0
APPID
  2
ACADANNOMONITORALERTICONDI
 70
     0
  0
APPID
  2
ACAD_EXEMPT_FROM_CAD_STANDARDS
 70
     0
  0
APPID
  2
ACAD_MLEADERVER
 70
     0
  0
APPID
  2
ACAD_PSEXT
 70
     0
  0
APPID
  2
ACAECLAYERSTANDARD
 70
     0
  0
APPID
  2
ACAUTHENVIRON
 70
     0
  0
APPID
  2
ACCMTRANSPARENCY
 70
     0
  0
APPID
  2
ACAD_STEPID
 70
     0
  0
APPID
  2
ACSYNERGY
 70
     0
  0
APPID
  2
SYNERGY_BODY_TBR_ID
 70
     0
  0
APPID
  2
ACAD_VIEW_EDGE_ID
 70
     0
  0
APPID
  2
ACAD_MODELDOC_XFORM
 70
     0
  0
APPID
  2
ACAD_DIMASSOC_CALC_DIMLFAC
 70
     0
  0
APPID
  2
ACAD_DIMASSOC_DIMLFAC
 70
     0
  0
APPID
  2
ACAD_DIMASSOC_OVERRIDDEN_D
 70
     0
  0
APPID
  2
ACSYNERGYSKETCH
 70
     0
  0
APPID
  2
ACAD_DSTYLE_DIMJAG
 70
     0
  0
APPID
  2
ACAD_DSTYLE_DIMTALN
 70
     0
  0
APPID
  2
ACDBDYNAMICBLOCKGUID
 70
     0
  0
APPID
  2
ACAD_DSTYLE_DIMBREAK
 70
     0
  0
APPID
  2
PLOTTRANSPARENCY
 70
     0
  0
APPID
  2
ACADANNOPO
 70
     0
  0
APPID
  2
ACADANNOAV
 70
     0
  0
APPID
  2
ACDBDYNAMICBLOCKTRUENAME
 70
     0
  0
APPID
  2
ACADANNOTATIVE
 70
     0
  0
APPID
  2
SYNERGY_EXCLUDED_FROM_SNAPSHOT
 70
     0
  0
ENDTAB
  0
TABLE
  2
DIMSTYLE
 70
     3
  0
DIMSTYLE
  2
LORO
 70
     0
  3

  4

  5

  6

  7

 40
1.0
 41
3.5
 42
1.0
 43
0.38
 44
1.0
 45
0.0
 46
0.0
 47
0.0
 48
0.000000001
140
3.5
141
0.09
142
0.0
143
25.3999999999999986
144
2.0
145
0.0
146
0.5
147
1.5
 71
     0
 72
     0
 73
     0
 74
     0
 75
     0
 76
     0
 77
     1
 78
     8
170
     0
171
     2
172
     1
173
     0
174
     0
175
     0
176
     0
177
     0
178
     1
  0
ENDTAB
  0
ENDSEC
  0
SECTION
  2
BLOCKS
  0
BLOCK
  8
0
  2
$MODEL_SPACE
 70
     0
 10
0.0
 20
0.0
 30
0.0
  3
$MODEL_SPACE
  1

  0
ENDBLK
  5
38
  8
0
  0
BLOCK
 67
     1
  8
0
  2
$PAPER_SPACE
 70
     0
 10
0.0
 20
0.0
 30
0.0
  3
$PAPER_SPACE
  1

  0
ENDBLK
  5
36
 67
     1
  8
0
  0
BLOCK
  8
0
  2
*S0
 70
     1
 10
0.0
 20
0.0
 30
0.0
  3
*S0
  1

  0
ENDBLK
  5
D6E
  8
0
  0
BLOCK
  8
0
  2
A$C13835116
 70
     0
 10
0.0
 20
0.0
 30
0.0
  3
A$C13835116
  1

  0
LINE
  5
1CBA2
  8
0
  6
CONTINUOUS
 62
     3
 10
26.0625566823704311
 20
0.0
 30
0.0
 11
-26.0625566823704311
 21
0.0
 31
0.0
210
0.0
220
1.0
230
-0.0000000000000002
  0
LINE
  5
1CBA3
  8
0
  6
CONTINUOUS
 62
     3
 10
30.2890290662816106
 20
140.0001052085297033
 30
-0.0000000000000311
 11
-30.2890290662816106
 21
140.0001052085297033
 31
-0.0000000000000311
210
0.0
220
1.0
230
-0.0000000000000002
  0
ARC
  5
1CBA4
  8
0
  6
CONTINUOUS
 62
     3
 10
-25.5000000000025118
 20
5.0436609429072039
 30
0.0
 40
0.9999999999976019
210
0.0
220
-0.0000000000000002
230
-1.0
 50
179.9999999999947988
 51
185.0000000000084128
  0
ARC
  5
1CBA5
  8
0
  6
CONTINUOUS
 62
     3
 10
25.5000000000025118
 20
5.0436609429072039
 30
0.0
 40
0.9999999999976019
210
0.0
220
-0.0000000000000002
230
-1.0
 50
354.9999999999914735
 51
0.0000000000051907
  0
LINE
  5
1CBA6
  8
0
  6
CONTINUOUS
 62
     3
 10
-26.0625566823704311
 20
0.0
 30
0.0
 11
-26.496194698091859
 21
4.9565052001596079
 31
-0.0000000000000011
210
0.0
220
1.0
230
-0.0000000000000002
  0
LINE
  5
1CBA7
  8
0
  6
CONTINUOUS
 62
     3
 10
26.0625566823704311
 20
0.0
 30
0.0
 11
26.496194698091859
 21
4.9565052001596079
 31
-0.0000000000000011
210
0.0
220
1.0
230
-0.0000000000000002
  0
LINE
  5
1CBA8
  8
0
  6
CONTINUOUS
 62
     3
 10
-26.5000000000001101
 20
5.0436609429072954
 30
-0.0000000000000011
 11
-26.5000000000001101
 21
124.4000000000000057
 31
-0.0000000000000276
210
0.0
220
1.0
230
-0.0000000000000002
  0
LINE
  5
1CBA9
  8
0
  6
CONTINUOUS
 62
     3
 10
26.5000000000001101
 20
5.0436609429072954
 30
-0.0000000000000011
 11
26.5000000000001101
 21
124.4000000000000057
 31
-0.0000000000000276
210
0.0
220
1.0
230
-0.0000000000000002
  0
ARC
  5
1CBAA
  8
0
  6
CONTINUOUS
 62
     3
 10
-38.5000000000064873
 20
124.3999999999991957
 30
0.0
 40
12.00000000000637
210
0.0
220
-0.0000000000000002
230
-1.0
 50
0.0000000000034604
 51
15.1902738547173399
  0
ARC
  5
1CBAB
  8
0
  6
CONTINUOUS
 62
     3
 10
38.5000000000060965
 20
124.3999999999992951
 30
0.0
 40
12.0000000000059792
210
0.0
220
-0.0000000000000002
230
-1.0
 50
164.8097261452822977
 51
179.9999999999967031
  0
LINE
  5
1CBAC
  8
0
  6
CONTINUOUS
 62
     3
 10
-26.9192681435739587
 20
127.5443043220332981
 30
-0.0000000000000283
 11
-30.2890290662816106
 21
140.0001052085297033
 31
-0.0000000000000311
210
0.0
220
1.0
230
-0.0000000000000002
  0
LINE
  5
1CBAD
  8
0
  6
CONTINUOUS
 62
     3
 10
26.9192681435739587
 20
127.5443043220332981
 30
-0.0000000000000283
 11
30.2890290662816106
 21
140.0001052085297033
 31
-0.0000000000000311
210
0.0
220
1.0
230
-0.0000000000000002
  0
LINE
  5
1CBAE
  8
0
  6
CONTINUOUS
 62
     3
 10
-30.2890290662816106
 20
140.0001052085297033
 30
-0.0000000000000311
 11
30.2890290662813797
 21
140.0001052085297033
 31
-0.0000000000000311
210
0.0
220
1.0
230
-0.0000000000000002
  0
LINE
  5
1CBAF
  8
0
  6
CONTINUOUS
 62
     3
 10
41.6000000000000227
 20
220.0
 30
-0.0000000000000488
 11
41.6000000000000227
 21
200.3700000000000045
 31
-0.0000000000000445
210
0.0
220
1.0
230
-0.0000000000000002
  0
LINE
  5
1CBB0
  8
0
  6
CONTINUOUS
 62
     3
 10
-41.6000000000002501
 20
220.0
 30
-0.0000000000000488
 11
-41.6000000000002501
 21
200.3700000000000045
 31
-0.0000000000000445
210
0.0
220
1.0
230
-0.0000000000000002
  0
ARC
  5
1CBB1
  8
0
  6
CONTINUOUS
 62
     3
 10
17.0000000000006999
 20
200.3700000000004025
 30
0.0
 40
24.5999999999995609
210
0.0
220
-0.0000000000000002
230
-1.0
 50
338.7004355745909834
 51
359.9999999999992042
  0
ARC
  5
1CBB2
  8
0
  6
CONTINUOUS
 62
     3
 10
-17.000000000000469
 20
200.3700000000004025
 30
0.0
 40
24.5999999999995609
210
0.0
220
-0.0000000000000002
230
-1.0
 50
180.0000000000007958
 51
201.2995644254089882
  0
ARC
  5
1CBB3
  8
0
  6
CONTINUOUS
 62
     3
 10
51.0999999999990209
 20
187.0752641996919863
 30
0.0
 40
11.9999999999988791
210
0.0
220
-0.0000000000000002
230
-1.0
 50
158.7004355745891928
 51
180.0000000000009948
  0
ARC
  5
1CBB4
  8
0
  6
CONTINUOUS
 62
     3
 10
-51.0999999999987935
 20
187.0752641996919863
 30
0.0
 40
11.9999999999988791
210
0.0
220
-0.0000000000000002
230
-1.0
 50
359.99999999999892
 51
21.299564425410729
  0
LINE
  5
1CBB5
  8
0
  6
CONTINUOUS
 62
     3
 10
39.0999999999999091
 20
187.0752641996917021
 30
-0.0000000000000415
 11
39.0999999999999091
 21
170.2247852300822899
 31
-0.0000000000000378
210
0.0
220
1.0
230
-0.0000000000000002
  0
LINE
  5
1CBB6
  8
0
  6
CONTINUOUS
 62
     3
 10
-39.1000000000001435
 20
187.0752641996917021
 30
-0.0000000000000415
 11
-39.1000000000001435
 21
170.2247852300822899
 31
-0.0000000000000378
210
0.0
220
1.0
230
-0.0000000000000002
  0
ARC
  5
1CBB7
  8
0
  6
CONTINUOUS
 62
     3
 10
27.4999999999918998
 20
170.2247852300845921
 30
0.0
 40
11.6000000000082295
210
0.0
220
-0.0000000000000002
230
-1.0
 50
331.3253430949333733
 51
359.9999999999889155
  0
ARC
  5
1CBB8
  8
0
  6
CONTINUOUS
 62
     3
 10
-27.4999999999914699
 20
170.2247852300845921
 30
0.0
 40
11.6000000000084391
210
0.0
220
-0.0000000000000002
230
-1.0
 50
180.0000000000113118
 51
208.6746569050663993
  0
ARC
  5
1CBB9
  8
0
  6
CONTINUOUS
 62
     3
 10
46.1000000000024031
 20
160.0522732492588887
 30
0.0
 40
9.6000000000019501
210
0.0
220
-0.0000000000000002
230
-1.0
 50
151.325343094933487
 51
179.9999999999980957
  0
ARC
  5
1CBBA
  8
0
  6
CONTINUOUS
 62
     3
 10
-46.1000000000019625
 20
160.0522732492590023
 30
0.0
 40
9.6000000000017351
210
0.0
220
-0.0000000000000002
230
-1.0
 50
0.0000000000015267
 51
28.6746569050667794
  0
LINE
  5
1CBBB
  8
0
  6
CONTINUOUS
 62
     3
 10
36.5000000000001066
 20
160.0522732492592866
 30
-0.0000000000000355
 11
36.5000000000001066
 21
153.4684540039077092
 31
-0.0000000000000341
210
0.0
220
1.0
230
-0.0000000000000002
  0
LINE
  5
1CBBC
  8
0
  6
CONTINUOUS
 62
     3
 10
-36.5000000000003411
 20
160.0522732492592013
 30
-0.0000000000000355
 11
-36.5000000000003411
 21
153.4684540039077092
 31
-0.0000000000000341
210
0.0
220
1.0
230
-0.0000000000000002
  0
ARC
  5
1CBBD
  8
0
  6
CONTINUOUS
 62
     3
 10
23.2999999999986791
 20
153.4684540039081071
 30
0.0
 40
13.2000000000014293
210
0.0
220
-0.0000000000000002
230
-1.0
 50
326.9761324442051205
 51
359.9999999999980105
  0
ARC
  5
1CBBE
  8
0
  6
CONTINUOUS
 62
     3
 10
-23.29999999999837
 20
153.4684540039081071
 30
0.0
 40
13.2000000000015199
210
0.0
220
-0.0000000000000002
230
-1.0
 50
180.0000000000019895
 51
213.0238675557947943
  0
LINE
  5
1CBBF
  8
0
  6
CONTINUOUS
 62
     3
 10
-30.2890290662816497
 20
140.0001052085297033
 30
-0.0000000000000311
 11
-34.3674557351685479
 21
146.2746077760482137
 31
-0.0000000000000325
210
0.0
220
1.0
230
-0.0000000000000002
  0
LINE
  5
1CBC0
  8
0
  6
CONTINUOUS
 62
     3
 10
30.2890290662814294
 20
140.0001052085297033
 30
-0.0000000000000311
 11
34.3674557351683205
 21
146.2746077760482137
 31
-0.0000000000000325
210
0.0
220
1.0
230
-0.0000000000000002
  0
LINE
  5
1CBC1
  8
0
  6
CONTINUOUS
 62
     3
 10
-146.0
 20
250.0000000000001137
 30
-0.0000000000000555
 11
146.0
 21
250.0000000000001137
 31
-0.0000000000000555
210
0.0
220
1.0
230
-0.0000000000000002
  0
LINE
  5
1CBC2
  8
0
  6
CONTINUOUS
 62
     3
 10
-146.0
 20
248.0000000000001137
 30
-0.0000000000000551
 11
146.0
 21
248.0000000000001137
 31
-0.0000000000000551
210
0.0
220
1.0
230
-0.0000000000000002
  0
LINE
  5
1CBC3
  8
0
  6
CONTINUOUS
 62
     3
 10
-58.5
 20
220.0000000000001137
 30
-0.0000000000000488
 11
58.5
 21
220.0000000000001137
 31
-0.0000000000000488
210
0.0
220
1.0
230
-0.0000000000000002
  0
LINE
  5
1CBC4
  8
0
  6
CONTINUOUS
 62
     3
 10
146.0
 20
250.0000000000001137
 30
-0.0000000000000555
 11
146.0
 21
248.0000000000001137
 31
-0.0000000000000551
210
0.0
220
1.0
230
-0.0000000000000002
  0
LINE
  5
1CBC5
  8
0
  6
CONTINUOUS
 62
     3
 10
-146.0
 20
250.0000000000001137
 30
-0.0000000000000555
 11
-146.0
 21
248.0000000000001137
 31
-0.0000000000000551
210
0.0
220
1.0
230
-0.0000000000000002
  0
ARC
  5
1CBC6
  8
0
  6
CONTINUOUS
 62
     3
 10
118.4999999999977973
 20
210.0000000000084128
 30
0.0
 40
37.9999999999914806
210
0.0
220
-0.0000000000000002
230
-1.0
 50
89.9999999999966889
 51
120.187454074824899
  0
ARC
  5
1CBC7
  8
0
  6
CONTINUOUS
 62
     3
 10
-118.4999999999977973
 20
210.0000000000084981
 30
0.0
 40
37.9999999999913882
210
0.0
220
-0.0000000000000002
230
-1.0
 50
59.8125459251750726
 51
90.0000000000033253
  0
LINE
  5
1CBC8
  8
0
  6
CONTINUOUS
 62
     3
 10
-61.5169841178315977
 20
220.8136904418699942
 30
-0.000000000000049
 11
-99.3924339203990712
 21
242.8466272014902074
 31
-0.0000000000000539
210
0.0
220
1.0
230
-0.0000000000000002
  0
LINE
  5
1CBC9
  8
0
  6
CONTINUOUS
 62
     3
 10
61.5169841178315977
 20
220.8136904418699942
 30
-0.000000000000049
 11
99.3924339203990712
 21
242.8466272014902074
 31
-0.0000000000000539
210
0.0
220
1.0
230
-0.0000000000000002
  0
ARC
  5
1CBCA
  8
0
  6
CONTINUOUS
 62
     3
 10
58.4999999999999005
 20
226.0000000000005116
 30
0.0
 40
6.0000000000003411
210
0.0
220
-0.0000000000000002
230
-1.0
 50
270.0
 51
300.1874540748194136
  0
ARC
  5
1CBCB
  8
0
  6
CONTINUOUS
 62
     3
 10
-58.4999999999999005
 20
226.0000000000005116
 30
0.0
 40
6.0000000000003419
210
0.0
220
-0.0000000000000002
230
-1.0
 50
239.8125459251808991
 51
270.0000000000002274
  0
LINE
  5
1CBCC
  8
0
  6
VERDECKT
 62
     1
 10
-54.9999999999999289
 20
235.000000000000199
 30
-0.0000000000000522
 11
-46.9999999999999289
 21
235.000000000000199
 31
-0.0000000000000522
210
0.0
220
1.0
230
-0.0000000000000002
  0
LINE
  5
1CBCD
  8
0
  6
VERDECKT
 62
     1
 10
-53.9999999999999432
 20
234.000000000000199
 30
-0.000000000000052
 11
-47.9999999999999289
 21
234.000000000000199
 31
-0.000000000000052
210
0.0
220
1.0
230
-0.0000000000000002
  0
LINE
  5
1CBCE
  8
0
  6
VERDECKT
 62
     1
 10
-54.9999999999999289
 20
233.000000000000199
 30
-0.0000000000000517
 11
-46.9999999999999289
 21
233.000000000000199
 31
-0.0000000000000517
210
0.0
220
1.0
230
-0.0000000000000002
  0
LINE
  5
1CBCF
  8
0
  6
VERDECKT
 62
     1
 10
-53.9999999999999432
 20
232.000000000000199
 30
-0.0000000000000515
 11
-47.9999999999999289
 21
232.000000000000199
 31
-0.0000000000000515
210
0.0
220
1.0
230
-0.0000000000000002
  0
LINE
  5
1CBD0
  8
0
  6
VERDECKT
 62
     1
 10
-54.9999999999999289
 20
231.000000000000199
 30
-0.0000000000000513
 11
-46.9999999999999289
 21
231.000000000000199
 31
-0.0000000000000513
210
0.0
220
1.0
230
-0.0000000000000002
  0
LINE
  5
1CBD1
  8
0
  6
VERDECKT
 62
     1
 10
-53.9999999999999432
 20
230.000000000000199
 30
-0.0000000000000511
 11
-47.9999999999999289
 21
230.000000000000199
 31
-0.0000000000000511
210
0.0
220
1.0
230
-0.0000000000000002
  0
LINE
  5
1CBD2
  8
0
  6
VERDECKT
 62
     1
 10
-54.9999999999999289
 20
229.000000000000199
 30
-0.0000000000000508
 11
-46.9999999999999289
 21
229.000000000000199
 31
-0.0000000000000508
210
0.0
220
1.0
230
-0.0000000000000002
  0
LINE
  5
1CBD3
  8
0
  6
VERDECKT
 62
     1
 10
-53.9999999999999432
 20
228.000000000000199
 30
-0.0000000000000506
 11
-47.9999999999999289
 21
228.000000000000199
 31
-0.0000000000000506
210
0.0
220
1.0
230
-0.0000000000000002
  0
LINE
  5
1CBD4
  8
0
  6
VERDECKT
 62
     1
 10
-54.9999999999999289
 20
227.000000000000199
 30
-0.0000000000000504
 11
-46.9999999999999289
 21
227.000000000000199
 31
-0.0000000000000504
210
0.0
220
1.0
230
-0.0000000000000002
  0
LINE
  5
1CBD5
  8
0
  6
VERDECKT
 62
     1
 10
-53.9999999999999432
 20
226.000000000000199
 30
-0.0000000000000502
 11
-47.9999999999999289
 21
226.000000000000199
 31
-0.0000000000000502
210
0.0
220
1.0
230
-0.0000000000000002
  0
LINE
  5
1CBD6
  8
0
  6
VERDECKT
 62
     1
 10
-54.9999999999999289
 20
225.000000000000199
 30
-0.00000000000005
 11
-46.9999999999999289
 21
225.000000000000199
 31
-0.00000000000005
210
0.0
220
1.0
230
-0.0000000000000002
  0
LINE
  5
1CBD7
  8
0
  6
VERDECKT
 62
     1
 10
-53.9999999999999432
 20
224.000000000000199
 30
-0.0000000000000497
 11
-47.9999999999999289
 21
224.000000000000199
 31
-0.0000000000000497
210
0.0
220
1.0
230
-0.0000000000000002
  0
LINE
  5
1CBD8
  8
0
  6
VERDECKT
 62
     1
 10
-54.9999999999999289
 20
223.000000000000199
 30
-0.0000000000000495
 11
-46.9999999999999289
 21
223.000000000000199
 31
-0.0000000000000495
210
0.0
220
1.0
230
-0.0000000000000002
  0
LINE
  5
1CBD9
  8
0
  6
VERDECKT
 62
     1
 10
-53.9999999999999432
 20
242.000000000000199
 30
-0.0000000000000537
 11
-47.9999999999999289
 21
242.000000000000199
 31
-0.0000000000000537
210
0.0
220
1.0
230
-0.0000000000000002
  0
LINE
  5
1CBDA
  8
0
  6
VERDECKT
 62
     1
 10
-54.9999999999999289
 20
241.000000000000199
 30
-0.0000000000000535
 11
-46.9999999999999289
 21
241.000000000000199
 31
-0.0000000000000535
210
0.0
220
1.0
230
-0.0000000000000002
  0
LINE
  5
1CBDB
  8
0
  6
VERDECKT
 62
     1
 10
-53.9999999999999432
 20
240.000000000000199
 30
-0.0000000000000533
 11
-47.9999999999999289
 21
240.000000000000199
 31
-0.0000000000000533
210
0.0
220
1.0
230
-0.0000000000000002
  0
LINE
  5
1CBDC
  8
0
  6
VERDECKT
 62
     1
 10
-54.9999999999999289
 20
239.000000000000199
 30
-0.0000000000000531
 11
-46.9999999999999289
 21
239.000000000000199
 31
-0.0000000000000531
210
0.0
220
1.0
230
-0.0000000000000002
  0
LINE
  5
1CBDD
  8
0
  6
VERDECKT
 62
     1
 10
-53.9999999999999432
 20
238.000000000000199
 30
-0.0000000000000528
 11
-47.9999999999999289
 21
238.000000000000199
 31
-0.0000000000000528
210
0.0
220
1.0
230
-0.0000000000000002
  0
LINE
  5
1CBDE
  8
0
  6
VERDECKT
 62
     1
 10
-54.9999999999999289
 20
237.000000000000199
 30
-0.0000000000000526
 11
-46.9999999999999289
 21
237.000000000000199
 31
-0.0000000000000526
210
0.0
220
1.0
230
-0.0000000000000002
  0
LINE
  5
1CBDF
  8
0
  6
VERDECKT
 62
     1
 10
-53.9999999999999432
 20
236.000000000000199
 30
-0.0000000000000524
 11
-47.9999999999999289
 21
236.000000000000199
 31
-0.0000000000000524
210
0.0
220
1.0
230
-0.0000000000000002
  0
LINE
  5
1CBE0
  8
0
  6
VERDECKT
 62
     1
 10
-53.9999999999999432
 20
234.000000000000199
 30
-0.000000000000052
 11
-54.9999999999999289
 21
235.000000000000199
 31
-0.0000000000000522
210
0.0
220
1.0
230
-0.0000000000000002
  0
LINE
  5
1CBE1
  8
0
  6
VERDECKT
 62
     1
 10
-47.9999999999999289
 20
234.000000000000199
 30
-0.000000000000052
 11
-46.9999999999999289
 21
235.000000000000199
 31
-0.0000000000000522
210
0.0
220
1.0
230
-0.0000000000000002
  0
LINE
  5
1CBE2
  8
0
  6
VERDECKT
 62
     1
 10
-47.9999999999999289
 20
234.000000000000199
 30
-0.000000000000052
 11
-46.9999999999999289
 21
233.000000000000199
 31
-0.0000000000000517
210
0.0
220
1.0
230
-0.0000000000000002
  0
LINE
  5
1CBE3
  8
0
  6
VERDECKT
 62
     1
 10
-53.9999999999999432
 20
234.000000000000199
 30
-0.000000000000052
 11
-54.9999999999999289
 21
233.000000000000199
 31
-0.0000000000000517
210
0.0
220
1.0
230
-0.0000000000000002
  0
LINE
  5
1CBE4
  8
0
  6
VERDECKT
 62
     1
 10
-53.9999999999999432
 20
232.000000000000199
 30
-0.0000000000000515
 11
-54.9999999999999289
 21
233.000000000000199
 31
-0.0000000000000517
210
0.0
220
1.0
230
-0.0000000000000002
  0
LINE
  5
1CBE5
  8
0
  6
VERDECKT
 62
     1
 10
-47.9999999999999289
 20
232.000000000000199
 30
-0.0000000000000515
 11
-46.9999999999999289
 21
233.000000000000199
 31
-0.0000000000000517
210
0.0
220
1.0
230
-0.0000000000000002
  0
LINE
  5
1CBE6
  8
0
  6
VERDECKT
 62
     1
 10
-47.9999999999999289
 20
232.000000000000199
 30
-0.0000000000000515
 11
-46.9999999999999289
 21
231.000000000000199
 31
-0.0000000000000513
210
0.0
220
1.0
230
-0.0000000000000002
  0
LINE
  5
1CBE7
  8
0
  6
VERDECKT
 62
     1
 10
-53.9999999999999432
 20
232.000000000000199
 30
-0.0000000000000515
 11
-54.9999999999999289
 21
231.000000000000199
 31
-0.0000000000000513
210
0.0
220
1.0
230
-0.0000000000000002
  0
LINE
  5
1CBE8
  8
0
  6
VERDECKT
 62
     1
 10
-53.9999999999999432
 20
230.000000000000199
 30
-0.0000000000000511
 11
-54.9999999999999289
 21
231.000000000000199
 31
-0.0000000000000513
210
0.0
220
1.0
230
-0.0000000000000002
  0
LINE
  5
1CBE9
  8
0
  6
VERDECKT
 62
     1
 10
-47.9999999999999289
 20
230.000000000000199
 30
-0.0000000000000511
 11
-46.9999999999999289
 21
231.000000000000199
 31
-0.0000000000000513
210
0.0
220
1.0
230
-0.0000000000000002
  0
LINE
  5
1CBEA
  8
0
  6
VERDECKT
 62
     1
 10
-47.9999999999999289
 20
230.000000000000199
 30
-0.0000000000000511
 11
-46.9999999999999289
 21
229.000000000000199
 31
-0.0000000000000508
210
0.0
220
1.0
230
-0.0000000000000002
  0
LINE
  5
1CBEB
  8
0
  6
VERDECKT
 62
     1
 10
-53.9999999999999432
 20
230.000000000000199
 30
-0.0000000000000511
 11
-54.9999999999999289
 21
229.000000000000199
 31
-0.0000000000000508
210
0.0
220
1.0
230
-0.0000000000000002
  0
LINE
  5
1CBEC
  8
0
  6
VERDECKT
 62
     1
 10
-53.9999999999999432
 20
228.000000000000199
 30
-0.0000000000000506
 11
-54.9999999999999289
 21
229.000000000000199
 31
-0.0000000000000508
210
0.0
220
1.0
230
-0.0000000000000002
  0
LINE
  5
1CBED
  8
0
  6
VERDECKT
 62
     1
 10
-47.9999999999999289
 20
228.000000000000199
 30
-0.0000000000000506
 11
-46.9999999999999289
 21
229.000000000000199
 31
-0.0000000000000508
210
0.0
220
1.0
230
-0.0000000000000002
  0
LINE
  5
1CBEE
  8
0
  6
VERDECKT
 62
     1
 10
-47.9999999999999289
 20
228.000000000000199
 30
-0.0000000000000506
 11
-46.9999999999999289
 21
227.000000000000199
 31
-0.0000000000000504
210
0.0
220
1.0
230
-0.0000000000000002
  0
LINE
  5
1CBEF
  8
0
  6
VERDECKT
 62
     1
 10
-53.9999999999999432
 20
228.000000000000199
 30
-0.0000000000000506
 11
-54.9999999999999289
 21
227.000000000000199
 31
-0.0000000000000504
210
0.0
220
1.0
230
-0.0000000000000002
  0
LINE
  5
1CBF0
  8
0
  6
VERDECKT
 62
     1
 10
-53.9999999999999432
 20
226.000000000000199
 30
-0.0000000000000502
 11
-54.9999999999999289
 21
227.000000000000199
 31
-0.0000000000000504
210
0.0
220
1.0
230
-0.0000000000000002
  0
LINE
  5
1CBF1
  8
0
  6
VERDECKT
 62
     1
 10
-47.9999999999999289
 20
226.000000000000199
 30
-0.0000000000000502
 11
-46.9999999999999289
 21
227.000000000000199
 31
-0.0000000000000504
210
0.0
220
1.0
230
-0.0000000000000002
  0
LINE
  5
1CBF2
  8
0
  6
VERDECKT
 62
     1
 10
-47.9999999999999289
 20
226.000000000000199
 30
-0.0000000000000502
 11
-46.9999999999999289
 21
225.000000000000199
 31
-0.00000000000005
210
0.0
220
1.0
230
-0.0000000000000002
  0
LINE
  5
1CBF3
  8
0
  6
VERDECKT
 62
     1
 10
-53.9999999999999432
 20
226.000000000000199
 30
-0.0000000000000502
 11
-54.9999999999999289
 21
225.000000000000199
 31
-0.00000000000005
210
0.0
220
1.0
230
-0.0000000000000002
  0
LINE
  5
1CBF4
  8
0
  6
VERDECKT
 62
     1
 10
-53.9999999999999432
 20
224.000000000000199
 30
-0.0000000000000497
 11
-54.9999999999999289
 21
225.000000000000199
 31
-0.00000000000005
210
0.0
220
1.0
230
-0.0000000000000002
  0
LINE
  5
1CBF5
  8
0
  6
VERDECKT
 62
     1
 10
-47.9999999999999289
 20
224.000000000000199
 30
-0.0000000000000497
 11
-46.9999999999999289
 21
225.000000000000199
 31
-0.00000000000005
210
0.0
220
1.0
230
-0.0000000000000002
  0
LINE
  5
1CBF6
  8
0
  6
VERDECKT
 62
     1
 10
-47.9999999999999289
 20
224.000000000000199
 30
-0.0000000000000497
 11
-46.9999999999999289
 21
223.000000000000199
 31
-0.0000000000000495
210
0.0
220
1.0
230
-0.0000000000000002
  0
LINE
  5
1CBF7
  8
0
  6
VERDECKT
 62
     1
 10
-53.9999999999999432
 20
224.000000000000199
 30
-0.0000000000000497
 11
-54.9999999999999289
 21
223.000000000000199
 31
-0.0000000000000495
210
0.0
220
1.0
230
-0.0000000000000002
  0
LINE
  5
1CBF8
  8
0
  6
VERDECKT
 62
     1
 10
-53.9999999999999432
 20
222.000000000000199
 30
-0.0000000000000493
 11
-54.9999999999999289
 21
223.000000000000199
 31
-0.0000000000000495
210
0.0
220
1.0
230
-0.0000000000000002
  0
LINE
  5
1CBF9
  8
0
  6
VERDECKT
 62
     1
 10
-47.9999999999999289
 20
222.000000000000199
 30
-0.0000000000000493
 11
-46.9999999999999289
 21
223.000000000000199
 31
-0.0000000000000495
210
0.0
220
1.0
230
-0.0000000000000002
  0
LINE
  5
1CBFA
  8
0
  6
VERDECKT
 62
     1
 10
-47.9999999999999289
 20
242.000000000000199
 30
-0.0000000000000537
 11
-46.9999999999999289
 21
241.000000000000199
 31
-0.0000000000000535
210
0.0
220
1.0
230
-0.0000000000000002
  0
LINE
  5
1CBFB
  8
0
  6
VERDECKT
 62
     1
 10
-53.9999999999999432
 20
242.000000000000199
 30
-0.0000000000000537
 11
-54.9999999999999289
 21
241.000000000000199
 31
-0.0000000000000535
210
0.0
220
1.0
230
-0.0000000000000002
  0
LINE
  5
1CBFC
  8
0
  6
VERDECKT
 62
     1
 10
-53.9999999999999432
 20
240.000000000000199
 30
-0.0000000000000533
 11
-54.9999999999999289
 21
241.000000000000199
 31
-0.0000000000000535
210
0.0
220
1.0
230
-0.0000000000000002
  0
LINE
  5
1CBFD
  8
0
  6
VERDECKT
 62
     1
 10
-47.9999999999999289
 20
240.000000000000199
 30
-0.0000000000000533
 11
-46.9999999999999289
 21
241.000000000000199
 31
-0.0000000000000535
210
0.0
220
1.0
230
-0.0000000000000002
  0
LINE
  5
1CBFE
  8
0
  6
VERDECKT
 62
     1
 10
-47.9999999999999289
 20
240.000000000000199
 30
-0.0000000000000533
 11
-46.9999999999999289
 21
239.000000000000199
 31
-0.0000000000000531
210
0.0
220
1.0
230
-0.0000000000000002
  0
LINE
  5
1CBFF
  8
0
  6
VERDECKT
 62
     1
 10
-53.9999999999999432
 20
240.000000000000199
 30
-0.0000000000000533
 11
-54.9999999999999289
 21
239.000000000000199
 31
-0.0000000000000531
210
0.0
220
1.0
230
-0.0000000000000002
  0
LINE
  5
1CC00
  8
0
  6
VERDECKT
 62
     1
 10
-53.9999999999999432
 20
238.000000000000199
 30
-0.0000000000000528
 11
-54.9999999999999289
 21
239.000000000000199
 31
-0.0000000000000531
210
0.0
220
1.0
230
-0.0000000000000002
  0
LINE
  5
1CC01
  8
0
  6
VERDECKT
 62
     1
 10
-47.9999999999999289
 20
238.000000000000199
 30
-0.0000000000000528
 11
-46.9999999999999289
 21
239.000000000000199
 31
-0.0000000000000531
210
0.0
220
1.0
230
-0.0000000000000002
  0
LINE
  5
1CC02
  8
0
  6
VERDECKT
 62
     1
 10
-47.9999999999999289
 20
238.000000000000199
 30
-0.0000000000000528
 11
-46.9999999999999289
 21
237.000000000000199
 31
-0.0000000000000526
210
0.0
220
1.0
230
-0.0000000000000002
  0
LINE
  5
1CC03
  8
0
  6
VERDECKT
 62
     1
 10
-53.9999999999999432
 20
238.000000000000199
 30
-0.0000000000000528
 11
-54.9999999999999289
 21
237.000000000000199
 31
-0.0000000000000526
210
0.0
220
1.0
230
-0.0000000000000002
  0
LINE
  5
1CC04
  8
0
  6
VERDECKT
 62
     1
 10
-53.9999999999999432
 20
236.000000000000199
 30
-0.0000000000000524
 11
-54.9999999999999289
 21
237.000000000000199
 31
-0.0000000000000526
210
0.0
220
1.0
230
-0.0000000000000002
  0
LINE
  5
1CC05
  8
0
  6
VERDECKT
 62
     1
 10
-47.9999999999999289
 20
236.000000000000199
 30
-0.0000000000000524
 11
-46.9999999999999289
 21
237.000000000000199
 31
-0.0000000000000526
210
0.0
220
1.0
230
-0.0000000000000002
  0
LINE
  5
1CC06
  8
0
  6
VERDECKT
 62
     1
 10
-47.9999999999999289
 20
236.000000000000199
 30
-0.0000000000000524
 11
-46.9999999999999289
 21
235.000000000000199
 31
-0.0000000000000522
210
0.0
220
1.0
230
-0.0000000000000002
  0
LINE
  5
1CC07
  8
0
  6
VERDECKT
 62
     1
 10
-53.9999999999999432
 20
236.000000000000199
 30
-0.0000000000000524
 11
-54.9999999999999289
 21
235.000000000000199
 31
-0.0000000000000522
210
0.0
220
1.0
230
-0.0000000000000002
  0
LINE
  5
1CC08
  8
0
  6
VERDECKT
 62
     1
 10
-4.0000000000000089
 20
235.000000000000199
 30
-0.0000000000000522
 11
3.9999999999999898
 21
235.000000000000199
 31
-0.0000000000000522
210
0.0
220
1.0
230
-0.0000000000000002
  0
LINE
  5
1CC09
  8
0
  6
VERDECKT
 62
     1
 10
-3.0000000000000089
 20
234.000000000000199
 30
-0.000000000000052
 11
2.9999999999999898
 21
234.000000000000199
 31
-0.000000000000052
210
0.0
220
1.0
230
-0.0000000000000002
  0
LINE
  5
1CC0A
  8
0
  6
VERDECKT
 62
     1
 10
-4.0000000000000089
 20
233.000000000000199
 30
-0.0000000000000517
 11
3.9999999999999898
 21
233.000000000000199
 31
-0.0000000000000517
210
0.0
220
1.0
230
-0.0000000000000002
  0
LINE
  5
1CC0B
  8
0
  6
VERDECKT
 62
     1
 10
-3.0000000000000089
 20
232.000000000000199
 30
-0.0000000000000515
 11
2.9999999999999898
 21
232.000000000000199
 31
-0.0000000000000515
210
0.0
220
1.0
230
-0.0000000000000002
  0
LINE
  5
1CC0C
  8
0
  6
VERDECKT
 62
     1
 10
-4.0000000000000089
 20
231.000000000000199
 30
-0.0000000000000513
 11
3.9999999999999898
 21
231.000000000000199
 31
-0.0000000000000513
210
0.0
220
1.0
230
-0.0000000000000002
  0
LINE
  5
1CC0D
  8
0
  6
VERDECKT
 62
     1
 10
-3.0000000000000089
 20
230.000000000000199
 30
-0.0000000000000511
 11
2.9999999999999898
 21
230.000000000000199
 31
-0.0000000000000511
210
0.0
220
1.0
230
-0.0000000000000002
  0
LINE
  5
1CC0E
  8
0
  6
VERDECKT
 62
     1
 10
-4.0000000000000089
 20
229.000000000000199
 30
-0.0000000000000508
 11
3.9999999999999898
 21
229.000000000000199
 31
-0.0000000000000508
210
0.0
220
1.0
230
-0.0000000000000002
  0
LINE
  5
1CC0F
  8
0
  6
VERDECKT
 62
     1
 10
-3.0000000000000089
 20
228.000000000000199
 30
-0.0000000000000506
 11
2.9999999999999898
 21
228.000000000000199
 31
-0.0000000000000506
210
0.0
220
1.0
230
-0.0000000000000002
  0
LINE
  5
1CC10
  8
0
  6
VERDECKT
 62
     1
 10
-4.0000000000000089
 20
227.000000000000199
 30
-0.0000000000000504
 11
3.9999999999999898
 21
227.000000000000199
 31
-0.0000000000000504
210
0.0
220
1.0
230
-0.0000000000000002
  0
LINE
  5
1CC11
  8
0
  6
VERDECKT
 62
     1
 10
-3.0000000000000089
 20
226.000000000000199
 30
-0.0000000000000502
 11
2.9999999999999898
 21
226.000000000000199
 31
-0.0000000000000502
210
0.0
220
1.0
230
-0.0000000000000002
  0
LINE
  5
1CC12
  8
0
  6
VERDECKT
 62
     1
 10
-4.0000000000000089
 20
225.000000000000199
 30
-0.00000000000005
 11
3.9999999999999898
 21
225.000000000000199
 31
-0.00000000000005
210
0.0
220
1.0
230
-0.0000000000000002
  0
LINE
  5
1CC13
  8
0
  6
VERDECKT
 62
     1
 10
-3.0000000000000089
 20
224.000000000000199
 30
-0.0000000000000497
 11
2.9999999999999898
 21
224.000000000000199
 31
-0.0000000000000497
210
0.0
220
1.0
230
-0.0000000000000002
  0
LINE
  5
1CC14
  8
0
  6
VERDECKT
 62
     1
 10
-4.0000000000000089
 20
223.000000000000199
 30
-0.0000000000000495
 11
3.9999999999999898
 21
223.000000000000199
 31
-0.0000000000000495
210
0.0
220
1.0
230
-0.0000000000000002
  0
LINE
  5
1CC15
  8
0
  6
VERDECKT
 62
     1
 10
-3.0000000000000089
 20
242.000000000000199
 30
-0.0000000000000537
 11
2.9999999999999898
 21
242.000000000000199
 31
-0.0000000000000537
210
0.0
220
1.0
230
-0.0000000000000002
  0
LINE
  5
1CC16
  8
0
  6
VERDECKT
 62
     1
 10
-4.0000000000000089
 20
241.000000000000199
 30
-0.0000000000000535
 11
3.9999999999999898
 21
241.000000000000199
 31
-0.0000000000000535
210
0.0
220
1.0
230
-0.0000000000000002
  0
LINE
  5
1CC17
  8
0
  6
VERDECKT
 62
     1
 10
-3.0000000000000089
 20
240.000000000000199
 30
-0.0000000000000533
 11
2.9999999999999898
 21
240.000000000000199
 31
-0.0000000000000533
210
0.0
220
1.0
230
-0.0000000000000002
  0
LINE
  5
1CC18
  8
0
  6
VERDECKT
 62
     1
 10
-4.0000000000000089
 20
239.000000000000199
 30
-0.0000000000000531
 11
3.9999999999999898
 21
239.000000000000199
 31
-0.0000000000000531
210
0.0
220
1.0
230
-0.0000000000000002
  0
LINE
  5
1CC19
  8
0
  6
VERDECKT
 62
     1
 10
-3.0000000000000089
 20
238.000000000000199
 30
-0.0000000000000528
 11
2.9999999999999898
 21
238.000000000000199
 31
-0.0000000000000528
210
0.0
220
1.0
230
-0.0000000000000002
  0
LINE
  5
1CC1A
  8
0
  6
VERDECKT
 62
     1
 10
-4.0000000000000089
 20
237.000000000000199
 30
-0.0000000000000526
 11
3.9999999999999898
 21
237.000000000000199
 31
-0.0000000000000526
210
0.0
220
1.0
230
-0.0000000000000002
  0
LINE
  5
1CC1B
  8
0
  6
VERDECKT
 62
     1
 10
-3.0000000000000089
 20
236.000000000000199
 30
-0.0000000000000524
 11
2.9999999999999898
 21
236.000000000000199
 31
-0.0000000000000524
210
0.0
220
1.0
230
-0.0000000000000002
  0
LINE
  5
1CC1C
  8
0
  6
VERDECKT
 62
     1
 10
-3.0000000000000089
 20
234.000000000000199
 30
-0.000000000000052
 11
-4.0000000000000089
 21
235.000000000000199
 31
-0.0000000000000522
210
0.0
220
1.0
230
-0.0000000000000002
  0
LINE
  5
1CC1D
  8
0
  6
VERDECKT
 62
     1
 10
2.9999999999999911
 20
234.000000000000199
 30
-0.000000000000052
 11
3.9999999999999911
 21
235.000000000000199
 31
-0.0000000000000522
210
0.0
220
1.0
230
-0.0000000000000002
  0
LINE
  5
1CC1E
  8
0
  6
VERDECKT
 62
     1
 10
2.9999999999999911
 20
234.000000000000199
 30
-0.000000000000052
 11
3.9999999999999898
 21
233.000000000000199
 31
-0.0000000000000517
210
0.0
220
1.0
230
-0.0000000000000002
  0
LINE
  5
1CC1F
  8
0
  6
VERDECKT
 62
     1
 10
-3.0000000000000089
 20
234.000000000000199
 30
-0.000000000000052
 11
-4.0000000000000089
 21
233.000000000000199
 31
-0.0000000000000517
210
0.0
220
1.0
230
-0.0000000000000002
  0
LINE
  5
1CC20
  8
0
  6
VERDECKT
 62
     1
 10
-3.0000000000000102
 20
232.000000000000199
 30
-0.0000000000000515
 11
-4.0000000000000089
 21
233.000000000000199
 31
-0.0000000000000517
210
0.0
220
1.0
230
-0.0000000000000002
  0
LINE
  5
1CC21
  8
0
  6
VERDECKT
 62
     1
 10
2.9999999999999911
 20
232.000000000000199
 30
-0.0000000000000515
 11
3.9999999999999898
 21
233.000000000000199
 31
-0.0000000000000517
210
0.0
220
1.0
230
-0.0000000000000002
  0
LINE
  5
1CC22
  8
0
  6
VERDECKT
 62
     1
 10
2.9999999999999911
 20
232.000000000000199
 30
-0.0000000000000515
 11
3.9999999999999898
 21
231.000000000000199
 31
-0.0000000000000513
210
0.0
220
1.0
230
-0.0000000000000002
  0
LINE
  5
1CC23
  8
0
  6
VERDECKT
 62
     1
 10
-3.0000000000000089
 20
232.000000000000199
 30
-0.0000000000000515
 11
-4.0000000000000089
 21
231.000000000000199
 31
-0.0000000000000513
210
0.0
220
1.0
230
-0.0000000000000002
  0
LINE
  5
1CC24
  8
0
  6
VERDECKT
 62
     1
 10
-3.0000000000000089
 20
230.000000000000199
 30
-0.0000000000000511
 11
-4.0000000000000089
 21
231.000000000000199
 31
-0.0000000000000513
210
0.0
220
1.0
230
-0.0000000000000002
  0
LINE
  5
1CC25
  8
0
  6
VERDECKT
 62
     1
 10
2.9999999999999911
 20
230.000000000000199
 30
-0.0000000000000511
 11
3.9999999999999898
 21
231.000000000000199
 31
-0.0000000000000513
210
0.0
220
1.0
230
-0.0000000000000002
  0
LINE
  5
1CC26
  8
0
  6
VERDECKT
 62
     1
 10
2.9999999999999911
 20
230.000000000000199
 30
-0.0000000000000511
 11
3.9999999999999898
 21
229.000000000000199
 31
-0.0000000000000508
210
0.0
220
1.0
230
-0.0000000000000002
  0
LINE
  5
1CC27
  8
0
  6
VERDECKT
 62
     1
 10
-3.0000000000000089
 20
230.000000000000199
 30
-0.0000000000000511
 11
-4.0000000000000089
 21
229.000000000000199
 31
-0.0000000000000508
210
0.0
220
1.0
230
-0.0000000000000002
  0
LINE
  5
1CC28
  8
0
  6
VERDECKT
 62
     1
 10
-3.0000000000000102
 20
228.000000000000199
 30
-0.0000000000000506
 11
-4.0000000000000089
 21
229.000000000000199
 31
-0.0000000000000508
210
0.0
220
1.0
230
-0.0000000000000002
  0
LINE
  5
1CC29
  8
0
  6
VERDECKT
 62
     1
 10
2.9999999999999911
 20
228.000000000000199
 30
-0.0000000000000506
 11
3.9999999999999898
 21
229.000000000000199
 31
-0.0000000000000508
210
0.0
220
1.0
230
-0.0000000000000002
  0
LINE
  5
1CC2A
  8
0
  6
VERDECKT
 62
     1
 10
2.9999999999999911
 20
228.000000000000199
 30
-0.0000000000000506
 11
3.9999999999999898
 21
227.000000000000199
 31
-0.0000000000000504
210
0.0
220
1.0
230
-0.0000000000000002
  0
LINE
  5
1CC2B
  8
0
  6
VERDECKT
 62
     1
 10
-3.0000000000000089
 20
228.000000000000199
 30
-0.0000000000000506
 11
-4.0000000000000089
 21
227.000000000000199
 31
-0.0000000000000504
210
0.0
220
1.0
230
-0.0000000000000002
  0
LINE
  5
1CC2C
  8
0
  6
VERDECKT
 62
     1
 10
-3.0000000000000102
 20
226.000000000000199
 30
-0.0000000000000502
 11
-4.0000000000000089
 21
227.000000000000199
 31
-0.0000000000000504
210
0.0
220
1.0
230
-0.0000000000000002
  0
LINE
  5
1CC2D
  8
0
  6
VERDECKT
 62
     1
 10
2.9999999999999911
 20
226.000000000000199
 30
-0.0000000000000502
 11
3.9999999999999898
 21
227.000000000000199
 31
-0.0000000000000504
210
0.0
220
1.0
230
-0.0000000000000002
  0
LINE
  5
1CC2E
  8
0
  6
VERDECKT
 62
     1
 10
2.9999999999999911
 20
226.000000000000199
 30
-0.0000000000000502
 11
3.9999999999999898
 21
225.000000000000199
 31
-0.00000000000005
210
0.0
220
1.0
230
-0.0000000000000002
  0
LINE
  5
1CC2F
  8
0
  6
VERDECKT
 62
     1
 10
-3.0000000000000089
 20
226.000000000000199
 30
-0.0000000000000502
 11
-4.0000000000000089
 21
225.000000000000199
 31
-0.00000000000005
210
0.0
220
1.0
230
-0.0000000000000002
  0
LINE
  5
1CC30
  8
0
  6
VERDECKT
 62
     1
 10
-3.0000000000000102
 20
224.000000000000199
 30
-0.0000000000000497
 11
-4.0000000000000089
 21
225.000000000000199
 31
-0.00000000000005
210
0.0
220
1.0
230
-0.0000000000000002
  0
LINE
  5
1CC31
  8
0
  6
VERDECKT
 62
     1
 10
2.9999999999999911
 20
224.000000000000199
 30
-0.0000000000000497
 11
3.9999999999999898
 21
225.000000000000199
 31
-0.00000000000005
210
0.0
220
1.0
230
-0.0000000000000002
  0
LINE
  5
1CC32
  8
0
  6
VERDECKT
 62
     1
 10
2.9999999999999911
 20
224.000000000000199
 30
-0.0000000000000497
 11
3.9999999999999898
 21
223.000000000000199
 31
-0.0000000000000495
210
0.0
220
1.0
230
-0.0000000000000002
  0
LINE
  5
1CC33
  8
0
  6
VERDECKT
 62
     1
 10
-3.0000000000000089
 20
224.000000000000199
 30
-0.0000000000000497
 11
-4.0000000000000089
 21
223.000000000000199
 31
-0.0000000000000495
210
0.0
220
1.0
230
-0.0000000000000002
  0
LINE
  5
1CC34
  8
0
  6
VERDECKT
 62
     1
 10
-3.0000000000000089
 20
222.000000000000199
 30
-0.0000000000000493
 11
-4.0000000000000089
 21
223.000000000000199
 31
-0.0000000000000495
210
0.0
220
1.0
230
-0.0000000000000002
  0
LINE
  5
1CC35
  8
0
  6
VERDECKT
 62
     1
 10
2.9999999999999911
 20
222.000000000000199
 30
-0.0000000000000493
 11
3.9999999999999898
 21
223.000000000000199
 31
-0.0000000000000495
210
0.0
220
1.0
230
-0.0000000000000002
  0
LINE
  5
1CC36
  8
0
  6
VERDECKT
 62
     1
 10
2.9999999999999911
 20
242.000000000000199
 30
-0.0000000000000537
 11
3.9999999999999898
 21
241.000000000000199
 31
-0.0000000000000535
210
0.0
220
1.0
230
-0.0000000000000002
  0
LINE
  5
1CC37
  8
0
  6
VERDECKT
 62
     1
 10
-3.0000000000000089
 20
242.000000000000199
 30
-0.0000000000000537
 11
-4.0000000000000089
 21
241.000000000000199
 31
-0.0000000000000535
210
0.0
220
1.0
230
-0.0000000000000002
  0
LINE
  5
1CC38
  8
0
  6
VERDECKT
 62
     1
 10
-3.0000000000000089
 20
240.000000000000199
 30
-0.0000000000000533
 11
-4.0000000000000089
 21
241.000000000000199
 31
-0.0000000000000535
210
0.0
220
1.0
230
-0.0000000000000002
  0
LINE
  5
1CC39
  8
0
  6
VERDECKT
 62
     1
 10
2.9999999999999911
 20
240.000000000000199
 30
-0.0000000000000533
 11
3.9999999999999911
 21
241.000000000000199
 31
-0.0000000000000535
210
0.0
220
1.0
230
-0.0000000000000002
  0
LINE
  5
1CC3A
  8
0
  6
VERDECKT
 62
     1
 10
2.9999999999999911
 20
240.000000000000199
 30
-0.0000000000000533
 11
3.9999999999999898
 21
239.000000000000199
 31
-0.0000000000000531
210
0.0
220
1.0
230
-0.0000000000000002
  0
LINE
  5
1CC3B
  8
0
  6
VERDECKT
 62
     1
 10
-3.0000000000000089
 20
240.000000000000199
 30
-0.0000000000000533
 11
-4.0000000000000089
 21
239.000000000000199
 31
-0.0000000000000531
210
0.0
220
1.0
230
-0.0000000000000002
  0
LINE
  5
1CC3C
  8
0
  6
VERDECKT
 62
     1
 10
-3.0000000000000089
 20
238.000000000000199
 30
-0.0000000000000528
 11
-4.0000000000000089
 21
239.000000000000199
 31
-0.0000000000000531
210
0.0
220
1.0
230
-0.0000000000000002
  0
LINE
  5
1CC3D
  8
0
  6
VERDECKT
 62
     1
 10
2.9999999999999911
 20
238.000000000000199
 30
-0.0000000000000528
 11
3.9999999999999911
 21
239.000000000000199
 31
-0.0000000000000531
210
0.0
220
1.0
230
-0.0000000000000002
  0
LINE
  5
1CC3E
  8
0
  6
VERDECKT
 62
     1
 10
2.9999999999999911
 20
238.000000000000199
 30
-0.0000000000000528
 11
3.9999999999999898
 21
237.000000000000199
 31
-0.0000000000000526
210
0.0
220
1.0
230
-0.0000000000000002
  0
LINE
  5
1CC3F
  8
0
  6
VERDECKT
 62
     1
 10
-3.0000000000000089
 20
238.000000000000199
 30
-0.0000000000000528
 11
-4.0000000000000089
 21
237.000000000000199
 31
-0.0000000000000526
210
0.0
220
1.0
230
-0.0000000000000002
  0
LINE
  5
1CC40
  8
0
  6
VERDECKT
 62
     1
 10
-3.0000000000000089
 20
236.000000000000199
 30
-0.0000000000000524
 11
-4.0000000000000089
 21
237.000000000000199
 31
-0.0000000000000526
210
0.0
220
1.0
230
-0.0000000000000002
  0
LINE
  5
1CC41
  8
0
  6
VERDECKT
 62
     1
 10
2.9999999999999911
 20
236.000000000000199
 30
-0.0000000000000524
 11
3.9999999999999898
 21
237.000000000000199
 31
-0.0000000000000526
210
0.0
220
1.0
230
-0.0000000000000002
  0
LINE
  5
1CC42
  8
0
  6
VERDECKT
 62
     1
 10
2.9999999999999911
 20
236.000000000000199
 30
-0.0000000000000524
 11
3.9999999999999898
 21
235.000000000000199
 31
-0.0000000000000522
210
0.0
220
1.0
230
-0.0000000000000002
  0
LINE
  5
1CC43
  8
0
  6
VERDECKT
 62
     1
 10
-3.0000000000000089
 20
236.000000000000199
 30
-0.0000000000000524
 11
-4.0000000000000089
 21
235.000000000000199
 31
-0.0000000000000522
210
0.0
220
1.0
230
-0.0000000000000002
  0
LINE
  5
1CC44
  8
0
  6
VERDECKT
 62
     1
 10
46.9999999999999289
 20
235.000000000000199
 30
-0.0000000000000522
 11
50.9999999999999432
 21
235.000000000000199
 31
-0.0000000000000522
210
0.0
220
1.0
230
-0.0000000000000002
  0
LINE
  5
1CC45
  8
0
  6
VERDECKT
 62
     1
 10
50.9999999999999432
 20
235.000000000000199
 30
-0.0000000000000522
 11
54.9999999999999289
 21
235.000000000000199
 31
-0.0000000000000522
210
0.0
220
1.0
230
-0.0000000000000002
  0
LINE
  5
1CC46
  8
0
  6
VERDECKT
 62
     1
 10
47.9999999999999289
 20
234.000000000000199
 30
-0.000000000000052
 11
50.9999999999999432
 21
234.000000000000199
 31
-0.000000000000052
210
0.0
220
1.0
230
-0.0000000000000002
  0
LINE
  5
1CC47
  8
0
  6
VERDECKT
 62
     1
 10
50.9999999999999432
 20
234.000000000000199
 30
-0.000000000000052
 11
53.9999999999999432
 21
234.000000000000199
 31
-0.000000000000052
210
0.0
220
1.0
230
-0.0000000000000002
  0
LINE
  5
1CC48
  8
0
  6
VERDECKT
 62
     1
 10
46.9999999999999289
 20
233.000000000000199
 30
-0.0000000000000517
 11
50.9999999999999432
 21
233.000000000000199
 31
-0.0000000000000517
210
0.0
220
1.0
230
-0.0000000000000002
  0
LINE
  5
1CC49
  8
0
  6
VERDECKT
 62
     1
 10
50.9999999999999432
 20
233.000000000000199
 30
-0.0000000000000517
 11
54.9999999999999289
 21
233.000000000000199
 31
-0.0000000000000517
210
0.0
220
1.0
230
-0.0000000000000002
  0
LINE
  5
1CC4A
  8
0
  6
VERDECKT
 62
     1
 10
47.9999999999999289
 20
232.000000000000199
 30
-0.0000000000000515
 11
50.9999999999999432
 21
232.000000000000199
 31
-0.0000000000000515
210
0.0
220
1.0
230
-0.0000000000000002
  0
LINE
  5
1CC4B
  8
0
  6
VERDECKT
 62
     1
 10
50.9999999999999432
 20
232.000000000000199
 30
-0.0000000000000515
 11
53.9999999999999432
 21
232.000000000000199
 31
-0.0000000000000515
210
0.0
220
1.0
230
-0.0000000000000002
  0
LINE
  5
1CC4C
  8
0
  6
VERDECKT
 62
     1
 10
46.9999999999999289
 20
231.000000000000199
 30
-0.0000000000000513
 11
50.9999999999999432
 21
231.000000000000199
 31
-0.0000000000000513
210
0.0
220
1.0
230
-0.0000000000000002
  0
LINE
  5
1CC4D
  8
0
  6
VERDECKT
 62
     1
 10
50.9999999999999432
 20
231.000000000000199
 30
-0.0000000000000513
 11
54.9999999999999289
 21
231.000000000000199
 31
-0.0000000000000513
210
0.0
220
1.0
230
-0.0000000000000002
  0
LINE
  5
1CC4E
  8
0
  6
VERDECKT
 62
     1
 10
47.9999999999999289
 20
230.000000000000199
 30
-0.0000000000000511
 11
50.9999999999999432
 21
230.000000000000199
 31
-0.0000000000000511
210
0.0
220
1.0
230
-0.0000000000000002
  0
LINE
  5
1CC4F
  8
0
  6
VERDECKT
 62
     1
 10
50.9999999999999432
 20
230.000000000000199
 30
-0.0000000000000511
 11
53.9999999999999432
 21
230.000000000000199
 31
-0.0000000000000511
210
0.0
220
1.0
230
-0.0000000000000002
  0
LINE
  5
1CC50
  8
0
  6
VERDECKT
 62
     1
 10
46.9999999999999289
 20
229.000000000000199
 30
-0.0000000000000508
 11
50.9999999999999432
 21
229.000000000000199
 31
-0.0000000000000508
210
0.0
220
1.0
230
-0.0000000000000002
  0
LINE
  5
1CC51
  8
0
  6
VERDECKT
 62
     1
 10
50.9999999999999432
 20
229.000000000000199
 30
-0.0000000000000508
 11
54.9999999999999289
 21
229.000000000000199
 31
-0.0000000000000508
210
0.0
220
1.0
230
-0.0000000000000002
  0
LINE
  5
1CC52
  8
0
  6
VERDECKT
 62
     1
 10
47.9999999999999289
 20
228.000000000000199
 30
-0.0000000000000506
 11
50.9999999999999432
 21
228.000000000000199
 31
-0.0000000000000506
210
0.0
220
1.0
230
-0.0000000000000002
  0
LINE
  5
1CC53
  8
0
  6
VERDECKT
 62
     1
 10
50.9999999999999432
 20
228.000000000000199
 30
-0.0000000000000506
 11
53.9999999999999432
 21
228.000000000000199
 31
-0.0000000000000506
210
0.0
220
1.0
230
-0.0000000000000002
  0
LINE
  5
1CC54
  8
0
  6
VERDECKT
 62
     1
 10
46.9999999999999289
 20
227.000000000000199
 30
-0.0000000000000504
 11
50.9999999999999432
 21
227.000000000000199
 31
-0.0000000000000504
210
0.0
220
1.0
230
-0.0000000000000002
  0
LINE
  5
1CC55
  8
0
  6
VERDECKT
 62
     1
 10
50.9999999999999432
 20
227.000000000000199
 30
-0.0000000000000504
 11
54.9999999999999289
 21
227.000000000000199
 31
-0.0000000000000504
210
0.0
220
1.0
230
-0.0000000000000002
  0
LINE
  5
1CC56
  8
0
  6
VERDECKT
 62
     1
 10
47.9999999999999289
 20
226.000000000000199
 30
-0.0000000000000502
 11
50.9999999999999432
 21
226.000000000000199
 31
-0.0000000000000502
210
0.0
220
1.0
230
-0.0000000000000002
  0
LINE
  5
1CC57
  8
0
  6
VERDECKT
 62
     1
 10
50.9999999999999432
 20
226.000000000000199
 30
-0.0000000000000502
 11
53.9999999999999432
 21
226.000000000000199
 31
-0.0000000000000502
210
0.0
220
1.0
230
-0.0000000000000002
  0
LINE
  5
1CC58
  8
0
  6
VERDECKT
 62
     1
 10
46.9999999999999289
 20
225.000000000000199
 30
-0.00000000000005
 11
50.9999999999999432
 21
225.000000000000199
 31
-0.00000000000005
210
0.0
220
1.0
230
-0.0000000000000002
  0
LINE
  5
1CC59
  8
0
  6
VERDECKT
 62
     1
 10
50.9999999999999432
 20
225.000000000000199
 30
-0.00000000000005
 11
54.9999999999999289
 21
225.000000000000199
 31
-0.00000000000005
210
0.0
220
1.0
230
-0.0000000000000002
  0
LINE
  5
1CC5A
  8
0
  6
VERDECKT
 62
     1
 10
47.9999999999999289
 20
224.000000000000199
 30
-0.0000000000000497
 11
50.9999999999999432
 21
224.000000000000199
 31
-0.0000000000000497
210
0.0
220
1.0
230
-0.0000000000000002
  0
LINE
  5
1CC5B
  8
0
  6
VERDECKT
 62
     1
 10
50.9999999999999432
 20
224.000000000000199
 30
-0.0000000000000497
 11
53.9999999999999432
 21
224.000000000000199
 31
-0.0000000000000497
210
0.0
220
1.0
230
-0.0000000000000002
  0
LINE
  5
1CC5C
  8
0
  6
VERDECKT
 62
     1
 10
46.9999999999999289
 20
223.000000000000199
 30
-0.0000000000000495
 11
50.9999999999999432
 21
223.000000000000199
 31
-0.0000000000000495
210
0.0
220
1.0
230
-0.0000000000000002
  0
LINE
  5
1CC5D
  8
0
  6
VERDECKT
 62
     1
 10
50.9999999999999432
 20
223.000000000000199
 30
-0.0000000000000495
 11
54.9999999999999289
 21
223.000000000000199
 31
-0.0000000000000495
210
0.0
220
1.0
230
-0.0000000000000002
  0
LINE
  5
1CC5E
  8
0
  6
VERDECKT
 62
     1
 10
47.9999999999999289
 20
242.000000000000199
 30
-0.0000000000000537
 11
50.9999999999999432
 21
242.000000000000199
 31
-0.0000000000000537
210
0.0
220
1.0
230
-0.0000000000000002
  0
LINE
  5
1CC5F
  8
0
  6
VERDECKT
 62
     1
 10
50.9999999999999432
 20
242.000000000000199
 30
-0.0000000000000537
 11
53.9999999999999432
 21
242.000000000000199
 31
-0.0000000000000537
210
0.0
220
1.0
230
-0.0000000000000002
  0
LINE
  5
1CC60
  8
0
  6
VERDECKT
 62
     1
 10
46.9999999999999289
 20
241.000000000000199
 30
-0.0000000000000535
 11
50.9999999999999432
 21
241.000000000000199
 31
-0.0000000000000535
210
0.0
220
1.0
230
-0.0000000000000002
  0
LINE
  5
1CC61
  8
0
  6
VERDECKT
 62
     1
 10
50.9999999999999432
 20
241.000000000000199
 30
-0.0000000000000535
 11
54.9999999999999289
 21
241.000000000000199
 31
-0.0000000000000535
210
0.0
220
1.0
230
-0.0000000000000002
  0
LINE
  5
1CC62
  8
0
  6
VERDECKT
 62
     1
 10
47.9999999999999289
 20
240.000000000000199
 30
-0.0000000000000533
 11
50.9999999999999432
 21
240.000000000000199
 31
-0.0000000000000533
210
0.0
220
1.0
230
-0.0000000000000002
  0
LINE
  5
1CC63
  8
0
  6
VERDECKT
 62
     1
 10
50.9999999999999432
 20
240.000000000000199
 30
-0.0000000000000533
 11
53.9999999999999432
 21
240.000000000000199
 31
-0.0000000000000533
210
0.0
220
1.0
230
-0.0000000000000002
  0
LINE
  5
1CC64
  8
0
  6
VERDECKT
 62
     1
 10
46.9999999999999289
 20
239.000000000000199
 30
-0.0000000000000531
 11
50.9999999999999432
 21
239.000000000000199
 31
-0.0000000000000531
210
0.0
220
1.0
230
-0.0000000000000002
  0
LINE
  5
1CC65
  8
0
  6
VERDECKT
 62
     1
 10
50.9999999999999432
 20
239.000000000000199
 30
-0.0000000000000531
 11
54.9999999999999289
 21
239.000000000000199
 31
-0.0000000000000531
210
0.0
220
1.0
230
-0.0000000000000002
  0
LINE
  5
1CC66
  8
0
  6
VERDECKT
 62
     1
 10
47.9999999999999289
 20
238.000000000000199
 30
-0.0000000000000528
 11
50.9999999999999432
 21
238.000000000000199
 31
-0.0000000000000528
210
0.0
220
1.0
230
-0.0000000000000002
  0
LINE
  5
1CC67
  8
0
  6
VERDECKT
 62
     1
 10
50.9999999999999432
 20
238.000000000000199
 30
-0.0000000000000528
 11
53.9999999999999432
 21
238.000000000000199
 31
-0.0000000000000528
210
0.0
220
1.0
230
-0.0000000000000002
  0
LINE
  5
1CC68
  8
0
  6
VERDECKT
 62
     1
 10
46.9999999999999289
 20
237.000000000000199
 30
-0.0000000000000526
 11
50.9999999999999432
 21
237.000000000000199
 31
-0.0000000000000526
210
0.0
220
1.0
230
-0.0000000000000002
  0
LINE
  5
1CC69
  8
0
  6
VERDECKT
 62
     1
 10
50.9999999999999432
 20
237.000000000000199
 30
-0.0000000000000526
 11
54.9999999999999289
 21
237.000000000000199
 31
-0.0000000000000526
210
0.0
220
1.0
230
-0.0000000000000002
  0
LINE
  5
1CC6A
  8
0
  6
VERDECKT
 62
     1
 10
47.9999999999999289
 20
236.000000000000199
 30
-0.0000000000000524
 11
50.9999999999999432
 21
236.000000000000199
 31
-0.0000000000000524
210
0.0
220
1.0
230
-0.0000000000000002
  0
LINE
  5
1CC6B
  8
0
  6
VERDECKT
 62
     1
 10
50.9999999999999432
 20
236.000000000000199
 30
-0.0000000000000524
 11
53.9999999999999432
 21
236.000000000000199
 31
-0.0000000000000524
210
0.0
220
1.0
230
-0.0000000000000002
  0
LINE
  5
1CC6C
  8
0
  6
VERDECKT
 62
     1
 10
47.9999999999999289
 20
234.000000000000199
 30
-0.000000000000052
 11
46.9999999999999289
 21
235.000000000000199
 31
-0.0000000000000522
210
0.0
220
1.0
230
-0.0000000000000002
  0
LINE
  5
1CC6D
  8
0
  6
VERDECKT
 62
     1
 10
53.9999999999999432
 20
234.000000000000199
 30
-0.000000000000052
 11
54.9999999999999289
 21
235.000000000000199
 31
-0.0000000000000522
210
0.0
220
1.0
230
-0.0000000000000002
  0
LINE
  5
1CC6E
  8
0
  6
VERDECKT
 62
     1
 10
53.9999999999999432
 20
234.000000000000199
 30
-0.000000000000052
 11
54.9999999999999289
 21
233.000000000000199
 31
-0.0000000000000517
210
0.0
220
1.0
230
-0.0000000000000002
  0
LINE
  5
1CC6F
  8
0
  6
VERDECKT
 62
     1
 10
47.9999999999999289
 20
234.000000000000199
 30
-0.000000000000052
 11
46.9999999999999289
 21
233.000000000000199
 31
-0.0000000000000517
210
0.0
220
1.0
230
-0.0000000000000002
  0
LINE
  5
1CC70
  8
0
  6
VERDECKT
 62
     1
 10
47.9999999999999289
 20
232.000000000000199
 30
-0.0000000000000515
 11
46.9999999999999289
 21
233.000000000000199
 31
-0.0000000000000517
210
0.0
220
1.0
230
-0.0000000000000002
  0
LINE
  5
1CC71
  8
0
  6
VERDECKT
 62
     1
 10
53.9999999999999432
 20
232.000000000000199
 30
-0.0000000000000515
 11
54.9999999999999289
 21
233.000000000000199
 31
-0.0000000000000517
210
0.0
220
1.0
230
-0.0000000000000002
  0
LINE
  5
1CC72
  8
0
  6
VERDECKT
 62
     1
 10
53.9999999999999432
 20
232.000000000000199
 30
-0.0000000000000515
 11
54.9999999999999289
 21
231.000000000000199
 31
-0.0000000000000513
210
0.0
220
1.0
230
-0.0000000000000002
  0
LINE
  5
1CC73
  8
0
  6
VERDECKT
 62
     1
 10
47.9999999999999289
 20
232.000000000000199
 30
-0.0000000000000515
 11
46.9999999999999289
 21
231.000000000000199
 31
-0.0000000000000513
210
0.0
220
1.0
230
-0.0000000000000002
  0
LINE
  5
1CC74
  8
0
  6
VERDECKT
 62
     1
 10
47.9999999999999289
 20
230.000000000000199
 30
-0.0000000000000511
 11
46.9999999999999289
 21
231.000000000000199
 31
-0.0000000000000513
210
0.0
220
1.0
230
-0.0000000000000002
  0
LINE
  5
1CC75
  8
0
  6
VERDECKT
 62
     1
 10
53.9999999999999432
 20
230.000000000000199
 30
-0.0000000000000511
 11
54.9999999999999289
 21
231.000000000000199
 31
-0.0000000000000513
210
0.0
220
1.0
230
-0.0000000000000002
  0
LINE
  5
1CC76
  8
0
  6
VERDECKT
 62
     1
 10
53.9999999999999432
 20
230.000000000000199
 30
-0.0000000000000511
 11
54.9999999999999289
 21
229.000000000000199
 31
-0.0000000000000508
210
0.0
220
1.0
230
-0.0000000000000002
  0
LINE
  5
1CC77
  8
0
  6
VERDECKT
 62
     1
 10
47.9999999999999289
 20
230.000000000000199
 30
-0.0000000000000511
 11
46.9999999999999289
 21
229.000000000000199
 31
-0.0000000000000508
210
0.0
220
1.0
230
-0.0000000000000002
  0
LINE
  5
1CC78
  8
0
  6
VERDECKT
 62
     1
 10
47.9999999999999289
 20
228.000000000000199
 30
-0.0000000000000506
 11
46.9999999999999289
 21
229.000000000000199
 31
-0.0000000000000508
210
0.0
220
1.0
230
-0.0000000000000002
  0
LINE
  5
1CC79
  8
0
  6
VERDECKT
 62
     1
 10
53.9999999999999432
 20
228.000000000000199
 30
-0.0000000000000506
 11
54.9999999999999289
 21
229.000000000000199
 31
-0.0000000000000508
210
0.0
220
1.0
230
-0.0000000000000002
  0
LINE
  5
1CC7A
  8
0
  6
VERDECKT
 62
     1
 10
53.9999999999999432
 20
228.000000000000199
 30
-0.0000000000000506
 11
54.9999999999999289
 21
227.000000000000199
 31
-0.0000000000000504
210
0.0
220
1.0
230
-0.0000000000000002
  0
LINE
  5
1CC7B
  8
0
  6
VERDECKT
 62
     1
 10
47.9999999999999289
 20
228.000000000000199
 30
-0.0000000000000506
 11
46.9999999999999289
 21
227.000000000000199
 31
-0.0000000000000504
210
0.0
220
1.0
230
-0.0000000000000002
  0
LINE
  5
1CC7C
  8
0
  6
VERDECKT
 62
     1
 10
47.9999999999999289
 20
226.000000000000199
 30
-0.0000000000000502
 11
46.9999999999999289
 21
227.000000000000199
 31
-0.0000000000000504
210
0.0
220
1.0
230
-0.0000000000000002
  0
LINE
  5
1CC7D
  8
0
  6
VERDECKT
 62
     1
 10
53.9999999999999432
 20
226.000000000000199
 30
-0.0000000000000502
 11
54.9999999999999289
 21
227.000000000000199
 31
-0.0000000000000504
210
0.0
220
1.0
230
-0.0000000000000002
  0
LINE
  5
1CC7E
  8
0
  6
VERDECKT
 62
     1
 10
53.9999999999999432
 20
226.000000000000199
 30
-0.0000000000000502
 11
54.9999999999999289
 21
225.000000000000199
 31
-0.00000000000005
210
0.0
220
1.0
230
-0.0000000000000002
  0
LINE
  5
1CC7F
  8
0
  6
VERDECKT
 62
     1
 10
47.9999999999999289
 20
226.000000000000199
 30
-0.0000000000000502
 11
46.9999999999999289
 21
225.000000000000199
 31
-0.00000000000005
210
0.0
220
1.0
230
-0.0000000000000002
  0
LINE
  5
1CC80
  8
0
  6
VERDECKT
 62
     1
 10
47.9999999999999289
 20
224.000000000000199
 30
-0.0000000000000497
 11
46.9999999999999289
 21
225.000000000000199
 31
-0.00000000000005
210
0.0
220
1.0
230
-0.0000000000000002
  0
LINE
  5
1CC81
  8
0
  6
VERDECKT
 62
     1
 10
53.9999999999999432
 20
224.000000000000199
 30
-0.0000000000000497
 11
54.9999999999999289
 21
225.000000000000199
 31
-0.00000000000005
210
0.0
220
1.0
230
-0.0000000000000002
  0
LINE
  5
1CC82
  8
0
  6
VERDECKT
 62
     1
 10
53.9999999999999432
 20
224.000000000000199
 30
-0.0000000000000497
 11
54.9999999999999289
 21
223.000000000000199
 31
-0.0000000000000495
210
0.0
220
1.0
230
-0.0000000000000002
  0
LINE
  5
1CC83
  8
0
  6
VERDECKT
 62
     1
 10
47.9999999999999289
 20
224.000000000000199
 30
-0.0000000000000497
 11
46.9999999999999289
 21
223.000000000000199
 31
-0.0000000000000495
210
0.0
220
1.0
230
-0.0000000000000002
  0
LINE
  5
1CC84
  8
0
  6
VERDECKT
 62
     1
 10
47.9999999999999289
 20
222.000000000000199
 30
-0.0000000000000493
 11
46.9999999999999289
 21
223.000000000000199
 31
-0.0000000000000495
210
0.0
220
1.0
230
-0.0000000000000002
  0
LINE
  5
1CC85
  8
0
  6
VERDECKT
 62
     1
 10
53.9999999999999432
 20
222.000000000000199
 30
-0.0000000000000493
 11
54.9999999999999289
 21
223.000000000000199
 31
-0.0000000000000495
210
0.0
220
1.0
230
-0.0000000000000002
  0
LINE
  5
1CC86
  8
0
  6
VERDECKT
 62
     1
 10
53.9999999999999432
 20
242.000000000000199
 30
-0.0000000000000537
 11
54.9999999999999289
 21
241.000000000000199
 31
-0.0000000000000535
210
0.0
220
1.0
230
-0.0000000000000002
  0
LINE
  5
1CC87
  8
0
  6
VERDECKT
 62
     1
 10
47.9999999999999289
 20
242.000000000000199
 30
-0.0000000000000537
 11
46.9999999999999289
 21
241.000000000000199
 31
-0.0000000000000535
210
0.0
220
1.0
230
-0.0000000000000002
  0
LINE
  5
1CC88
  8
0
  6
VERDECKT
 62
     1
 10
47.9999999999999289
 20
240.000000000000199
 30
-0.0000000000000533
 11
46.9999999999999289
 21
241.000000000000199
 31
-0.0000000000000535
210
0.0
220
1.0
230
-0.0000000000000002
  0
LINE
  5
1CC89
  8
0
  6
VERDECKT
 62
     1
 10
53.9999999999999432
 20
240.000000000000199
 30
-0.0000000000000533
 11
54.9999999999999289
 21
241.000000000000199
 31
-0.0000000000000535
210
0.0
220
1.0
230
-0.0000000000000002
  0
LINE
  5
1CC8A
  8
0
  6
VERDECKT
 62
     1
 10
53.9999999999999432
 20
240.000000000000199
 30
-0.0000000000000533
 11
54.9999999999999289
 21
239.000000000000199
 31
-0.0000000000000531
210
0.0
220
1.0
230
-0.0000000000000002
  0
LINE
  5
1CC8B
  8
0
  6
VERDECKT
 62
     1
 10
47.9999999999999289
 20
240.000000000000199
 30
-0.0000000000000533
 11
46.9999999999999289
 21
239.000000000000199
 31
-0.0000000000000531
210
0.0
220
1.0
230
-0.0000000000000002
  0
LINE
  5
1CC8C
  8
0
  6
VERDECKT
 62
     1
 10
47.9999999999999289
 20
238.000000000000199
 30
-0.0000000000000528
 11
46.9999999999999289
 21
239.000000000000199
 31
-0.0000000000000531
210
0.0
220
1.0
230
-0.0000000000000002
  0
LINE
  5
1CC8D
  8
0
  6
VERDECKT
 62
     1
 10
53.9999999999999432
 20
238.000000000000199
 30
-0.0000000000000528
 11
54.9999999999999289
 21
239.000000000000199
 31
-0.0000000000000531
210
0.0
220
1.0
230
-0.0000000000000002
  0
LINE
  5
1CC8E
  8
0
  6
VERDECKT
 62
     1
 10
53.9999999999999432
 20
238.000000000000199
 30
-0.0000000000000528
 11
54.9999999999999289
 21
237.000000000000199
 31
-0.0000000000000526
210
0.0
220
1.0
230
-0.0000000000000002
  0
LINE
  5
1CC8F
  8
0
  6
VERDECKT
 62
     1
 10
47.9999999999999289
 20
238.000000000000199
 30
-0.0000000000000528
 11
46.9999999999999289
 21
237.000000000000199
 31
-0.0000000000000526
210
0.0
220
1.0
230
-0.0000000000000002
  0
LINE
  5
1CC90
  8
0
  6
VERDECKT
 62
     1
 10
47.9999999999999289
 20
236.000000000000199
 30
-0.0000000000000524
 11
46.9999999999999289
 21
237.000000000000199
 31
-0.0000000000000526
210
0.0
220
1.0
230
-0.0000000000000002
  0
LINE
  5
1CC91
  8
0
  6
VERDECKT
 62
     1
 10
53.9999999999999432
 20
236.000000000000199
 30
-0.0000000000000524
 11
54.9999999999999289
 21
237.000000000000199
 31
-0.0000000000000526
210
0.0
220
1.0
230
-0.0000000000000002
  0
LINE
  5
1CC92
  8
0
  6
VERDECKT
 62
     1
 10
53.9999999999999432
 20
236.000000000000199
 30
-0.0000000000000524
 11
54.9999999999999289
 21
235.000000000000199
 31
-0.0000000000000522
210
0.0
220
1.0
230
-0.0000000000000002
  0
LINE
  5
1CC93
  8
0
  6
VERDECKT
 62
     1
 10
47.9999999999999289
 20
236.000000000000199
 30
-0.0000000000000524
 11
46.9999999999999289
 21
235.000000000000199
 31
-0.0000000000000522
210
0.0
220
1.0
230
-0.0000000000000002
  0
LINE
  5
1CC94
  8
0
  6
VERDECKT
 62
     1
 10
25.0663619842787284
 20
0.0871557427476546
 30
0.0
 11
-25.0663619842787284
 21
0.0871557427476546
 31
0.0
210
0.0
220
1.0
230
-0.0000000000000002
  0
ARC
  5
1CC95
  8
0
  6
VERDECKT
 62
     1
 10
-24.5000000000000888
 20
5.0873218858189571
 30
0.0
 40
1.000000000000028
210
0.0
220
-0.0000000000000002
230
-1.0
 50
179.9999999999994884
 51
184.9999999999976978
  0
ARC
  5
1CC96
  8
0
  6
VERDECKT
 62
     1
 10
24.5000000000000888
 20
5.0873218858189571
 30
0.0
 40
1.000000000000028
210
0.0
220
-0.0000000000000002
230
-1.0
 50
355.0000000000022169
 51
0.0000000000005089
  0
LINE
  5
1CC97
  8
0
  6
VERDECKT
 62
     1
 10
-25.0663619842787284
 20
0.0871557427476542
 30
0.0
 11
-25.496194698091859
 21
5.0001661430713371
 31
-0.0000000000000011
210
0.0
220
1.0
230
-0.0000000000000002
  0
LINE
  5
1CC98
  8
0
  6
VERDECKT
 62
     1
 10
25.0663619842787284
 20
0.0871557427476542
 30
0.0
 11
25.496194698091859
 21
5.0001661430713371
 31
-0.0000000000000011
210
0.0
220
1.0
230
-0.0000000000000002
  0
LINE
  5
1CC99
  8
0
  6
VERDECKT
 62
     1
 10
-25.5000000000001101
 20
5.0873218858189659
 30
-0.0000000000000011
 11
-25.5000000000001101
 21
124.4000000000000057
 31
-0.0000000000000276
210
0.0
220
1.0
230
-0.0000000000000002
  0
LINE
  5
1CC9A
  8
0
  6
VERDECKT
 62
     1
 10
25.5000000000001101
 20
5.0873218858189659
 30
-0.0000000000000011
 11
25.5000000000001101
 21
124.4000000000000057
 31
-0.0000000000000276
210
0.0
220
1.0
230
-0.0000000000000002
  0
LINE
  5
1CC9B
  8
0
  6
VERDECKT
 62
     1
 10
25.0663619842787284
 20
0.0871557427476546
 30
0.0
 11
26.0625566823704311
 21
0.0
 31
0.0
210
0.0
220
1.0
230
-0.0000000000000002
  0
LINE
  5
1CC9C
  8
0
  6
VERDECKT
 62
     1
 10
-25.0663619842787284
 20
0.0871557427476546
 30
0.0
 11
-26.0625566823704311
 21
0.0
 31
0.0
210
0.0
220
1.0
230
-0.0000000000000002
  0
LINE
  5
1CC9D
  8
0
  6
VERDECKT
 62
     1
 10
-25.9542071555385512
 20
127.8063296822032981
 30
-0.0000000000000284
 11
-29.2649600133609695
 21
140.0001052085297033
 31
-0.0000000000000311
210
0.0
220
1.0
230
-0.0000000000000002
  0
LINE
  5
1CC9E
  8
0
  6
VERDECKT
 62
     1
 10
25.9542071555385405
 20
127.8063296822032981
 30
-0.0000000000000284
 11
29.2649600133609695
 21
140.0001052085297033
 31
-0.0000000000000311
210
0.0
220
1.0
230
-0.0000000000000002
  0
ARC
  5
1CC9F
  8
0
  6
VERDECKT
 62
     1
 10
-38.4999999999985789
 20
124.4000000000003041
 30
0.0
 40
12.9999999999984706
210
0.0
220
-0.0000000000000002
230
-1.0
 50
359.9999999999984084
 51
15.1902738547249108
  0
ARC
  5
1CCA0
  8
0
  6
VERDECKT
 62
     1
 10
38.4999999999987779
 20
124.4000000000003041
 30
0.0
 40
12.9999999999986695
210
0.0
220
-0.0000000000000002
230
-1.0
 50
164.8097261452751923
 51
180.0000000000013074
  0
LINE
  5
1CCA1
  8
0
  6
VERDECKT
 62
     1
 10
-29.2828967267211091
 20
140.654091229244699
 30
-0.0000000000000312
 11
29.2828967267208817
 21
140.654091229244699
 31
-0.0000000000000312
210
0.0
220
1.0
230
-0.0000000000000002
  0
LINE
  5
1CCA2
  8
0
  6
VERDECKT
 62
     1
 10
29.2828967267214502
 20
140.6540912292443863
 30
-0.0000000000000312
 11
30.2890290662814898
 21
140.0001052085299023
 31
-0.0000000000000311
210
0.0
220
1.0
230
-0.0000000000000002
  0
LINE
  5
1CCA3
  8
0
  6
VERDECKT
 62
     1
 10
-29.2828967267211091
 20
140.6540912292446137
 30
-0.0000000000000312
 11
-30.2890290662816497
 21
140.0001052085297886
 31
-0.0000000000000311
210
0.0
220
1.0
230
-0.0000000000000002
  0
LINE
  5
1CCA4
  8
0
  6
VERDECKT
 62
     1
 10
-29.2828967267211517
 20
140.654091229244699
 30
-0.0000000000000312
 11
-33.3613233956079611
 21
146.9285937967630105
 31
-0.0000000000000326
210
0.0
220
1.0
230
-0.0000000000000002
  0
LINE
  5
1CCA5
  8
0
  6
VERDECKT
 62
     1
 10
29.2828967267209492
 20
140.654091229244699
 30
-0.0000000000000312
 11
33.3613233956077195
 21
146.9285937967630105
 31
-0.0000000000000326
210
0.0
220
1.0
230
-0.0000000000000002
  0
ARC
  5
1CCA6
  8
0
  6
VERDECKT
 62
     1
 10
23.3000000000016492
 20
153.4684540039071976
 30
0.0
 40
11.9999999999984208
210
0.0
220
-0.0000000000000002
230
-1.0
 50
326.9761324442030741
 51
0.0000000000025826
  0
ARC
  5
1CCA7
  8
0
  6
VERDECKT
 62
     1
 10
-23.3000000000014182
 20
153.4684540039071976
 30
0.0
 40
11.9999999999984208
210
0.0
220
-0.0000000000000002
230
-1.0
 50
179.9999999999974136
 51
213.0238675557968975
  0
LINE
  5
1CCA8
  8
0
  6
VERDECKT
 62
     1
 10
35.2999999999998408
 20
160.0522732492588034
 30
-0.0000000000000355
 11
35.2999999999998408
 21
153.4684540039077945
 31
-0.0000000000000341
210
0.0
220
1.0
230
-0.0000000000000002
  0
LINE
  5
1CCA9
  8
0
  6
VERDECKT
 62
     1
 10
-35.3000000000000682
 20
160.0522732492588034
 30
-0.0000000000000355
 11
-35.3000000000000682
 21
153.4684540039077945
 31
-0.0000000000000341
210
0.0
220
1.0
230
-0.0000000000000002
  0
ARC
  5
1CCAA
  8
0
  6
VERDECKT
 62
     1
 10
46.0999999999981966
 20
160.0522732492590876
 30
0.0
 40
10.7999999999981302
210
0.0
220
-0.0000000000000002
230
-1.0
 50
151.3253430949228004
 51
180.0000000000015064
  0
ARC
  5
1CCAB
  8
0
  6
VERDECKT
 62
     1
 10
-46.0999999999979977
 20
160.0522732492590876
 30
0.0
 40
10.7999999999981604
210
0.0
220
-0.0000000000000002
230
-1.0
 50
359.9999999999982947
 51
28.6746569050769295
  0
ARC
  5
1CCAC
  8
0
  6
VERDECKT
 62
     1
 10
27.4999999999990905
 20
170.2247852300824889
 30
0.0
 40
10.4000000000010004
210
0.0
220
-0.0000000000000002
230
-1.0
 50
331.3253430949250742
 51
359.9999999999990905
  0
ARC
  5
1CCAD
  8
0
  6
VERDECKT
 62
     1
 10
-27.4999999999988596
 20
170.2247852300824889
 30
0.0
 40
10.4000000000010004
210
0.0
220
-0.0000000000000002
230
-1.0
 50
180.0000000000009095
 51
208.6746569050748974
  0
LINE
  5
1CCAE
  8
0
  6
VERDECKT
 62
     1
 10
37.8999999999999773
 20
187.0752641996917021
 30
-0.0000000000000415
 11
37.8999999999999773
 21
170.2247852300822899
 31
-0.0000000000000378
210
0.0
220
1.0
230
-0.0000000000000002
  0
LINE
  5
1CCAF
  8
0
  6
VERDECKT
 62
     1
 10
-37.9000000000001975
 20
187.0752641996917021
 30
-0.0000000000000415
 11
-37.9000000000001975
 21
170.2247852300822899
 31
-0.0000000000000378
210
0.0
220
1.0
230
-0.0000000000000002
  0
ARC
  5
1CCB0
  8
0
  6
VERDECKT
 62
     1
 10
51.1000000000051529
 20
187.0752641996909915
 30
0.0
 40
13.2000000000049393
210
0.0
220
-0.0000000000000002
230
-1.0
 50
158.7004355745964119
 51
179.999999999996902
  0
ARC
  5
1CCB1
  8
0
  6
VERDECKT
 62
     1
 10
-51.1000000000053305
 20
187.0752641996909915
 30
0.0
 40
13.2000000000053408
210
0.0
220
-0.0000000000000002
230
-1.0
 50
0.0000000000033332
 51
21.2995644254032115
  0
ARC
  5
1CCB2
  8
0
  6
VERDECKT
 62
     1
 10
16.9999999999938503
 20
200.3700000000011983
 30
0.0
 40
23.4000000000062407
210
0.0
220
-0.0000000000000002
230
-1.0
 50
338.7004355745946214
 51
359.9999999999973284
  0
ARC
  5
1CCB3
  8
0
  6
VERDECKT
 62
     1
 10
-16.9999999999938289
 20
200.370000000001113
 30
0.0
 40
23.4000000000060311
210
0.0
220
-0.0000000000000002
230
-1.0
 50
180.0000000000025011
 51
201.2995644254054071
  0
LINE
  5
1CCB4
  8
0
  6
VERDECKT
 62
     1
 10
40.4000000000001975
 20
220.0
 30
-0.0000000000000488
 11
40.4000000000001975
 21
200.3700000000000898
 31
-0.0000000000000445
210
0.0
220
1.0
230
-0.0000000000000002
  0
LINE
  5
1CCB5
  8
0
  6
VERDECKT
 62
     1
 10
-40.400000000000432
 20
220.0
 30
-0.0000000000000488
 11
-40.400000000000432
 21
200.3700000000000898
 31
-0.0000000000000445
210
0.0
220
1.0
230
-0.0000000000000002
  0
LINE
  5
1CCB6
  8
0
  6
VERDECKT
 62
     1
 10
-58.5
 20
221.9999999999998863
 30
-0.0000000000000493
 11
58.5
 21
221.9999999999998863
 31
-0.0000000000000493
210
0.0
220
1.0
230
-0.0000000000000002
  0
LINE
  5
1CCB7
  8
0
  6
VERDECKT
 62
     1
 10
37.7999999999999616
 20
222.0
 30
-0.0000000000000493
 11
37.7999999999999616
 21
220.0
 31
-0.0000000000000488
210
0.0
220
1.0
230
-0.0000000000000002
  0
LINE
  5
1CCB8
  8
0
  6
VERDECKT
 62
     1
 10
-37.7999999999999616
 20
222.0
 30
-0.0000000000000493
 11
-37.7999999999999616
 21
220.0
 31
-0.0000000000000488
210
0.0
220
1.0
230
-0.0000000000000002
  0
ARC
  5
1CCB9
  8
0
  6
VERDECKT
 62
     1
 10
58.4999999999996732
 20
226.0000000000005116
 30
0.0
 40
4.00000000000054
210
0.0
220
-0.0000000000000002
230
-1.0
 50
270.0
 51
300.1874540748210052
  0
ARC
  5
1CCBA
  8
0
  6
VERDECKT
 62
     1
 10
-58.4999999999996732
 20
226.0000000000005116
 30
0.0
 40
4.0000000000005391
210
0.0
220
-0.0000000000000002
230
-1.0
 50
239.8125459251758969
 51
269.9999999999968736
  0
LINE
  5
1CCBB
  8
0
  6
VERDECKT
 62
     1
 10
-60.5113227452212428
 20
222.5424602945801951
 30
-0.0000000000000494
 11
-98.3867725477864354
 21
244.5753970541991009
 31
-0.0000000000000543
210
0.0
220
1.0
230
-0.0000000000000002
  0
LINE
  5
1CCBC
  8
0
  6
VERDECKT
 62
     1
 10
60.5113227452212428
 20
222.5424602945801951
 30
-0.0000000000000494
 11
98.3867725477864354
 21
244.5753970541991009
 31
-0.0000000000000543
210
0.0
220
1.0
230
-0.0000000000000002
  0
ARC
  5
1CCBD
  8
0
  6
VERDECKT
 62
     1
 10
118.4999999999999005
 20
209.9999999999994884
 30
0.0
 40
40.0000000000004192
210
0.0
220
-0.0000000000000002
230
-1.0
 50
90.0000000000004405
 51
120.1874540748242026
  0
ARC
  5
1CCBE
  8
0
  6
VERDECKT
 62
     1
 10
-118.4999999999999005
 20
209.9999999999994884
 30
0.0
 40
40.0000000000004192
210
0.0
220
-0.0000000000000002
230
-1.0
 50
59.8125459251757832
 51
89.9999999999995737
  0
ENDBLK
  5
1CCC0
  8
0
  0
BLOCK
  8
0
  2
A$CBB3262B8
 70
     0
 10
0.0
 20
0.0
 30
0.0
  3
A$CBB3262B8
  1

  0
CIRCLE
  5
1CCC4
  8
0
  6
CONTINUOUS
 62
     3
 10
0.0000000000000569
 20
50.9999999999999716
 30
0.0
 40
3.0
  0
CIRCLE
  5
1CCC5
  8
0
  6
CONTINUOUS
 62
     3
 10
0.0000000000000566
 20
50.9999999999999716
 30
0.0
 40
4.0
  0
CIRCLE
  5
1CCC6
  8
0
  6
CONTINUOUS
 62
     3
 10
-50.9999999999998792
 20
0.0000000000000442
 30
0.0
 40
3.0
  0
CIRCLE
  5
1CCC7
  8
0
  6
CONTINUOUS
 62
     3
 10
-50.9999999999998792
 20
0.0000000000000442
 30
0.0
 40
4.0
  0
CIRCLE
  5
1CCC8
  8
0
  6
CONTINUOUS
 62
     3
 10
0.0000000000000444
 20
-50.9999999999999005
 30
0.0
 40
3.0
  0
CIRCLE
  5
1CCC9
  8
0
  6
CONTINUOUS
 62
     3
 10
0.0000000000000441
 20
-50.9999999999999005
 30
0.0
 40
4.0
  0
CIRCLE
  5
1CCCA
  8
0
  6
CONTINUOUS
 62
     3
 10
50.9999999999999929
 20
0.000000000000038
 30
0.0
 40
3.0
  0
CIRCLE
  5
1CCCB
  8
0
  6
CONTINUOUS
 62
     3
 10
50.9999999999999929
 20
0.000000000000038
 30
0.0
 40
4.0
  0
CIRCLE
  5
1CCCC
  8
0
  6
CONTINUOUS
 62
     3
 10
0.0
 20
-0.0000000000000051
 30
0.0
 40
25.0663619842787284
  0
CIRCLE
  5
1CCCD
  8
0
  6
CONTINUOUS
 62
     3
 10
0.0000000000000276
 20
0.0000000000000134
 30
0.0
 40
25.5000000000001101
  0
CIRCLE
  5
1CCCE
  8
0
  6
CONTINUOUS
 62
     3
 10
0.0000000000000311
 20
0.0000000000000143
 30
0.0
 40
29.2649600133610193
  0
CIRCLE
  5
1CCCF
  8
0
  6
CONTINUOUS
 62
     3
 10
-0.0000000000000825
 20
0.0000000000000143
 30
0.0
 40
29.2828967267210309
  0
CIRCLE
  5
1CCD0
  8
0
  6
CONTINUOUS
 62
     3
 10
-0.0000000000000781
 20
0.0000000000000155
 30
0.0
 40
35.2999999999999616
  0
CIRCLE
  5
1CCD1
  8
0
  6
CONTINUOUS
 62
     3
 10
0.0000000000000555
 20
0.000000000000038
 30
0.0
 40
146.0
  0
CIRCLE
  5
1CCD2
  8
0
  6
CONTINUOUS
 62
     3
 10
0.0000000000000493
 20
0.0000000000000363
 30
0.0
 40
37.7999999999999616
  0
CIRCLE
  5
1CCD3
  8
0
  6
VERDECKT
 62
     1
 10
0.0
 20
-0.0000000000000051
 30
0.0
 40
26.0625566823704311
  0
CIRCLE
  5
1CCD4
  8
0
  6
VERDECKT
 62
     1
 10
0.0000000000000276
 20
0.0000000000000134
 30
0.0
 40
26.5000000000001101
  0
CIRCLE
  5
1CCD5
  8
0
  6
VERDECKT
 62
     1
 10
0.0000000000000311
 20
0.0000000000000143
 30
0.0
 40
30.2890290662816106
  0
CIRCLE
  5
1CCD6
  8
0
  6
VERDECKT
 62
     1
 10
-0.0000000000000826
 20
0.0000000000000143
 30
0.0
 40
30.2890290662815005
  0
CIRCLE
  5
1CCD7
  8
0
  6
VERDECKT
 62
     1
 10
-0.0000000000000648
 20
-0.0000000000000144
 30
0.0
 40
40.4000000000005528
  0
CIRCLE
  5
1CCD8
  8
0
  6
VERDECKT
 62
     1
 10
-0.0000000000000648
 20
0.0000000000000014
 30
0.0
 40
41.6000000000000227
  0
CIRCLE
  5
1CCD9
  8
0
  6
VERDECKT
 62
     1
 10
-0.0000000000000721
 20
0.0000000000000172
 30
0.0
 40
39.1000000000000227
  0
CIRCLE
  5
1CCDA
  8
0
  6
VERDECKT
 62
     1
 10
-0.0000000000000781
 20
0.0000000000000155
 30
0.0
 40
36.5000000000003411
  0
CIRCLE
  5
1CCDB
  8
0
  6
VERDECKT
 62
     1
 10
-0.0000000000000721
 20
0.0000000000000172
 30
0.0
 40
37.9000000000000909
  0
ENDBLK
  5
1CCDD
  8
0
  0
ENDSEC
  0
SECTION
  2
ENTITIES
  0
INSERT
  5
D70
  8
ADSK_ASSOC_ENTITY_BACKUPS
  2
*S0
 10
0.0
 20
0.0
 30
0.0
  0
INSERT
  5
1CCC1
  8
STEMPEL
  2
A$C13835116
 10
0.0
 20
0.0
 30
0.0
  0
INSERT
  5
1CCDE
  8
STEMPEL
  2
A$CBB3262B8
 10
0.0
 20
-200.0
 30
0.0
  0
VIEWPORT
  5
D51
 67
     1
  8
0
 10
148.2552508025559916
 20
209.7498348217013131
 30
0.0
 40
795.6883637233959234
 41
422.1649484536083037
 68
     1
 69
     1
1001
ACAD
1000
MVIEW
1002
{
1070
    16
1010
0.0
1020
0.0
1030
0.0
1010
0.0
1020
0.0
1030
1.0
1040
0.0
1040
422.1649484536083037
1040
148.2552508025559916
1040
209.7498348217013131
1040
50.0
1040
0.0
1040
0.0
1070
     0
1070
  1500
1070
     1
1070
     1
1070
     0
1070
     0
1070
     0
1070
     1
1040
0.0
1040
0.0
1040
0.0
1040
10.0
1040
10.0
1040
10.0
1040
10.0
1070
     0
1002
{
1002
}
1002
}
  0
ENDSEC
  0
EOF
