  0
SECTION
  2
HEADER
  9
$ACADVER
  1
AC1009
  9
$INSBASE
 10
0.0
 20
0.0
 30
0.0
  9
$EXTMIN
 10
841.1472699532450861
 20
-159.5873419134991025
 30
-84.0472445720567407
  9
$EXTMAX
 10
1141.1472699532450861
 20
347.3536325223240055
 30
-84.0472445720566554
  9
$LIMMIN
 10
0.0
 20
0.0
  9
$LIMMAX
 10
210.0
 20
297.0
  9
$ORTHOMODE
 70
     1
  9
$REGENMODE
 70
     1
  9
$FILLMODE
 70
     1
  9
$QTEXTMODE
 70
     0
  9
$MIRRTEXT
 70
     1
  9
$DRAGMODE
 70
     2
  9
$LTSCALE
 40
10.0
  9
$OSMODE
 70
  2495
  9
$ATTMODE
 70
     1
  9
$TEXTSIZE
 40
3.5
  9
$TRACEWID
 40
0.5
  9
$TEXTSTYLE
  7
STANDARD
  9
$CLAYER
  8
STEMPEL
  9
$CELTYPE
  6
BYLAYER
  9
$CECOLOR
 62
   256
  9
$DIMSCALE
 40
1.0
  9
$DIMASZ
 40
3.5
  9
$DIMEXO
 40
1.0
  9
$DIMDLI
 40
0.38
  9
$DIMRND
 40
0.0
  9
$DIMDLE
 40
0.0
  9
$DIMEXE
 40
1.0
  9
$DIMTP
 40
0.0
  9
$DIMTM
 40
0.000000001
  9
$DIMTXT
 40
3.5
  9
$DIMCEN
 40
0.09
  9
$DIMTSZ
 40
0.0
  9
$DIMTOL
 70
     0
  9
$DIMLIM
 70
     0
  9
$DIMTIH
 70
     0
  9
$DIMTOH
 70
     0
  9
$DIMSE1
 70
     0
  9
$DIMSE2
 70
     0
  9
$DIMTAD
 70
     1
  9
$DIMZIN
 70
     8
  9
$DIMBLK
  1

  9
$DIMASO
 70
     1
  9
$DIMSHO
 70
     0
  9
$DIMPOST
  1

  9
$DIMAPOST
  1

  9
$DIMALT
 70
     0
  9
$DIMALTD
 70
     2
  9
$DIMALTF
 40
25.3999999999999986
  9
$DIMLFAC
 40
2.0
  9
$DIMTOFL
 70
     1
  9
$DIMTVP
 40
0.0
  9
$DIMTIX
 70
     0
  9
$DIMSOXD
 70
     0
  9
$DIMSAH
 70
     0
  9
$DIMBLK1
  1

  9
$DIMBLK2
  1

  9
$DIMSTYLE
  2
LORO
  9
$DIMCLRD
 70
     0
  9
$DIMCLRE
 70
     0
  9
$DIMCLRT
 70
     1
  9
$DIMTFAC
 40
0.5
  9
$DIMGAP
 40
1.5
  9
$LUNITS
 70
     2
  9
$LUPREC
 70
     2
  9
$SKETCHINC
 40
1.0
  9
$FILLETRAD
 40
14.5
  9
$AUNITS
 70
     0
  9
$AUPREC
 70
     0
  9
$MENU
  1
ACAD
  9
$ELEVATION
 40
0.0
  9
$PELEVATION
 40
0.0
  9
$THICKNESS
 40
0.0
  9
$LIMCHECK
 70
     0
  9
$BLIPMODE
 70
     0
  9
$CHAMFERA
 40
0.0
  9
$CHAMFERB
 40
0.0
  9
$SKPOLY
 70
     0
  9
$TDCREATE
 40
2455397.8646990740671754
  9
$TDUPDATE
 40
2459677.6100115738809109
  9
$TDINDWG
 40
0.3898999074
  9
$TDUSRTIMER
 40
0.3898999074
  9
$USRTIMER
 70
     1
  9
$ANGBASE
 50
0.0
  9
$ANGDIR
 70
     0
  9
$PDMODE
 70
     0
  9
$PDSIZE
 40
0.0
  9
$PLINEWID
 40
0.0
  9
$COORDS
 70
     1
  9
$SPLFRAME
 70
     0
  9
$SPLINETYPE
 70
     6
  9
$SPLINESEGS
 70
     8
  9
$ATTDIA
 70
     1
  9
$ATTREQ
 70
     1
  9
$HANDLING
 70
     1
  9
$HANDSEED
  5
3914
  9
$SURFTAB1
 70
     6
  9
$SURFTAB2
 70
     6
  9
$SURFTYPE
 70
     6
  9
$SURFU
 70
     6
  9
$SURFV
 70
     6
  9
$UCSNAME
  2

  9
$UCSORG
 10
0.0
 20
0.0
 30
0.0
  9
$UCSXDIR
 10
1.0
 20
0.0
 30
0.0
  9
$UCSYDIR
 10
0.0
 20
1.0
 30
0.0
  9
$PUCSNAME
  2

  9
$PUCSORG
 10
0.0
 20
0.0
 30
0.0
  9
$PUCSXDIR
 10
1.0
 20
0.0
 30
0.0
  9
$PUCSYDIR
 10
0.0
 20
1.0
 30
0.0
  9
$USERI1
 70
     0
  9
$USERI2
 70
     0
  9
$USERI3
 70
     0
  9
$USERI4
 70
     0
  9
$USERI5
 70
     0
  9
$USERR1
 40
0.0
  9
$USERR2
 40
0.0
  9
$USERR3
 40
0.0
  9
$USERR4
 40
0.0
  9
$USERR5
 40
0.0
  9
$WORLDVIEW
 70
     1
  9
$SHADEDGE
 70
     3
  9
$SHADEDIF
 70
    70
  9
$TILEMODE
 70
     1
  9
$MAXACTVP
 70
    16
  9
$PLIMCHECK
 70
     0
  9
$PEXTMIN
 10
1.0000000000000000E+20
 20
1.0000000000000000E+20
 30
1.0000000000000000E+20
  9
$PEXTMAX
 10
-1.0000000000000000E+20
 20
-1.0000000000000000E+20
 30
-1.0000000000000000E+20
  9
$PLIMMIN
 10
-7.0977952752576812
 20
-4.370313970670149
  9
$PLIMMAX
 10
289.9022047247423188
 20
415.6296860293297755
  9
$UNITMODE
 70
     0
  9
$VISRETAIN
 70
     0
  9
$PLINEGEN
 70
     0
  9
$PSLTSCALE
 70
     0
  0
ENDSEC
  0
SECTION
  2
TABLES
  0
TABLE
  2
VPORT
 70
     1
  0
VPORT
  2
*ACTIVE
 70
     0
 10
0.0
 20
0.0
 11
1.0
 21
1.0
 12
2.507527694172893
 22
-151.0950719587679885
 13
0.0
 23
0.0
 14
1.0
 24
1.0
 15
10.0
 25
10.0
 16
-0.0000000000002274
 26
0.0
 36
1084.225508179830058
 17
988.6397422590722499
 27
244.9782172631805111
 37
-42.0236222860282922
 40
510.5662972565799009
 41
1.7852028639618129
 42
50.0
 43
0.0
 44
0.0
 50
0.0
 51
0.0
 71
     0
 72
  1500
 73
     1
 74
     0
 75
     0
 76
     0
 77
     0
 78
     0
  0
ENDTAB
  0
TABLE
  2
LTYPE
 70
     6
  0
LTYPE
  2
CONTINUOUS
 70
     0
  3
Solid line
 72
    65
 73
     0
 40
0.0
  0
LTYPE
  2
STRICHPUNKT
 70
     0
  3
__ . __ . __ . __ . __ . __ . __ . __ . __ . __
 72
    65
 73
     4
 40
1.0
 49
0.5
 49
-0.25
 49
0.0
 49
-0.25
  0
LTYPE
  2
VERDECKT
 70
     0
  3
Verdeckt __ __ __ __ __ __ __ __ __ __ __ __ __
 72
    65
 73
     2
 40
0.375
 49
0.25
 49
-0.125
  0
ENDTAB
  0
TABLE
  2
LAYER
 70
    14
  0
LAYER
  2
0
 70
     0
 62
     7
  6
CONTINUOUS
  0
LAYER
  2
VOLL
 70
     0
 62
     1
  6
CONTINUOUS
  0
LAYER
  2
BEM
 70
     0
 62
     7
  6
CONTINUOUS
  0
LAYER
  2
STEMPEL
 70
     0
 62
     3
  6
CONTINUOUS
  0
LAYER
  2
DEFPOINTS
 70
     0
 62
     7
  6
CONTINUOUS
  0
LAYER
  2
ADSK_ASSOC_ENTITY_BACKUPS
 70
     1
 62
    -7
  6
CONTINUOUS
  0
ENDTAB
  0
TABLE
  2
STYLE
 70
     6
  0
STYLE
  2
STANDARD
 70
     0
 40
0.0
 41
0.8
 50
0.0
 71
     0
 42
3.5
  3
simplex.shx
  4

  0
STYLE
  2
GREEKS
 70
     0
 40
0.0
 41
0.8
 50
0.0
 71
     0
 42
2.5
  3
SIMPLEX.shx
  4

  0
ENDTAB
  0
TABLE
  2
VIEW
 70
     1
  0
ENDTAB
  0
TABLE
  2
UCS
 70
     0
  0
ENDTAB
  0
TABLE
  2
APPID
 70
    25
  0
APPID
  2
ACAD
 70
     0
  0
APPID
  2
ACAD_NAV_VCDISPLAY
 70
     0
  0
APPID
  2
ACAD_MLEADERVER
 70
     0
  0
APPID
  2
ACAD_EXEMPT_FROM_CAD_STANDARDS
 70
     0
  0
APPID
  2
ACAD_PSEXT
 70
     0
  0
APPID
  2
ACAECLAYERSTANDARD
 70
     0
  0
APPID
  2
ACAUTHENVIRON
 70
     0
  0
APPID
  2
ACCMTRANSPARENCY
 70
     0
  0
APPID
  2
ACAD_STEPID
 70
     0
  0
APPID
  2
ACSYNERGY
 70
     0
  0
APPID
  2
SYNERGY_BODY_TBR_ID
 70
     0
  0
APPID
  2
ACAD_VIEW_EDGE_ID
 70
     0
  0
APPID
  2
ACSYNERGYSKETCH
 70
     0
  0
APPID
  2
ACAD_MODELDOC_XFORM
 70
     0
  0
APPID
  2
ACAD_DSTYLE_DIMJAG
 70
     0
  0
APPID
  2
ACAD_DSTYLE_DIMTALN
 70
     0
  0
APPID
  2
ACADANNOMONITORALERTICONDI
 70
     0
  0
APPID
  2
ACAD_DIMASSOC_CALC_DIMLFAC
 70
     0
  0
APPID
  2
ACAD_DIMASSOC_DIMLFAC
 70
     0
  0
APPID
  2
ACAD_DIMASSOC_OVERRIDDEN_D
 70
     0
  0
APPID
  2
ACAD_DSTYLE_DIMRADIAL_EXTENSION
 70
     0
  0
APPID
  2
ACDBDYNAMICBLOCKGUID
 70
     0
  0
APPID
  2
ACADANNOPO
 70
     0
  0
APPID
  2
ACAD_DSTYLE_DIMBREAK
 70
     0
  0
APPID
  2
AcDbAttr
 70
     0
  0
ENDTAB
  0
TABLE
  2
DIMSTYLE
 70
     3
  0
DIMSTYLE
  2
STANDARD
 70
     0
  3

  4

  5

  6

  7

 40
1.0
 41
0.18
 42
0.0625
 43
0.38
 44
0.18
 45
0.0
 46
0.0
 47
0.0
 48
0.0
140
0.18
141
0.09
142
0.0
143
25.3999999999999986
144
1.0
145
0.0
146
1.0
147
0.09
 71
     0
 72
     0
 73
     1
 74
     1
 75
     0
 76
     0
 77
     0
 78
     0
170
     0
171
     2
172
     0
173
     0
174
     0
175
     0
176
     0
177
     0
178
     0
  0
DIMSTYLE
  2
LORO
 70
     0
  3

  4

  5

  6

  7

 40
1.0
 41
3.5
 42
1.0
 43
0.38
 44
1.0
 45
0.0
 46
0.0
 47
0.0
 48
0.000000001
140
3.5
141
0.09
142
0.0
143
25.3999999999999986
144
2.0
145
0.0
146
0.5
147
1.5
 71
     0
 72
     0
 73
     0
 74
     0
 75
     0
 76
     0
 77
     1
 78
     8
170
     0
171
     2
172
     1
173
     0
174
     0
175
     0
176
     0
177
     0
178
     1
  0
ENDTAB
  0
ENDSEC
  0
SECTION
  2
BLOCKS
  0
BLOCK
  8
0
  2
$MODEL_SPACE
 70
     0
 10
0.0
 20
0.0
 30
0.0
  3
$MODEL_SPACE
  1

  0
ENDBLK
  5
36
  8
0
  0
BLOCK
 67
     1
  8
0
  2
$PAPER_SPACE
 70
     0
 10
0.0
 20
0.0
 30
0.0
  3
$PAPER_SPACE
  1

  0
ENDBLK
  5
34
 67
     1
  8
0
  0
BLOCK
  8
0
  2
*S0
 70
     1
 10
0.0
 20
0.0
 30
0.0
  3
*S0
  1

  0
ENDBLK
  5
C0A
  8
0
  0
BLOCK
  8
0
  2
_NONE
 70
     0
 10
0.0
 20
0.0
 30
0.0
  3
_NONE
  1

  0
ENDBLK
  5
22B9
  8
0
  0
BLOCK
  8
0
  2
A$C926C8567
 70
     0
 10
0.0
 20
0.0
 30
0.0
  3
A$C926C8567
  1

  0
CIRCLE
  5
3843
  8
0
 10
501.581949476303123
 20
305.3109683055504888
 30
0.0000000000001279
 40
57.5
  0
LINE
  5
3844
  8
0
 10
414.5819494763027819
 20
396.3109683055503183
 30
0.0000000000001137
 11
414.5819494763027819
 21
392.3109683055503183
 31
0.0000000000001137
  0
LINE
  5
3845
  8
0
 10
588.5819494763028388
 20
392.3109683055504888
 30
0.0000000000001421
 11
588.5819494763028388
 21
396.3109683055504888
 31
0.0000000000001421
  0
LINE
  5
3846
  8
0
 10
588.581949476302384
 20
214.3109683055504888
 30
0.0000000000001421
 11
588.581949476302384
 21
218.3109683055502899
 31
0.0000000000001421
  0
LINE
  5
3847
  8
0
 10
418.5819494763030093
 20
388.3109683055502046
 30
0.0000000000001137
 11
414.5819494763030093
 21
392.3109683055503183
 31
0.0000000000001137
  0
LINE
  5
3848
  8
0
 10
588.5819494763030661
 20
392.3109683055503183
 30
0.0000000000001421
 11
584.5819494763030661
 21
388.3109683055502046
 31
0.0000000000001421
  0
LINE
  5
3849
  8
0
 10
414.581949476302384
 20
218.3109683055504888
 30
0.0000000000001137
 11
414.5819494763023272
 21
214.3109683055504888
 31
0.0000000000001137
  0
LINE
  5
384A
  8
0
 10
414.5819494763030093
 20
218.3109683055502899
 30
0.0000000000001137
 11
418.5819494763028956
 21
222.3109683055502899
 31
0.0000000000001137
  0
LINE
  5
384B
  8
0
 10
584.5819494763030661
 20
222.3109683055502899
 30
0.0000000000001421
 11
588.5819494763030661
 21
218.3109683055502899
 31
0.0000000000001421
  0
LINE
  5
384C
  8
0
 10
588.5819494763024977
 20
218.3109683055502899
 30
0.0000000000001421
 11
414.5819494763027251
 21
218.3109683055502899
 31
0.0000000000001074
  0
LINE
  5
384D
  8
0
 10
414.5819494763027819
 20
392.3109683055503183
 30
0.0000000000001137
 11
588.5819494763028388
 21
392.3109683055503751
 31
0.0000000000001484
  0
LINE
  5
384E
  8
0
 10
588.5819494763028388
 20
396.3109683055504888
 30
0.0000000000001421
 11
414.5819494763027819
 21
396.3109683055503183
 31
0.0000000000001074
  0
LINE
  5
384F
  8
0
 10
414.5819494763023272
 20
214.3109683055504888
 30
0.0000000000001137
 11
588.581949476302384
 21
214.3109683055504036
 31
0.0000000000001484
  0
LINE
  5
3850
  8
0
 10
588.5819494763030661
 20
218.3109683055504888
 30
0.0000000000001421
 11
592.5819494763030661
 21
218.3109683055504888
 31
0.0000000000001429
  0
LINE
  5
3851
  8
0
 10
410.5819494763030093
 20
218.3109683055508867
 30
0.0000000000001137
 11
414.5819494763030093
 21
218.3109683055508867
 31
0.0000000000001145
  0
LINE
  5
3852
  8
0
 10
592.5819494763030661
 20
392.3109683055504888
 30
0.0000000000001421
 11
588.5819494763030661
 21
392.3109683055504888
 31
0.0000000000001413
  0
LINE
  5
3853
  8
0
 10
414.5819494763030093
 20
392.3109683055510004
 30
0.0000000000001137
 11
410.581949476303123
 21
392.3109683055510004
 31
0.0000000000001129
  0
LINE
  5
3854
  8
0
 10
414.5819494763030093
 20
218.3109683055504888
 30
0.0000000000001137
 11
414.5819494763030093
 21
392.3109683055504888
 31
0.0000000000001137
  0
LINE
  5
3855
  8
0
 10
588.5819494763030661
 20
392.3109683055504888
 30
0.0000000000001421
 11
588.5819494763031798
 21
218.3109683055504888
 31
0.0000000000001421
  0
LINE
  5
3856
  8
0
 10
592.5819494763030661
 20
218.3109683055504888
 30
0.0000000000001421
 11
592.5819494763029525
 21
392.3109683055504888
 31
0.0000000000001421
  0
LINE
  5
3857
  8
0
 10
410.581949476303123
 20
392.3109683055510004
 30
0.0000000000001137
 11
410.581949476303123
 21
218.3109683055508867
 31
0.0000000000001137
  0
LINE
  5
3858
  8
0
 10
409.5819494763020998
 20
213.3109683055500057
 30
0.0000000000001137
 11
593.5819494763021567
 21
213.3109683055500057
 31
0.0000000000001504
  0
LINE
  5
3859
  8
0
 10
593.5819494763021567
 20
213.3109683055500057
 30
0.0000000000001421
 11
593.5819494763021567
 21
397.3109683055502046
 31
0.0000000000001421
  0
LINE
  5
385A
  8
0
 10
409.5819494763020998
 20
397.3109683055500909
 30
0.0000000000001137
 11
409.5819494763020998
 21
213.3109683055500057
 31
0.0000000000001137
  0
LINE
  5
385B
  8
0
 10
593.5819494763021567
 20
397.3109683055502046
 30
0.0000000000001421
 11
409.5819494763020998
 21
397.3109683055500909
 31
0.0000000000001054
  0
LINE
  5
385C
  8
0
 10
651.5819494763021567
 20
155.3109683055502046
 30
0.0000000000001563
 11
651.5819494763021567
 21
455.3109683055502046
 31
0.0000000000001563
  0
LINE
  5
385D
  8
0
 10
351.5819494763022135
 20
155.3109683055500057
 30
0.0000000000000995
 11
651.5819494763021567
 21
155.3109683055502046
 31
0.0000000000001593
  0
LINE
  5
385E
  8
0
 10
351.5819494763022135
 20
455.3109683055502046
 30
0.0000000000000995
 11
351.5819494763022135
 21
155.3109683055500057
 31
0.0000000000000995
  0
LINE
  5
385F
  8
0
 10
651.5819494763021567
 20
455.3109683055502046
 30
0.0000000000001563
 11
351.5819494763022135
 21
455.3109683055502046
 31
0.0000000000000965
  0
CIRCLE
  5
3860
  8
0
  6
VERDECKT
 62
     1
 10
501.581949476303123
 20
305.3109683055503183
 30
0.0000000000001279
 40
63.1441762133697466
  0
CIRCLE
  5
3861
  8
0
  6
VERDECKT
 62
     1
 10
501.581949476303123
 20
305.3109683055503183
 30
0.0000000000001279
 40
65.634662958599165
  0
CIRCLE
  5
3862
  8
0
  6
VERDECKT
 62
     1
 10
501.581949476303123
 20
305.3109683055503183
 30
0.0000000000001279
 40
66.5000000000000426
  0
CIRCLE
  5
3863
  8
0
  6
VERDECKT
 62
     1
 10
501.581949476303123
 20
305.3109683055503183
 30
0.0000000000001279
 40
60.2246304540453181
  0
CIRCLE
  5
3864
  8
0
  6
VERDECKT
 62
     1
 10
501.581949476303123
 20
305.3109683055503183
 30
0.0000000000001279
 40
57.9307413907705424
  0
CIRCLE
  5
3865
  8
0
  6
VERDECKT
 62
     1
 10
501.581949476303123
 20
305.3109683055503183
 30
0.0000000000001279
 40
64.0000000000000568
  0
ENDBLK
  5
3867
  8
0
  0
BLOCK
  8
0
  2
A$C0E16C77D
 70
     0
 10
0.0
 20
0.0
 30
0.0
  3
A$C0E16C77D
  1

  0
LINE
  5
386B
  8
0
 10
705.0456714982406083
 20
-73.9999999999999432
 30
0.0000000000000164
 11
573.7763455810421647
 21
-73.9999999999999432
 31
0.0000000000000164
210
0.0
220
1.0
230
-0.0000000000000002
  0
LINE
  5
386C
  8
0
 10
581.8033133850545937
 20
46.0000000000000568
 30
-0.0000000000000102
 11
579.1863780855959476
 21
46.0000000000000568
 31
-0.0000000000000102
210
0.0
220
1.0
230
-0.0000000000000002
  0
LINE
  5
386D
  8
0
 10
656.9711785929919188
 20
46.0000000000000568
 30
-0.0000000000000102
 11
621.8508384862911953
 21
46.0000000000000568
 31
-0.0000000000000102
210
0.0
220
1.0
230
-0.0000000000000002
  0
LINE
  5
386E
  8
0
 10
699.6356389936867117
 20
46.0000000000000568
 30
-0.0000000000000102
 11
697.0187036942281793
 21
46.0000000000000568
 31
-0.0000000000000102
210
0.0
220
1.0
230
-0.0000000000000002
  0
LINE
  5
386F
  8
0
 10
573.776345581042051
 20
-73.9999999999999432
 30
0.0000000000000164
 11
572.9661854173109532
 21
-64.7398269549381808
 31
0.0000000000000144
210
0.0
220
1.0
230
-0.0000000000000002
  0
LINE
  5
3870
  8
0
 10
705.045671498240722
 20
-73.9999999999999432
 30
0.0000000000000164
 11
705.8558316619719335
 21
-64.7398269549381808
 31
0.0000000000000144
210
0.0
220
1.0
230
-0.0000000000000002
  0
ARC
  5
3871
  8
0
 10
-691.4110085396536078
 20
-63.4760686850984186
 30
0.0
 40
14.4999999999878302
210
0.0
220
-0.0000000000000002
230
-1.0
 50
179.9999999999951115
 51
184.9999999999990052
  0
ARC
  5
3872
  8
0
 10
-587.4110085396291652
 20
-63.4760686850984186
 30
0.0
 40
14.4999999999878302
210
0.0
220
-0.0000000000000002
230
-1.0
 50
355.0000000000009095
 51
0.0000000000048853
  0
LINE
  5
3873
  8
0
 10
572.9110085396414433
 20
-63.4760686850971894
 30
0.0000000000000141
 11
572.9110085396414433
 21
28.5117857398059407
 31
-0.0000000000000063
210
0.0
220
1.0
230
-0.0000000000000002
  0
LINE
  5
3874
  8
0
 10
705.9110085396414433
 20
-63.4760686850971894
 30
0.0000000000000141
 11
705.9110085396414433
 21
28.5117857398059407
 31
-0.0000000000000063
210
0.0
220
1.0
230
-0.0000000000000002
  0
ARC
  5
3875
  8
0
 10
-691.4110085396423528
 20
28.5117857398060401
 30
0.0
 40
14.4999999999992095
210
0.0
220
-0.0000000000000002
230
-1.0
 50
156.5713071912543057
 51
180.0000000000003979
  0
ARC
  5
3876
  8
0
 10
-587.4110085396405339
 20
28.5117857398060401
 30
0.0
 40
14.4999999999992006
210
0.0
220
-0.0000000000000002
230
-1.0
 50
0.0
 51
23.428692808746149
  0
LINE
  5
3877
  8
0
 10
699.6356389936868254
 20
46.0000000000000497
 30
-0.0000000000000102
 11
704.7155651066353812
 21
34.2770935855031667
 31
-0.0000000000000076
210
0.0
220
1.0
230
-0.0000000000000002
  0
LINE
  5
3878
  8
0
 10
579.1863780855959476
 20
46.0000000000000497
 30
-0.0000000000000102
 11
574.1064519726473918
 21
34.2770935855031667
 31
-0.0000000000000076
210
0.0
220
1.0
230
-0.0000000000000002
  0
ARC
  5
3879
  8
0
 10
-722.4110085396414433
 20
68.0000000000001847
 30
0.0
 40
8.0000000000000018
210
0.0
220
-0.0000000000000002
230
-1.0
 50
240.0000000000023022
 51
270.0
  0
ARC
  5
387A
  8
0
 10
-722.4110085396414433
 20
68.0000000000000711
 30
0.0
 40
8.0000000000000568
210
0.0
220
-0.0000000000000002
230
-1.0
 50
180.0
 51
240.0000000000019043
  0
ARC
  5
387B
  8
0
 10
-556.4110085396414433
 20
68.0000000000001847
 30
0.0
 40
8.0000000000000018
210
0.0
220
-0.0000000000000002
230
-1.0
 50
270.0
 51
300.0000000000022169
  0
ARC
  5
387C
  8
0
 10
-556.4110085396414433
 20
68.0000000000000711
 30
0.0
 40
7.9999999999999938
210
0.0
220
-0.0000000000000002
230
-1.0
 50
300.0000000000038085
 51
0.0000000000000572
  0
LINE
  5
387D
  8
0
 10
726.411008539641216
 20
68.0000000000001847
 30
-0.0000000000000151
 11
726.411008539641216
 21
61.071796769724493
 31
-0.0000000000000136
210
0.0
220
1.0
230
-0.0000000000000002
  0
LINE
  5
387E
  8
0
 10
552.4110085396409886
 20
61.071796769724628
 30
-0.0000000000000136
 11
552.4110085396413297
 21
68.0000000000001847
 31
-0.0000000000000151
210
0.0
220
1.0
230
-0.0000000000000002
  0
LINE
  5
387F
  8
0
 10
722.4110085396414433
 20
60.0000000000000711
 30
-0.0000000000000133
 11
556.4110085396414433
 21
60.0000000000000711
 31
-0.0000000000000133
210
0.0
220
1.0
230
-0.0000000000000002
  0
LINE
  5
3880
  8
0
 10
726.411008539641216
 20
68.0000000000001847
 30
-0.0000000000000151
 11
726.411008539641216
 21
84.0000000000001847
 31
-0.0000000000000187
210
0.0
220
1.0
230
-0.0000000000000002
  0
LINE
  5
3881
  8
0
 10
726.411008539641216
 20
89.0000000000001847
 30
-0.0000000000000198
 11
726.411008539641216
 21
99.0000000000001847
 31
-0.000000000000022
210
0.0
220
1.0
230
-0.0000000000000002
  0
LINE
  5
3882
  8
0
 10
552.4110085396406475
 20
68.0000000000001847
 30
-0.0000000000000151
 11
552.4110085396406475
 21
84.0000000000001847
 31
-0.0000000000000187
210
0.0
220
1.0
230
-0.0000000000000002
  0
LINE
  5
3883
  8
0
 10
552.4110085396406475
 20
89.0000000000001847
 30
-0.0000000000000198
 11
552.4110085396406475
 21
99.0000000000001847
 31
-0.000000000000022
210
0.0
220
1.0
230
-0.0000000000000002
  0
LINE
  5
3884
  8
0
 10
552.4110085396406475
 20
99.0000000000001847
 30
-0.000000000000022
 11
726.4110085396406475
 21
99.0000000000001847
 31
-0.000000000000022
210
0.0
220
1.0
230
-0.0000000000000002
  0
LINE
  5
3885
  8
0
 10
730.4110085396414433
 20
68.0000000000000711
 30
-0.0000000000000151
 11
730.4110085396414433
 21
84.0000000000001847
 31
-0.0000000000000187
210
0.0
220
1.0
230
-0.0000000000000002
  0
LINE
  5
3886
  8
0
 10
730.4110085396414433
 20
89.0000000000001847
 30
-0.0000000000000198
 11
730.4110085396414433
 21
99.0000000000000853
 31
-0.000000000000022
210
0.0
220
1.0
230
-0.0000000000000002
  0
LINE
  5
3887
  8
0
 10
726.4110085396414433
 20
99.0000000000000853
 30
-0.000000000000022
 11
730.4110085396414433
 21
99.0000000000000853
 31
-0.000000000000022
210
0.0
220
1.0
230
-0.0000000000000002
  0
LINE
  5
3888
  8
0
 10
548.4110085396414433
 20
99.0000000000000853
 30
-0.000000000000022
 11
552.4110085396413297
 21
99.0000000000000853
 31
-0.000000000000022
210
0.0
220
1.0
230
-0.0000000000000002
  0
LINE
  5
3889
  8
0
 10
548.4110085396414433
 20
68.0000000000000711
 30
-0.0000000000000151
 11
548.4110085396414433
 21
84.0000000000001847
 31
-0.0000000000000187
210
0.0
220
1.0
230
-0.0000000000000002
  0
LINE
  5
388A
  8
0
 10
548.4110085396414433
 20
89.0000000000001847
 30
-0.0000000000000198
 11
548.4110085396414433
 21
99.0000000000000853
 31
-0.000000000000022
210
0.0
220
1.0
230
-0.0000000000000002
  0
ARC
  5
388B
  8
0
 10
-566.7922063861244624
 20
56.0000000000000711
 30
0.0
 40
4.0000000000000027
210
0.0
220
-0.0000000000000002
230
-1.0
 50
89.9999999999998721
 51
149.999999999999801
  0
LINE
  5
388C
  8
0
 10
570.2563080012622549
 20
58.0000000000001279
 30
-0.0000000000000129
 11
574.8751101547791222
 21
50.0000000000001776
 31
-0.0000000000000111
210
0.0
220
1.0
230
-0.0000000000000002
  0
ARC
  5
388D
  8
0
 10
581.8033133850548211
 20
54.0000000000001208
 30
-0.000000000000012
 40
8.0000000000000249
 50
209.9999999999992895
 51
269.9999999999994884
  0
ARC
  5
388E
  8
0
 10
697.018703694228293
 20
53.9999999999999005
 30
-0.000000000000012
 40
7.9999999999998286
 50
270.0
 51
330.0000000000019895
  0
LINE
  5
388F
  8
0
 10
703.9469069245036508
 20
50.0000000000000711
 30
-0.0000000000000111
 11
708.5657090780206318
 21
58.0000000000000071
 31
-0.0000000000000129
210
0.0
220
1.0
230
-0.0000000000000002
  0
ARC
  5
3890
  8
0
 10
-712.0298106931583106
 20
56.0000000000000711
 30
0.0
 40
4.0
210
0.0
220
-0.0000000000000002
230
-1.0
 50
30.0000000000000107
 51
90.0000000000000284
  0
LINE
  5
3891
  8
0
 10
581.8033133850547074
 20
46.0000000000001208
 30
-0.0000000000000102
 11
621.8508384862911953
 21
46.0000000000001208
 31
-0.0000000000000102
210
0.0
220
1.0
230
-0.0000000000000002
  0
LINE
  5
3892
  8
0
 10
656.9711785929919188
 20
46.0000000000001208
 30
-0.0000000000000102
 11
697.0187036942279519
 21
46.0000000000000568
 31
-0.0000000000000102
210
0.0
220
1.0
230
-0.0000000000000002
  0
LINE
  5
3893
  8
0
 10
789.4110085396405339
 20
84.0000000000001847
 30
-0.0000000000000187
 11
789.4110085396405339
 21
89.0000000000001847
 31
-0.0000000000000198
210
0.0
220
1.0
230
-0.0000000000000002
  0
LINE
  5
3894
  8
0
 10
489.411008539640477
 20
84.0000000000001847
 30
-0.0000000000000187
 11
789.4110085396405339
 21
84.0000000000001847
 31
-0.0000000000000187
210
0.0
220
1.0
230
-0.0000000000000002
  0
LINE
  5
3895
  8
0
 10
489.411008539640477
 20
89.0000000000001847
 30
-0.0000000000000198
 11
789.4110085396405339
 21
89.0000000000001847
 31
-0.0000000000000198
210
0.0
220
1.0
230
-0.0000000000000002
  0
LINE
  5
3896
  8
0
 10
489.411008539640477
 20
84.0000000000001847
 30
-0.0000000000000187
 11
489.411008539640477
 21
89.0000000000001847
 31
-0.0000000000000198
210
0.0
220
1.0
230
-0.0000000000000002
  0
LINE
  5
3897
  8
0
  6
VERDECKT
 62
     1
 10
702.5551847530110763
 20
-73.782110643130693
 30
0.0000000000000164
 11
576.266832326271583
 21
-73.782110643130693
 31
0.0000000000000164
210
0.0
220
1.0
230
-0.0000000000000002
  0
LINE
  5
3898
  8
0
  6
VERDECKT
 62
     1
 10
697.3417499304119929
 20
45.0059814059143335
 30
-0.00000000000001
 11
581.4802671488708938
 21
45.0059814059143335
 31
-0.00000000000001
210
0.0
220
1.0
230
-0.0000000000000002
  0
LINE
  5
3899
  8
0
  6
VERDECKT
 62
     1
 10
576.2668323262714694
 20
-73.782110643130693
 30
0.0000000000000164
 11
575.4566721625404853
 21
-64.5219375980694991
 31
0.0000000000000143
210
0.0
220
1.0
230
-0.0000000000000002
  0
LINE
  5
389A
  8
0
  6
VERDECKT
 62
     1
 10
702.55518475301119
 20
-73.782110643130693
 30
0.0000000000000164
 11
703.3653449167424014
 21
-64.5219375980694991
 31
0.0000000000000143
210
0.0
220
1.0
230
-0.0000000000000002
  0
LINE
  5
389B
  8
0
  6
VERDECKT
 62
     1
 10
702.5551847530110763
 20
-73.782110643130693
 30
0.0000000000000164
 11
705.0456714982406083
 21
-73.9999999999999432
 31
0.0000000000000164
210
0.0
220
1.0
230
-0.0000000000000002
  0
LINE
  5
389C
  8
0
  6
VERDECKT
 62
     1
 10
576.2668323262714694
 20
-73.7821106431307214
 30
0.0000000000000164
 11
573.7763455810421647
 21
-73.9999999999999432
 31
0.0000000000000164
210
0.0
220
1.0
230
-0.0000000000000002
  0
LINE
  5
389D
  8
0
  6
VERDECKT
 62
     1
 10
581.4802671488708938
 20
45.005981405914369
 30
-0.00000000000001
 11
579.1863780855959476
 21
46.0000000000001208
 31
-0.0000000000000102
210
0.0
220
1.0
230
-0.0000000000000002
  0
LINE
  5
389E
  8
0
  6
VERDECKT
 62
     1
 10
697.3417499304119929
 20
45.005981405914369
 30
-0.00000000000001
 11
699.6356389936868254
 21
46.0000000000001208
 31
-0.0000000000000102
210
0.0
220
1.0
230
-0.0000000000000002
  0
LINE
  5
389F
  8
0
  6
VERDECKT
 62
     1
 10
697.3417499304119929
 20
45.0059814059143406
 30
-0.00000000000001
 11
702.4216760433605486
 21
33.2830749914174433
 31
-0.0000000000000074
210
0.0
220
1.0
230
-0.0000000000000002
  0
LINE
  5
38A0
  8
0
  6
VERDECKT
 62
     1
 10
581.4802671488708938
 20
45.0059814059143406
 30
-0.00000000000001
 11
576.4003410359221107
 21
33.2830749914174433
 31
-0.0000000000000074
210
0.0
220
1.0
230
-0.0000000000000002
  0
ARC
  5
38A1
  8
0
  6
VERDECKT
 62
     1
 10
-691.4110085396396244
 20
28.511785739805461
 30
0.0
 40
12.0000000000019291
210
0.0
220
-0.0000000000000002
230
-1.0
 50
156.5713071912566079
 51
179.9999999999976978
  0
ARC
  5
38A2
  8
0
  6
VERDECKT
 62
     1
 10
-587.4110085396431487
 20
28.511785739805461
 30
0.0
 40
12.0000000000019291
210
0.0
220
-0.0000000000000002
230
-1.0
 50
0.0000000000023154
 51
23.4286928087433388
  0
LINE
  5
38A3
  8
0
  6
VERDECKT
 62
     1
 10
575.4110085396414433
 20
-63.4760686850975873
 30
0.0000000000000141
 11
575.4110085396414433
 21
28.5117857398059407
 31
-0.0000000000000063
210
0.0
220
1.0
230
-0.0000000000000002
  0
LINE
  5
38A4
  8
0
  6
VERDECKT
 62
     1
 10
703.4110085396414433
 20
-63.4760686850975873
 30
0.0000000000000141
 11
703.4110085396414433
 21
28.5117857398059407
 31
-0.0000000000000063
210
0.0
220
1.0
230
-0.0000000000000002
  0
ARC
  5
38A5
  8
0
  6
VERDECKT
 62
     1
 10
-691.4110085396480372
 20
-63.4760686850980278
 30
0.0
 40
11.9999999999934008
210
0.0
220
-0.0000000000000002
230
-1.0
 50
179.9999999999978115
 51
185.0000000000005969
  0
ARC
  5
38A6
  8
0
  6
VERDECKT
 62
     1
 10
-587.4110085396348495
 20
-63.4760686850980278
 30
0.0
 40
11.9999999999934008
210
0.0
220
-0.0000000000000002
230
-1.0
 50
354.9999999999993179
 51
0.0000000000021119
  0
LINE
  5
38A7
  8
0
  6
VERDECKT
 62
     1
 10
726.411008539641216
 20
84.0000000000001847
 30
-0.0000000000000187
 11
726.411008539641216
 21
89.0000000000001847
 31
-0.0000000000000198
210
0.0
220
1.0
230
-0.0000000000000002
  0
LINE
  5
38A8
  8
0
  6
VERDECKT
 62
     1
 10
552.4110085396406475
 20
84.0000000000001847
 30
-0.0000000000000187
 11
552.4110085396406475
 21
89.0000000000001847
 31
-0.0000000000000198
210
0.0
220
1.0
230
-0.0000000000000002
  0
ARC
  5
38A9
  8
0
  6
VERDECKT
 62
     1
 10
556.4110085396413297
 20
68.0000000000001847
 30
-0.0000000000000151
 40
4.0
 50
180.0000000000015064
 51
270.0
  0
ARC
  5
38AA
  8
0
  6
VERDECKT
 62
     1
 10
722.4110085396414433
 20
68.0000000000001847
 30
-0.0000000000000151
 40
4.0
 50
270.0
 51
359.9999999999984084
  0
LINE
  5
38AB
  8
0
  6
VERDECKT
 62
     1
 10
722.4110085396414433
 20
64.0000000000000711
 30
-0.0000000000000142
 11
556.4110085396413297
 21
64.0000000000000853
 31
-0.0000000000000142
210
0.0
220
1.0
230
-0.0000000000000002
  0
LINE
  5
38AC
  8
0
  6
VERDECKT
 62
     1
 10
730.4110085396414433
 20
84.0000000000001847
 30
-0.0000000000000187
 11
730.4110085396414433
 21
89.0000000000001847
 31
-0.0000000000000198
210
0.0
220
1.0
230
-0.0000000000000002
  0
LINE
  5
38AD
  8
0
  6
VERDECKT
 62
     1
 10
548.4110085396414433
 20
84.0000000000001847
 30
-0.0000000000000187
 11
548.4110085396414433
 21
89.0000000000001847
 31
-0.0000000000000198
210
0.0
220
1.0
230
-0.0000000000000002
  0
ARC
  5
38AE
  8
0
  6
VERDECKT
 62
     1
 10
-566.7922063861241213
 20
56.0000000000000071
 30
0.0
 40
8.0000000000000568
210
0.0
220
-0.0000000000000002
230
-1.0
 50
90.0
 51
150.0000000000005116
  0
ARC
  5
38AF
  8
0
  6
VERDECKT
 62
     1
 10
712.0298106931584243
 20
56.0000000000000711
 30
-0.0000000000000124
 40
8.0
 50
90.0
 51
149.9999999999969873
  0
LINE
  5
38B0
  8
0
  6
VERDECKT
 62
     1
 10
578.3392117699162327
 20
52.0000000000002984
 30
-0.0000000000000115
 11
573.7204096163995928
 21
59.9999999999999574
 31
-0.0000000000000133
210
0.0
220
1.0
230
-0.0000000000000002
  0
ARC
  5
38B1
  8
0
  6
VERDECKT
 62
     1
 10
581.8033133850542526
 20
54.0000000000002984
 30
-0.000000000000012
 40
4.0000000000001696
 50
209.9999999999996874
 51
269.9999999999984084
  0
ARC
  5
38B2
  8
0
  6
VERDECKT
 62
     1
 10
697.0187036942279519
 20
54.0000000000000711
 30
-0.000000000000012
 40
3.9999999999999098
 50
269.99999999999892
 51
329.9999999999993747
  0
LINE
  5
38B3
  8
0
  6
VERDECKT
 62
     1
 10
697.0187036942279519
 20
50.0000000000001279
 30
-0.0000000000000111
 11
581.803313385054139
 21
50.0000000000001421
 31
-0.0000000000000111
210
0.0
220
1.0
230
-0.0000000000000002
  0
LINE
  5
38B4
  8
0
  6
VERDECKT
 62
     1
 10
705.1016074628829529
 20
60.0000000000004121
 30
-0.0000000000000133
 11
700.4828053093656308
 21
52.0000000000000711
 31
-0.0000000000000115
210
0.0
220
1.0
230
-0.0000000000000002
  0
LINE
  5
38B5
  8
0
  6
VERDECKT
 62
     1
 10
581.9110085396414433
 20
46.0000000000000995
 30
-0.0000000000000102
 11
581.9110085396414433
 21
50.0000000000001279
 31
-0.0000000000000111
210
0.0
220
1.0
230
-0.0000000000000002
  0
LINE
  5
38B6
  8
0
  6
VERDECKT
 62
     1
 10
696.9110085396414433
 20
46.0000000000000568
 30
-0.0000000000000102
 11
696.9110085396414433
 21
50.0000000000001279
 31
-0.0000000000000111
210
0.0
220
1.0
230
-0.0000000000000002
  0
LINE
  5
38B7
  8
0
  6
VERDECKT
 62
     1
 10
731.4110085396405339
 20
84.0000000000001847
 30
-0.0000000000000187
 11
731.4110085396405339
 21
89.0000000000001847
 31
-0.0000000000000198
210
0.0
220
1.0
230
-0.0000000000000002
  0
LINE
  5
38B8
  8
0
  6
VERDECKT
 62
     1
 10
547.4110085396405339
 20
89.0000000000001847
 30
-0.0000000000000198
 11
547.4110085396405339
 21
84.0000000000001847
 31
-0.0000000000000187
210
0.0
220
1.0
230
-0.0000000000000002
  0
ENDBLK
  5
38BA
  8
0
  0
ENDSEC
  0
SECTION
  2
ENTITIES
  0
TEXT
  5
8F
  8
VOLL
 10
78.076754716981128
 20
31.025947764705851
 30
0.0
 40
1.8
  1

  7
GREEKS
  0
INSERT
  5
C0C
  8
ADSK_ASSOC_ENTITY_BACKUPS
  2
*S0
 10
0.0
 20
0.0
 30
0.0
  0
INSERT
  5
3868
  8
STEMPEL
  2
A$C926C8567
 10
489.5653204769428726
 20
-314.8983102190492218
 30
-84.047244572056826
  0
INSERT
  5
38BB
  8
STEMPEL
  2
A$C0E16C77D
 10
351.7362614136044954
 20
248.3536325223238066
 30
-84.0472445720567265
  0
VIEWPORT
  5
928
 67
     1
  8
0
 10
141.4022047247422904
 20
205.6296860293298039
 30
0.0
 40
755.1471947795562301
 41
423.0035756853396265
 68
     1
 69
     1
1001
ACAD
1000
MVIEW
1002
{
1070
    16
1010
0.0
1020
0.0
1030
0.0
1010
0.0
1020
0.0
1030
1.0
1040
0.0
1040
423.0035756853396265
1040
141.4022047247422904
1040
205.6296860293298039
1040
50.0
1040
0.0
1040
0.0
1070
     0
1070
  1500
1070
     1
1070
     1
1070
     0
1070
     0
1070
     0
1070
     0
1040
0.0
1040
0.0
1040
0.0
1040
10.0
1040
10.0
1040
10.0
1040
10.0
1070
     0
1002
{
1002
}
1002
}
  0
TEXT
  8
BEM
  40
3
  5
3912
  50
270.000
  72
0
  71
0
210
0.000000
220
0.000000
230
-1.00000
 10
-86.9552
 20
305.037
 30
0.000000
  1
  
  0
TEXT
  8
BEM
  40
3
  5
3913
  50
270.000
  72
0
  71
0
210
0.000000
220
0.000000
230
-1.00000
 10
-66.9552
 20
343.537
 30
0.000000
  1
  
  0
INSERT
  5
3416
 67
     1
  8
BEM
 62
     2
  2
_NONE
 10
84.3980399999993836
 20
164.092159999999609
 30
0.0
 41
3.0
 42
3.0
 43
3.0
 50
277.0379407631846789
  0
INSERT
  5
341B
 67
     1
  8
BEM
 62
     2
  2
_NONE
 10
149.3980399999992983
 20
184.592159999999609
 30
0.0
 41
3.0
 42
3.0
 43
3.0
 50
284.036243467926397
  0
ENDSEC
  0
EOF
