  0
SECTION
  2
HEADER
  9
$ACADVER
  1
AC1009
  9
$INSBASE
 10
0.0
 20
0.0
 30
0.0
  9
$EXTMIN
 10
873.3030531262852492
 20
-175.7864092321777036
 30
-55.3479086865044607
  9
$EXTMAX
 10
1173.3030531262850218
 20
347.790249010546404
 30
-55.3479086865043968
  9
$LIMMIN
 10
0.0
 20
0.0
  9
$LIMMAX
 10
210.0
 20
297.0
  9
$ORTHOMODE
 70
     1
  9
$REGENMODE
 70
     1
  9
$FILLMODE
 70
     1
  9
$QTEXTMODE
 70
     0
  9
$MIRRTEXT
 70
     1
  9
$DRAGMODE
 70
     2
  9
$LTSCALE
 40
10.0
  9
$OSMODE
 70
  2495
  9
$ATTMODE
 70
     1
  9
$TEXTSIZE
 40
3.5
  9
$TRACEWID
 40
0.5
  9
$TEXTSTYLE
  7
STANDARD
  9
$CLAYER
  8
STEMPEL
  9
$CELTYPE
  6
BYLAYER
  9
$CECOLOR
 62
   256
  9
$DIMSCALE
 40
1.0
  9
$DIMASZ
 40
3.5
  9
$DIMEXO
 40
1.0
  9
$DIMDLI
 40
0.38
  9
$DIMRND
 40
0.0
  9
$DIMDLE
 40
0.0
  9
$DIMEXE
 40
1.0
  9
$DIMTP
 40
0.0
  9
$DIMTM
 40
0.000000001
  9
$DIMTXT
 40
3.5
  9
$DIMCEN
 40
0.09
  9
$DIMTSZ
 40
0.0
  9
$DIMTOL
 70
     0
  9
$DIMLIM
 70
     0
  9
$DIMTIH
 70
     0
  9
$DIMTOH
 70
     0
  9
$DIMSE1
 70
     0
  9
$DIMSE2
 70
     0
  9
$DIMTAD
 70
     1
  9
$DIMZIN
 70
     8
  9
$DIMBLK
  1

  9
$DIMASO
 70
     1
  9
$DIMSHO
 70
     0
  9
$DIMPOST
  1

  9
$DIMAPOST
  1

  9
$DIMALT
 70
     0
  9
$DIMALTD
 70
     2
  9
$DIMALTF
 40
25.3999999999999986
  9
$DIMLFAC
 40
2.0
  9
$DIMTOFL
 70
     1
  9
$DIMTVP
 40
0.0
  9
$DIMTIX
 70
     0
  9
$DIMSOXD
 70
     0
  9
$DIMSAH
 70
     0
  9
$DIMBLK1
  1

  9
$DIMBLK2
  1

  9
$DIMSTYLE
  2
LORO
  9
$DIMCLRD
 70
     0
  9
$DIMCLRE
 70
     0
  9
$DIMCLRT
 70
     1
  9
$DIMTFAC
 40
0.5
  9
$DIMGAP
 40
1.5
  9
$LUNITS
 70
     2
  9
$LUPREC
 70
     2
  9
$SKETCHINC
 40
1.0
  9
$FILLETRAD
 40
12.0
  9
$AUNITS
 70
     0
  9
$AUPREC
 70
     0
  9
$MENU
  1
ACAD
  9
$ELEVATION
 40
0.0
  9
$PELEVATION
 40
0.0
  9
$THICKNESS
 40
0.0
  9
$LIMCHECK
 70
     0
  9
$BLIPMODE
 70
     0
  9
$CHAMFERA
 40
0.0
  9
$CHAMFERB
 40
0.0
  9
$SKPOLY
 70
     0
  9
$TDCREATE
 40
2455397.8646990740671754
  9
$TDUPDATE
 40
2459677.6071527781896293
  9
$TDINDWG
 40
0.3683837037
  9
$TDUSRTIMER
 40
0.3683837037
  9
$USRTIMER
 70
     1
  9
$ANGBASE
 50
0.0
  9
$ANGDIR
 70
     0
  9
$PDMODE
 70
     0
  9
$PDSIZE
 40
0.0
  9
$PLINEWID
 40
0.0
  9
$COORDS
 70
     1
  9
$SPLFRAME
 70
     0
  9
$SPLINETYPE
 70
     6
  9
$SPLINESEGS
 70
     8
  9
$ATTDIA
 70
     1
  9
$ATTREQ
 70
     1
  9
$HANDLING
 70
     1
  9
$HANDSEED
  5
35C4
  9
$SURFTAB1
 70
     6
  9
$SURFTAB2
 70
     6
  9
$SURFTYPE
 70
     6
  9
$SURFU
 70
     6
  9
$SURFV
 70
     6
  9
$UCSNAME
  2

  9
$UCSORG
 10
0.0
 20
0.0
 30
0.0
  9
$UCSXDIR
 10
1.0
 20
0.0
 30
0.0
  9
$UCSYDIR
 10
0.0
 20
1.0
 30
0.0
  9
$PUCSNAME
  2

  9
$PUCSORG
 10
0.0
 20
0.0
 30
0.0
  9
$PUCSXDIR
 10
1.0
 20
0.0
 30
0.0
  9
$PUCSYDIR
 10
0.0
 20
1.0
 30
0.0
  9
$USERI1
 70
     0
  9
$USERI2
 70
     0
  9
$USERI3
 70
     0
  9
$USERI4
 70
     0
  9
$USERI5
 70
     0
  9
$USERR1
 40
0.0
  9
$USERR2
 40
0.0
  9
$USERR3
 40
0.0
  9
$USERR4
 40
0.0
  9
$USERR5
 40
0.0
  9
$WORLDVIEW
 70
     1
  9
$SHADEDGE
 70
     3
  9
$SHADEDIF
 70
    70
  9
$TILEMODE
 70
     1
  9
$MAXACTVP
 70
    16
  9
$PLIMCHECK
 70
     0
  9
$PEXTMIN
 10
1.0000000000000000E+20
 20
1.0000000000000000E+20
 30
1.0000000000000000E+20
  9
$PEXTMAX
 10
-1.0000000000000000E+20
 20
-1.0000000000000000E+20
 30
-1.0000000000000000E+20
  9
$PLIMMIN
 10
-2.4854800482349901
 20
-4.370313970670149
  9
$PLIMMAX
 10
294.5145199517650099
 20
415.6296860293297755
  9
$UNITMODE
 70
     0
  9
$VISRETAIN
 70
     0
  9
$PLINEGEN
 70
     0
  9
$PSLTSCALE
 70
     0
  0
ENDSEC
  0
SECTION
  2
TABLES
  0
TABLE
  2
VPORT
 70
     1
  0
VPORT
  2
*ACTIVE
 70
     0
 10
0.0
 20
0.0
 11
1.0
 21
1.0
 12
-0.1991582755912873
 22
-159.8495379798353042
 13
0.0
 23
0.0
 14
1.0
 24
1.0
 15
10.0
 25
10.0
 16
-0.0000000000002274
 26
0.0
 36
1064.6698397644579472
 17
1023.502211401877048
 27
245.851457869019697
 37
-27.6739543432521486
 40
527.3209490048889165
 41
1.7852028639618129
 42
50.0
 43
0.0
 44
0.0
 50
0.0
 51
0.0
 71
     0
 72
  1500
 73
     1
 74
     0
 75
     0
 76
     0
 77
     0
 78
     0
  0
ENDTAB
  0
TABLE
  2
LTYPE
 70
     6
  0
LTYPE
  2
CONTINUOUS
 70
     0
  3
Solid line
 72
    65
 73
     0
 40
0.0
  0
LTYPE
  2
STRICHPUNKT
 70
     0
  3
__ . __ . __ . __ . __ . __ . __ . __ . __ . __
 72
    65
 73
     4
 40
1.0
 49
0.5
 49
-0.25
 49
0.0
 49
-0.25
  0
LTYPE
  2
VERDECKT
 70
     0
  3
Verdeckt __ __ __ __ __ __ __ __ __ __ __ __ __
 72
    65
 73
     2
 40
0.375
 49
0.25
 49
-0.125
  0
ENDTAB
  0
TABLE
  2
LAYER
 70
    14
  0
LAYER
  2
0
 70
     0
 62
     7
  6
CONTINUOUS
  0
LAYER
  2
VOLL
 70
     0
 62
     1
  6
CONTINUOUS
  0
LAYER
  2
BEM
 70
     0
 62
     7
  6
CONTINUOUS
  0
LAYER
  2
STEMPEL
 70
     0
 62
     3
  6
CONTINUOUS
  0
LAYER
  2
DEFPOINTS
 70
     0
 62
     7
  6
CONTINUOUS
  0
LAYER
  2
ADSK_ASSOC_ENTITY_BACKUPS
 70
     1
 62
    -7
  6
CONTINUOUS
  0
ENDTAB
  0
TABLE
  2
STYLE
 70
     8
  0
STYLE
  2
STANDARD
 70
     0
 40
0.0
 41
0.8
 50
0.0
 71
     0
 42
3.5
  3
simplex.shx
  4

  0
STYLE
  2
GREEKS
 70
     0
 40
0.0
 41
0.8
 50
0.0
 71
     0
 42
2.5
  3
SIMPLEX.shx
  4

  0
ENDTAB
  0
TABLE
  2
VIEW
 70
     1
  0
ENDTAB
  0
TABLE
  2
UCS
 70
     0
  0
ENDTAB
  0
TABLE
  2
APPID
 70
    25
  0
APPID
  2
ACAD
 70
     0
  0
APPID
  2
ACAD_NAV_VCDISPLAY
 70
     0
  0
APPID
  2
ACAD_MLEADERVER
 70
     0
  0
APPID
  2
ACAD_EXEMPT_FROM_CAD_STANDARDS
 70
     0
  0
APPID
  2
ACAD_PSEXT
 70
     0
  0
APPID
  2
ACAECLAYERSTANDARD
 70
     0
  0
APPID
  2
ACAUTHENVIRON
 70
     0
  0
APPID
  2
ACCMTRANSPARENCY
 70
     0
  0
APPID
  2
ACAD_STEPID
 70
     0
  0
APPID
  2
ACSYNERGY
 70
     0
  0
APPID
  2
SYNERGY_BODY_TBR_ID
 70
     0
  0
APPID
  2
ACAD_VIEW_EDGE_ID
 70
     0
  0
APPID
  2
ACSYNERGYSKETCH
 70
     0
  0
APPID
  2
ACAD_MODELDOC_XFORM
 70
     0
  0
APPID
  2
ACAD_DSTYLE_DIMJAG
 70
     0
  0
APPID
  2
ACAD_DSTYLE_DIMTALN
 70
     0
  0
APPID
  2
ACADANNOMONITORALERTICONDI
 70
     0
  0
APPID
  2
ACAD_DIMASSOC_CALC_DIMLFAC
 70
     0
  0
APPID
  2
ACAD_DIMASSOC_DIMLFAC
 70
     0
  0
APPID
  2
ACAD_DIMASSOC_OVERRIDDEN_D
 70
     0
  0
APPID
  2
ACAD_DSTYLE_DIMRADIAL_EXTENSION
 70
     0
  0
APPID
  2
ACDBDYNAMICBLOCKGUID
 70
     0
  0
APPID
  2
ACADANNOPO
 70
     0
  0
APPID
  2
ACAD_DSTYLE_DIMBREAK
 70
     0
  0
APPID
  2
AcDbAttr
 70
     0
  0
ENDTAB
  0
TABLE
  2
DIMSTYLE
 70
     5
  0
DIMSTYLE
  2
STANDARD
 70
     0
  3

  4

  5

  6

  7

 40
1.0
 41
0.18
 42
0.0625
 43
0.38
 44
0.18
 45
0.0
 46
0.0
 47
0.0
 48
0.0
140
0.18
141
0.09
142
0.0
143
25.3999999999999986
144
1.0
145
0.0
146
1.0
147
0.09
 71
     0
 72
     0
 73
     1
 74
     1
 75
     0
 76
     0
 77
     0
 78
     0
170
     0
171
     2
172
     0
173
     0
174
     0
175
     0
176
     0
177
     0
178
     0
  0
DIMSTYLE
  2
LORO
 70
     0
  3

  4

  5

  6

  7

 40
1.0
 41
3.5
 42
1.0
 43
0.38
 44
1.0
 45
0.0
 46
0.0
 47
0.0
 48
0.000000001
140
3.5
141
0.09
142
0.0
143
25.3999999999999986
144
2.0
145
0.0
146
0.5
147
1.5
 71
     0
 72
     0
 73
     0
 74
     0
 75
     0
 76
     0
 77
     1
 78
     8
170
     0
171
     2
172
     1
173
     0
174
     0
175
     0
176
     0
177
     0
178
     1
  0
ENDTAB
  0
ENDSEC
  0
SECTION
  2
BLOCKS
  0
BLOCK
  8
0
  2
$MODEL_SPACE
 70
     0
 10
0.0
 20
0.0
 30
0.0
  3
$MODEL_SPACE
  1

  0
ENDBLK
  5
36
  8
0
  0
BLOCK
 67
     1
  8
0
  2
$PAPER_SPACE
 70
     0
 10
0.0
 20
0.0
 30
0.0
  3
$PAPER_SPACE
  1

  0
ENDBLK
  5
34
 67
     1
  8
0
  0
BLOCK
  8
0
  2
*S2
 70
     1
 10
0.0
 20
0.0
 30
0.0
  3
*S2
  1

  0
ENDBLK
  5
C0A
  8
0
  0
BLOCK
  8
0
  2
_NONE
 70
     0
 10
0.0
 20
0.0
 30
0.0
  3
_NONE
  1

  0
ENDBLK
  5
22B9
  8
0
  0
BLOCK
  8
0
  2
A$C34797265
 70
     0
 10
0.0
 20
0.0
 30
0.0
  3
A$C34797265
  1

  0
LINE
  5
3504
  8
0
 10
390.445549326046887
 20
199.0953568903337896
 30
0.0000000000001137
 11
574.4455493260468302
 21
199.0953568903337896
 31
0.0000000000001504
  0
LINE
  5
3505
  8
0
 10
574.4455493260468302
 20
199.0953568903337896
 30
0.0000000000001421
 11
574.4455493260468302
 21
383.095356890334017
 31
0.0000000000001421
  0
LINE
  5
3506
  8
0
 10
390.445549326046887
 20
383.0953568903339033
 30
0.0000000000001137
 11
390.445549326046887
 21
199.0953568903337896
 31
0.0000000000001137
  0
LINE
  5
3507
  8
0
 10
574.4455493260468302
 20
383.095356890334017
 30
0.0000000000001421
 11
390.445549326046887
 21
383.0953568903339033
 31
0.0000000000001054
  0
LINE
  5
3508
  8
0
 10
632.4455493260468302
 20
141.0953568903341022
 30
0.0000000000001563
 11
632.4455493260468302
 21
441.095356890334017
 31
0.0000000000001563
  0
LINE
  5
3509
  8
0
 10
332.4455493260467733
 20
141.0953568903337896
 30
0.0000000000000995
 11
632.4455493260468302
 21
141.0953568903341022
 31
0.0000000000001593
  0
LINE
  5
350A
  8
0
 10
332.4455493260467733
 20
441.095356890334017
 30
0.0000000000000995
 11
332.4455493260467733
 21
141.0953568903337896
 31
0.0000000000000995
  0
LINE
  5
350B
  8
0
 10
632.4455493260468302
 20
441.095356890334017
 30
0.0000000000001563
 11
332.4455493260467733
 21
441.095356890334017
 31
0.0000000000000965
  0
CIRCLE
  5
350C
  8
0
 10
482.4455493260476828
 20
291.095356890334017
 30
0.0000000000001279
 40
48.1327239685572223
  0
LINE
  5
350D
  8
0
 10
395.4455493260475123
 20
382.0953568903340738
 30
0.0000000000001137
 11
395.4455493260475123
 21
378.0953568903340738
 31
0.0000000000001137
  0
LINE
  5
350E
  8
0
 10
569.4455493260475123
 20
378.0953568903343012
 30
0.0000000000001421
 11
569.4455493260475123
 21
382.0953568903343012
 31
0.0000000000001421
  0
LINE
  5
350F
  8
0
 10
569.4455493260469439
 20
200.0953568903343012
 30
0.0000000000001421
 11
569.4455493260469439
 21
204.0953568903341022
 31
0.0000000000001421
  0
LINE
  5
3510
  8
0
 10
399.4455493260477965
 20
374.0953568903340738
 30
0.0000000000001137
 11
395.4455493260477965
 21
378.0953568903340738
 31
0.0000000000001137
  0
LINE
  5
3511
  8
0
 10
569.4455493260477397
 20
378.0953568903340738
 30
0.0000000000001421
 11
565.4455493260477397
 21
374.0953568903340738
 31
0.0000000000001421
  0
LINE
  5
3512
  8
0
 10
395.4455493260472281
 20
204.0953568903343012
 30
0.0000000000001137
 11
395.4455493260470007
 21
200.0953568903343012
 31
0.0000000000001137
  0
LINE
  5
3513
  8
0
 10
395.445549326047626
 20
204.0953568903341022
 30
0.0000000000001137
 11
399.445549326047626
 21
208.0953568903341022
 31
0.0000000000001137
  0
LINE
  5
3514
  8
0
 10
565.4455493260477397
 20
208.0953568903341022
 30
0.0000000000001421
 11
569.4455493260477397
 21
204.0953568903341022
 31
0.0000000000001421
  0
LINE
  5
3515
  8
0
 10
569.4455493260471712
 20
204.0953568903341022
 30
0.0000000000001421
 11
395.4455493260473986
 21
204.0953568903341022
 31
0.0000000000001074
  0
LINE
  5
3516
  8
0
 10
395.4455493260475123
 20
378.0953568903340738
 30
0.0000000000001137
 11
569.4455493260475123
 21
378.0953568903341875
 31
0.0000000000001484
  0
LINE
  5
3517
  8
0
 10
569.4455493260475123
 20
382.0953568903343012
 30
0.0000000000001421
 11
395.4455493260475123
 21
382.0953568903340738
 31
0.0000000000001074
  0
LINE
  5
3518
  8
0
 10
395.4455493260470007
 20
200.0953568903343012
 30
0.0000000000001137
 11
569.4455493260469439
 21
200.0953568903343012
 31
0.0000000000001484
  0
LINE
  5
3519
  8
0
 10
569.4455493260477397
 20
204.0953568903343012
 30
0.0000000000001421
 11
573.4455493260477397
 21
204.0953568903343012
 31
0.0000000000001429
  0
LINE
  5
351A
  8
0
 10
391.4455493260477965
 20
204.0953568903348128
 30
0.0000000000001137
 11
395.445549326047626
 21
204.0953568903348128
 31
0.0000000000001145
  0
LINE
  5
351B
  8
0
 10
573.4455493260477397
 20
378.0953568903343012
 30
0.0000000000001421
 11
569.4455493260477397
 21
378.0953568903343012
 31
0.0000000000001413
  0
LINE
  5
351C
  8
0
 10
395.4455493260477965
 20
378.0953568903348128
 30
0.0000000000001137
 11
391.4455493260477965
 21
378.0953568903348128
 31
0.0000000000001129
  0
LINE
  5
351D
  8
0
 10
395.445549326047626
 20
204.0953568903343012
 30
0.0000000000001137
 11
395.445549326047626
 21
378.0953568903343012
 31
0.0000000000001137
  0
LINE
  5
351E
  8
0
 10
569.4455493260477397
 20
378.0953568903343012
 30
0.0000000000001421
 11
569.4455493260478534
 21
204.0953568903343012
 31
0.0000000000001421
  0
ARC
  5
351F
  8
0
 10
482.4455493260476828
 20
291.0953568903343012
 30
0.0000000000001279
 40
48.9999999999997726
 50
180.0
 51
90.0
  0
ARC
  5
3520
  8
0
 10
482.4455493260475123
 20
291.0953568903343012
 30
0.0000000000001279
 40
48.9999999999997726
 50
90.0
 51
180.0
  0
LINE
  5
3521
  8
0
 10
573.4455493260477397
 20
204.0953568903343012
 30
0.0000000000001421
 11
573.445549326047626
 21
378.0953568903343012
 31
0.0000000000001421
  0
LINE
  5
3522
  8
0
 10
391.4455493260477965
 20
378.0953568903348128
 30
0.0000000000001137
 11
391.4455493260477965
 21
204.0953568903348128
 31
0.0000000000001137
  0
CIRCLE
  5
3523
  8
0
  6
VERDECKT
 62
     1
 10
482.4455493260476828
 20
291.095356890334017
 30
0.0000000000001279
 40
51.0
  0
CIRCLE
  5
3524
  8
0
  6
VERDECKT
 62
     1
 10
482.4455493260476828
 20
291.095356890334017
 30
0.0000000000001279
 40
50.1251133647407414
  0
ENDBLK
  5
3526
  8
0
  0
BLOCK
  8
0
  2
A$C160A6F8D
 70
     0
 10
0.0
 20
0.0
 30
0.0
  3
A$C160A6F8D
  1

  0
LINE
  5
352A
  8
0
 10
789.4110085396405339
 20
84.0000000000001847
 30
-0.0000000000000187
 11
789.4110085396405339
 21
89.0000000000001847
 31
-0.0000000000000198
210
0.0
220
1.0
230
-0.0000000000000002
  0
LINE
  5
352B
  8
0
 10
489.411008539640477
 20
84.0000000000001847
 30
-0.0000000000000187
 11
789.4110085396405339
 21
84.0000000000001847
 31
-0.0000000000000187
210
0.0
220
1.0
230
-0.0000000000000002
  0
LINE
  5
352C
  8
0
 10
489.411008539640477
 20
89.0000000000001847
 30
-0.0000000000000198
 11
789.4110085396405339
 21
89.0000000000001847
 31
-0.0000000000000198
210
0.0
220
1.0
230
-0.0000000000000002
  0
LINE
  5
352D
  8
0
 10
489.411008539640477
 20
84.0000000000001847
 30
-0.0000000000000187
 11
489.411008539640477
 21
89.0000000000001847
 31
-0.0000000000000198
210
0.0
220
1.0
230
-0.0000000000000002
  0
LINE
  5
352E
  8
0
 10
589.2858951749007019
 20
-73.9999999999999858
 30
0.0000000000000164
 11
689.5361219043820711
 21
-73.9999999999999858
 31
0.0000000000000164
210
0.0
220
1.0
230
-0.0000000000000002
  0
LINE
  5
352F
  8
0
 10
690.4110085396414433
 20
46.0000000000000568
 30
-0.0000000000000102
 11
690.4110085396414433
 21
-63.4760686850977009
 31
0.0000000000000141
210
0.0
220
1.0
230
-0.0000000000000002
  0
LINE
  5
3530
  8
0
 10
588.4110085396414433
 20
46.0000000000000568
 30
-0.0000000000000102
 11
588.4110085396414433
 21
-63.4760686850977009
 31
0.0000000000000141
210
0.0
220
1.0
230
-0.0000000000000002
  0
ARC
  5
3531
  8
0
 10
-600.4110085396348495
 20
-63.4760686850981415
 30
0.0
 40
11.9999999999934008
210
0.0
220
-0.0000000000000002
230
-1.0
 50
354.9999999999993179
 51
0.0000000000021119
  0
ARC
  5
3532
  8
0
 10
-678.4110085396480372
 20
-63.4760686850981415
 30
0.0
 40
11.9999999999934008
210
0.0
220
-0.0000000000000002
230
-1.0
 50
179.9999999999978115
 51
185.0000000000005969
  0
LINE
  5
3533
  8
0
 10
589.2858951749007019
 20
-73.9999999999999858
 30
0.0000000000000164
 11
588.4566721625404853
 21
-64.5219375980696128
 31
0.0000000000000143
210
0.0
220
1.0
230
-0.0000000000000002
  0
LINE
  5
3534
  8
0
 10
689.5361219043820711
 20
-73.9999999999999858
 30
0.0000000000000164
 11
690.3653449167424014
 21
-64.5219375980696128
 31
0.0000000000000143
210
0.0
220
1.0
230
-0.0000000000000002
  0
ARC
  5
3535
  8
0
 10
-722.4110085396414433
 20
68.0000000000001847
 30
0.0
 40
8.0000000000000018
210
0.0
220
-0.0000000000000002
230
-1.0
 50
240.0000000000023022
 51
270.0
  0
ARC
  5
3536
  8
0
 10
-722.4110085396414433
 20
68.0000000000000711
 30
0.0
 40
8.0000000000000568
210
0.0
220
-0.0000000000000002
230
-1.0
 50
180.0
 51
240.0000000000019043
  0
ARC
  5
3537
  8
0
 10
-556.4110085396414433
 20
68.0000000000001847
 30
0.0
 40
8.0000000000000018
210
0.0
220
-0.0000000000000002
230
-1.0
 50
270.0
 51
300.0000000000022169
  0
ARC
  5
3538
  8
0
 10
-556.4110085396414433
 20
68.0000000000000711
 30
0.0
 40
7.9999999999999938
210
0.0
220
-0.0000000000000002
230
-1.0
 50
300.0000000000038085
 51
0.0000000000000572
  0
LINE
  5
3539
  8
0
 10
726.411008539641216
 20
68.0000000000001847
 30
-0.0000000000000151
 11
726.411008539641216
 21
61.071796769724493
 31
-0.0000000000000136
210
0.0
220
1.0
230
-0.0000000000000002
  0
LINE
  5
353A
  8
0
 10
552.4110085396409886
 20
61.071796769724628
 30
-0.0000000000000136
 11
552.4110085396413297
 21
68.0000000000001847
 31
-0.0000000000000151
210
0.0
220
1.0
230
-0.0000000000000002
  0
LINE
  5
353B
  8
0
 10
722.4110085396414433
 20
60.0000000000000711
 30
-0.0000000000000133
 11
556.4110085396414433
 21
60.0000000000000711
 31
-0.0000000000000133
210
0.0
220
1.0
230
-0.0000000000000002
  0
LINE
  5
353C
  8
0
 10
726.411008539641216
 20
68.0000000000001847
 30
-0.0000000000000151
 11
726.411008539641216
 21
84.0000000000001847
 31
-0.0000000000000187
210
0.0
220
1.0
230
-0.0000000000000002
  0
LINE
  5
353D
  8
0
 10
726.411008539641216
 20
89.0000000000001847
 30
-0.0000000000000198
 11
726.411008539641216
 21
99.0000000000001847
 31
-0.000000000000022
210
0.0
220
1.0
230
-0.0000000000000002
  0
LINE
  5
353E
  8
0
 10
552.4110085396406475
 20
68.0000000000001847
 30
-0.0000000000000151
 11
552.4110085396406475
 21
84.0000000000001847
 31
-0.0000000000000187
210
0.0
220
1.0
230
-0.0000000000000002
  0
LINE
  5
353F
  8
0
 10
552.4110085396406475
 20
89.0000000000001847
 30
-0.0000000000000198
 11
552.4110085396406475
 21
99.0000000000001847
 31
-0.000000000000022
210
0.0
220
1.0
230
-0.0000000000000002
  0
LINE
  5
3540
  8
0
 10
552.4110085396406475
 20
99.0000000000001847
 30
-0.000000000000022
 11
726.4110085396406475
 21
99.0000000000001847
 31
-0.000000000000022
210
0.0
220
1.0
230
-0.0000000000000002
  0
LINE
  5
3541
  8
0
 10
730.4110085396414433
 20
68.0000000000000711
 30
-0.0000000000000151
 11
730.4110085396414433
 21
84.0000000000001847
 31
-0.0000000000000187
210
0.0
220
1.0
230
-0.0000000000000002
  0
LINE
  5
3542
  8
0
 10
730.4110085396414433
 20
89.0000000000001847
 30
-0.0000000000000198
 11
730.4110085396414433
 21
99.0000000000000853
 31
-0.000000000000022
210
0.0
220
1.0
230
-0.0000000000000002
  0
LINE
  5
3543
  8
0
 10
726.4110085396414433
 20
99.0000000000000853
 30
-0.000000000000022
 11
730.4110085396414433
 21
99.0000000000000853
 31
-0.000000000000022
210
0.0
220
1.0
230
-0.0000000000000002
  0
LINE
  5
3544
  8
0
 10
548.4110085396414433
 20
99.0000000000000853
 30
-0.000000000000022
 11
552.4110085396413297
 21
99.0000000000000853
 31
-0.000000000000022
210
0.0
220
1.0
230
-0.0000000000000002
  0
LINE
  5
3545
  8
0
 10
548.4110085396414433
 20
68.0000000000000711
 30
-0.0000000000000151
 11
548.4110085396414433
 21
84.0000000000001847
 31
-0.0000000000000187
210
0.0
220
1.0
230
-0.0000000000000002
  0
LINE
  5
3546
  8
0
 10
548.4110085396414433
 20
89.0000000000001847
 30
-0.0000000000000198
 11
548.4110085396414433
 21
99.0000000000000853
 31
-0.000000000000022
210
0.0
220
1.0
230
-0.0000000000000002
  0
ARC
  5
3547
  8
0
 10
-566.7922063861244624
 20
56.0000000000000711
 30
0.0
 40
4.0000000000000027
210
0.0
220
-0.0000000000000002
230
-1.0
 50
89.9999999999998721
 51
149.999999999999801
  0
LINE
  5
3548
  8
0
 10
570.2563080012622549
 20
58.0000000000001279
 30
-0.0000000000000129
 11
574.8751101547791222
 21
50.0000000000001776
 31
-0.0000000000000111
210
0.0
220
1.0
230
-0.0000000000000002
  0
ARC
  5
3549
  8
0
 10
581.8033133850548211
 20
54.0000000000001208
 30
-0.000000000000012
 40
8.0000000000000249
 50
209.9999999999992895
 51
269.9999999999994884
  0
ARC
  5
354A
  8
0
 10
697.018703694228293
 20
53.9999999999999005
 30
-0.000000000000012
 40
7.9999999999998286
 50
270.0
 51
330.0000000000019895
  0
LINE
  5
354B
  8
0
 10
703.9469069245036508
 20
50.0000000000000711
 30
-0.0000000000000111
 11
708.5657090780206318
 21
58.0000000000000071
 31
-0.0000000000000129
210
0.0
220
1.0
230
-0.0000000000000002
  0
ARC
  5
354C
  8
0
 10
-712.0298106931583106
 20
56.0000000000000711
 30
0.0
 40
4.0
210
0.0
220
-0.0000000000000002
230
-1.0
 50
30.0000000000000107
 51
90.0000000000000284
  0
LINE
  5
354D
  8
0
 10
581.8033133850547074
 20
46.0000000000001208
 30
-0.0000000000000102
 11
697.0187036942281793
 21
46.0000000000000497
 31
-0.0000000000000102
210
0.0
220
1.0
230
-0.0000000000000002
  0
LINE
  5
354E
  8
0
  6
VERDECKT
 62
     1
 10
731.4110085396405339
 20
84.0000000000001847
 30
-0.0000000000000187
 11
731.4110085396405339
 21
89.0000000000001847
 31
-0.0000000000000198
210
0.0
220
1.0
230
-0.0000000000000002
  0
LINE
  5
354F
  8
0
  6
VERDECKT
 62
     1
 10
547.4110085396405339
 20
89.0000000000001847
 30
-0.0000000000000198
 11
547.4110085396405339
 21
84.0000000000001847
 31
-0.0000000000000187
210
0.0
220
1.0
230
-0.0000000000000002
  0
LINE
  5
3550
  8
0
  6
VERDECKT
 62
     1
 10
591.2782845710842139
 20
-73.8256885145046766
 30
0.0000000000000164
 11
687.5437325081985591
 21
-73.8256885145046766
 31
0.0000000000000164
210
0.0
220
1.0
230
-0.0000000000000002
  0
LINE
  5
3551
  8
0
  6
VERDECKT
 62
     1
 10
687.5437325081985591
 20
-73.8256885145046766
 30
0.0000000000000164
 11
689.5361219043820711
 21
-73.9999999999999858
 31
0.0000000000000164
210
0.0
220
1.0
230
-0.0000000000000002
  0
LINE
  5
3552
  8
0
  6
VERDECKT
 62
     1
 10
591.2782845710842139
 20
-73.8256885145046766
 30
0.0000000000000164
 11
589.2858951749007019
 21
-73.9999999999999858
 31
0.0000000000000164
210
0.0
220
1.0
230
-0.0000000000000002
  0
LINE
  5
3553
  8
0
  6
VERDECKT
 62
     1
 10
591.2782845710842139
 20
-73.8256885145046766
 30
0.0000000000000164
 11
590.4490615587238835
 21
-64.3476261125743036
 31
0.0000000000000143
210
0.0
220
1.0
230
-0.0000000000000002
  0
LINE
  5
3554
  8
0
  6
VERDECKT
 62
     1
 10
687.5437325081985591
 20
-73.8256885145046766
 30
0.0000000000000164
 11
688.3729555205587758
 21
-64.3476261125743036
 31
0.0000000000000143
210
0.0
220
1.0
230
-0.0000000000000002
  0
ARC
  5
3555
  8
0
  6
VERDECKT
 62
     1
 10
-600.4110085396262093
 20
-63.4760686850982765
 30
0.0
 40
9.9999999999847642
210
0.0
220
-0.0000000000000002
230
-1.0
 50
354.9999999999955094
 51
0.0000000000032951
  0
ARC
  5
3556
  8
0
  6
VERDECKT
 62
     1
 10
-678.4110085396566774
 20
-63.4760686850982765
 30
0.0
 40
9.9999999999847642
210
0.0
220
-0.0000000000000002
230
-1.0
 50
179.9999999999967031
 51
185.0000000000044054
  0
LINE
  5
3557
  8
0
  6
VERDECKT
 62
     1
 10
688.4110085396414433
 20
46.0000000000000568
 30
-0.0000000000000102
 11
688.4110085396414433
 21
-63.4760686850977009
 31
0.0000000000000141
210
0.0
220
1.0
230
-0.0000000000000002
  0
LINE
  5
3558
  8
0
  6
VERDECKT
 62
     1
 10
590.4110085396414433
 20
46.0000000000000568
 30
-0.0000000000000102
 11
590.4110085396414433
 21
-63.4760686850977009
 31
0.0000000000000141
210
0.0
220
1.0
230
-0.0000000000000002
  0
LINE
  5
3559
  8
0
  6
VERDECKT
 62
     1
 10
726.411008539641216
 20
84.0000000000001847
 30
-0.0000000000000187
 11
726.411008539641216
 21
89.0000000000001847
 31
-0.0000000000000198
210
0.0
220
1.0
230
-0.0000000000000002
  0
LINE
  5
355A
  8
0
  6
VERDECKT
 62
     1
 10
552.4110085396406475
 20
84.0000000000001847
 30
-0.0000000000000187
 11
552.4110085396406475
 21
89.0000000000001847
 31
-0.0000000000000198
210
0.0
220
1.0
230
-0.0000000000000002
  0
ARC
  5
355B
  8
0
  6
VERDECKT
 62
     1
 10
556.4110085396413297
 20
68.0000000000001847
 30
-0.0000000000000151
 40
4.0
 50
180.0000000000015064
 51
270.0
  0
ARC
  5
355C
  8
0
  6
VERDECKT
 62
     1
 10
722.4110085396414433
 20
68.0000000000001847
 30
-0.0000000000000151
 40
4.0
 50
270.0
 51
359.9999999999984084
  0
LINE
  5
355D
  8
0
  6
VERDECKT
 62
     1
 10
722.4110085396414433
 20
64.0000000000000711
 30
-0.0000000000000142
 11
556.4110085396413297
 21
64.0000000000000853
 31
-0.0000000000000142
210
0.0
220
1.0
230
-0.0000000000000002
  0
LINE
  5
355E
  8
0
  6
VERDECKT
 62
     1
 10
730.4110085396414433
 20
84.0000000000001847
 30
-0.0000000000000187
 11
730.4110085396414433
 21
89.0000000000001847
 31
-0.0000000000000198
210
0.0
220
1.0
230
-0.0000000000000002
  0
LINE
  5
355F
  8
0
  6
VERDECKT
 62
     1
 10
548.4110085396414433
 20
84.0000000000001847
 30
-0.0000000000000187
 11
548.4110085396414433
 21
89.0000000000001847
 31
-0.0000000000000198
210
0.0
220
1.0
230
-0.0000000000000002
  0
ARC
  5
3560
  8
0
  6
VERDECKT
 62
     1
 10
-566.7922063861241213
 20
56.0000000000000071
 30
0.0
 40
8.0000000000000568
210
0.0
220
-0.0000000000000002
230
-1.0
 50
90.0
 51
150.0000000000005116
  0
ARC
  5
3561
  8
0
  6
VERDECKT
 62
     1
 10
712.0298106931584243
 20
56.0000000000000711
 30
-0.0000000000000124
 40
8.0
 50
90.0
 51
149.9999999999969873
  0
LINE
  5
3562
  8
0
  6
VERDECKT
 62
     1
 10
578.3392117699162327
 20
52.0000000000002984
 30
-0.0000000000000115
 11
573.7204096163995928
 21
59.9999999999999574
 31
-0.0000000000000133
210
0.0
220
1.0
230
-0.0000000000000002
  0
ARC
  5
3563
  8
0
  6
VERDECKT
 62
     1
 10
581.8033133850542526
 20
54.0000000000002984
 30
-0.000000000000012
 40
4.0000000000001696
 50
209.9999999999996874
 51
269.9999999999984084
  0
ARC
  5
3564
  8
0
  6
VERDECKT
 62
     1
 10
697.0187036942279519
 20
54.0000000000000711
 30
-0.000000000000012
 40
3.9999999999999098
 50
269.99999999999892
 51
329.9999999999993747
  0
LINE
  5
3565
  8
0
  6
VERDECKT
 62
     1
 10
697.0187036942279519
 20
50.0000000000001279
 30
-0.0000000000000111
 11
581.803313385054139
 21
50.0000000000001421
 31
-0.0000000000000111
210
0.0
220
1.0
230
-0.0000000000000002
  0
LINE
  5
3566
  8
0
  6
VERDECKT
 62
     1
 10
705.1016074628829529
 20
60.0000000000004121
 30
-0.0000000000000133
 11
700.4828053093656308
 21
52.0000000000000711
 31
-0.0000000000000115
210
0.0
220
1.0
230
-0.0000000000000002
  0
LINE
  5
3567
  8
0
  6
VERDECKT
 62
     1
 10
590.4110085396414433
 20
46.0000000000001776
 30
-0.0000000000000102
 11
590.4110085396414433
 21
50.0000000000002416
 31
-0.0000000000000111
210
0.0
220
1.0
230
-0.0000000000000002
  0
LINE
  5
3568
  8
0
  6
VERDECKT
 62
     1
 10
688.4110085396414433
 20
46.0000000000000426
 30
-0.0000000000000102
 11
688.4110085396414433
 21
50.0000000000001279
 31
-0.0000000000000111
210
0.0
220
1.0
230
-0.0000000000000002
  0
ENDBLK
  5
356A
  8
0
  0
ENDSEC
  0
SECTION
  2
ENTITIES
  0
TEXT
  5
8F
  8
VOLL
 10
78.076754716981128
 20
31.025947764705851
 30
0.0
 40
1.8
  1

  7
GREEKS
  0
INSERT
  5
C0C
  8
ADSK_ASSOC_ENTITY_BACKUPS
  2
*S2
 10
0.0
 20
0.0
 30
0.0
  0
INSERT
  5
3527
  8
STEMPEL
  2
A$C34797265
 10
540.8575038002385327
 20
-316.8817661225115785
 30
-55.3479086865045602
  0
INSERT
  5
356B
  8
STEMPEL
  2
A$C160A6F8D
 10
383.8920445866448858
 20
248.790249010546205
 30
-55.3479086865044394
  0
VIEWPORT
  5
928
 67
     1
  8
0
 10
146.0145199517650099
 20
205.6296860293298039
 30
0.0
 40
755.1471947795562301
 41
423.0035756853396265
 68
     1
 69
     1
1001
ACAD
1000
MVIEW
1002
{
1070
    16
1010
0.0
1020
0.0
1030
0.0
1010
0.0
1020
0.0
1030
1.0
1040
0.0
1040
423.0035756853396265
1040
146.0145199517650099
1040
205.6296860293298039
1040
50.0
1040
0.0
1040
0.0
1070
     0
1070
  1500
1070
     1
1070
     1
1070
     0
1070
     0
1070
     0
1070
     0
1040
0.0
1040
0.0
1040
0.0
1040
10.0
1040
10.0
1040
10.0
1040
10.0
1070
     0
1002
{
1002
}
1002
}
  0
TEXT
  8
BEM
  40
3
  5
35C2
  50
270.000
  72
0
  71
0
210
0.000000
220
0.000000
230
-1.00000
 10
-86.9552
 20
305.037
 30
0.000000
  1
  
  0
TEXT
  8
BEM
  40
3
  5
35C3
  50
270.000
  72
0
  71
0
210
0.000000
220
0.000000
230
-1.00000
 10
-66.9552
 20
343.537
 30
0.000000
  1
  
  0
INSERT
  5
3416
 67
     1
  8
BEM
 62
     2
  2
_NONE
 10
84.3980399999993836
 20
164.092159999999609
 30
0.0
 41
3.0
 42
3.0
 43
3.0
 50
277.0379407631846789
  0
INSERT
  5
341B
 67
     1
  8
BEM
 62
     2
  2
_NONE
 10
149.3980399999992983
 20
184.592159999999609
 30
0.0
 41
3.0
 42
3.0
 43
3.0
 50
284.036243467926397
  0
ENDSEC
  0
EOF
