  0
SECTION
  2
HEADER
  9
$ACADVER
  1
AC1009
  9
$INSBASE
 10
0.0
 20
0.0
 30
0.0
  9
$EXTMIN
 10
708.3494113637055989
 20
-136.9068699070770947
 30
-34.5973569241668315
  9
$EXTMAX
 10
1008.3494113637050305
 20
381.4425018196981227
 30
-34.5973569241667605
  9
$LIMMIN
 10
0.0
 20
0.0
  9
$LIMMAX
 10
420.0
 20
297.0
  9
$ORTHOMODE
 70
     1
  9
$REGENMODE
 70
     1
  9
$FILLMODE
 70
     1
  9
$QTEXTMODE
 70
     0
  9
$MIRRTEXT
 70
     1
  9
$DRAGMODE
 70
     2
  9
$LTSCALE
 40
10.0
  9
$OSMODE
 70
  2495
  9
$ATTMODE
 70
     1
  9
$TEXTSIZE
 40
3.5
  9
$TRACEWID
 40
1.0
  9
$TEXTSTYLE
  7
STANDARD
  9
$CLAYER
  8
STEMPEL
  9
$CELTYPE
  6
BYLAYER
  9
$CECOLOR
 62
   256
  9
$DIMSCALE
 40
1.0
  9
$DIMASZ
 40
3.5
  9
$DIMEXO
 40
1.0
  9
$DIMDLI
 40
7.0
  9
$DIMRND
 40
0.0
  9
$DIMDLE
 40
0.0
  9
$DIMEXE
 40
1.0
  9
$DIMTP
 40
0.0
  9
$DIMTM
 40
0.0
  9
$DIMTXT
 40
3.5
  9
$DIMCEN
 40
1.5
  9
$DIMTSZ
 40
0.0
  9
$DIMTOL
 70
     0
  9
$DIMLIM
 70
     0
  9
$DIMTIH
 70
     0
  9
$DIMTOH
 70
     0
  9
$DIMSE1
 70
     0
  9
$DIMSE2
 70
     0
  9
$DIMTAD
 70
     1
  9
$DIMZIN
 70
     8
  9
$DIMBLK
  1

  9
$DIMASO
 70
     1
  9
$DIMSHO
 70
     0
  9
$DIMPOST
  1

  9
$DIMAPOST
  1

  9
$DIMALT
 70
     0
  9
$DIMALTD
 70
     2
  9
$DIMALTF
 40
25.3999999999999986
  9
$DIMLFAC
 40
2.0
  9
$DIMTOFL
 70
     1
  9
$DIMTVP
 40
0.0
  9
$DIMTIX
 70
     0
  9
$DIMSOXD
 70
     0
  9
$DIMSAH
 70
     0
  9
$DIMBLK1
  1

  9
$DIMBLK2
  1

  9
$DIMSTYLE
  2
STANDARD
  9
$DIMCLRD
 70
     0
  9
$DIMCLRE
 70
     0
  9
$DIMCLRT
 70
     1
  9
$DIMTFAC
 40
0.5142857142857143
  9
$DIMGAP
 40
1.5
  9
$LUNITS
 70
     2
  9
$LUPREC
 70
     2
  9
$SKETCHINC
 40
1.0
  9
$FILLETRAD
 40
14.5
  9
$AUNITS
 70
     0
  9
$AUPREC
 70
     0
  9
$MENU
  1
ACAD
  9
$ELEVATION
 40
0.0
  9
$PELEVATION
 40
0.0
  9
$THICKNESS
 40
0.0
  9
$LIMCHECK
 70
     0
  9
$BLIPMODE
 70
     0
  9
$CHAMFERA
 40
0.0
  9
$CHAMFERB
 40
0.0
  9
$SKPOLY
 70
     0
  9
$TDCREATE
 40
2455397.867048610933125
  9
$TDUPDATE
 40
2459677.5983217591419816
  9
$TDINDWG
 40
0.2621700579
  9
$TDUSRTIMER
 40
0.2621700579
  9
$USRTIMER
 70
     1
  9
$ANGBASE
 50
0.0
  9
$ANGDIR
 70
     0
  9
$PDMODE
 70
     0
  9
$PDSIZE
 40
0.0
  9
$PLINEWID
 40
0.0
  9
$COORDS
 70
     1
  9
$SPLFRAME
 70
     0
  9
$SPLINETYPE
 70
     6
  9
$SPLINESEGS
 70
     8
  9
$ATTDIA
 70
     1
  9
$ATTREQ
 70
     1
  9
$HANDLING
 70
     1
  9
$HANDSEED
  5
15DF
  9
$SURFTAB1
 70
     6
  9
$SURFTAB2
 70
     6
  9
$SURFTYPE
 70
     6
  9
$SURFU
 70
     6
  9
$SURFV
 70
     6
  9
$UCSNAME
  2

  9
$UCSORG
 10
0.0
 20
0.0
 30
0.0
  9
$UCSXDIR
 10
1.0
 20
0.0
 30
0.0
  9
$UCSYDIR
 10
0.0
 20
1.0
 30
0.0
  9
$PUCSNAME
  2

  9
$PUCSORG
 10
0.0
 20
0.0
 30
0.0
  9
$PUCSXDIR
 10
1.0
 20
0.0
 30
0.0
  9
$PUCSYDIR
 10
0.0
 20
1.0
 30
0.0
  9
$USERI1
 70
     0
  9
$USERI2
 70
     0
  9
$USERI3
 70
     0
  9
$USERI4
 70
     0
  9
$USERI5
 70
     0
  9
$USERR1
 40
0.0
  9
$USERR2
 40
0.0
  9
$USERR3
 40
0.0
  9
$USERR4
 40
0.0
  9
$USERR5
 40
0.0
  9
$WORLDVIEW
 70
     1
  9
$SHADEDGE
 70
     3
  9
$SHADEDIF
 70
    70
  9
$TILEMODE
 70
     1
  9
$MAXACTVP
 70
    16
  9
$PLIMCHECK
 70
     0
  9
$PEXTMIN
 10
1.0000000000000000E+20
 20
1.0000000000000000E+20
 30
1.0000000000000000E+20
  9
$PEXTMAX
 10
-1.0000000000000000E+20
 20
-1.0000000000000000E+20
 30
-1.0000000000000000E+20
  9
$PLIMMIN
 10
-0.2235748722471271
 20
-0.2236770411572593
  9
$PLIMMAX
 10
296.7764251277528729
 20
419.7763229588426839
  9
$UNITMODE
 70
     0
  9
$VISRETAIN
 70
     0
  9
$PLINEGEN
 70
     0
  9
$PSLTSCALE
 70
     0
  0
ENDSEC
  0
SECTION
  2
TABLES
  0
TABLE
  2
VPORT
 70
     1
  0
VPORT
  2
*ACTIVE
 70
     0
 10
0.0
 20
0.0
 11
1.0
 21
1.0
 12
0.7143699909728412
 22
-163.6880885262958998
 13
0.0
 23
0.0
 14
1.0
 24
1.0
 15
10.0
 25
10.0
 16
-0.0000000000002274
 26
0.0
 36
1061.0442068931799895
 17
857.635041372732644
 27
285.9559044826062859
 37
-17.2986784620833411
 40
522.0562802254172539
 41
1.7852028639618129
 42
50.0
 43
0.0
 44
0.0
 50
0.0
 51
0.0
 71
     0
 72
  1500
 73
     1
 74
     0
 75
     0
 76
     0
 77
     0
 78
     0
  0
ENDTAB
  0
TABLE
  2
LTYPE
 70
     7
  0
LTYPE
  2
CONTINUOUS
 70
     0
  3
Solid line
 72
    65
 73
     0
 40
0.0
  0
LTYPE
  2
AUSGEZOGEN
 70
     0
  3
Ausgezogene Linie
 72
    65
 73
     0
 40
0.0
  0
LTYPE
  2
PHANTOM2
 70
     0
  3
Phantom (.5x) ___ _ _ ___ _ _ ___ _ _ ___ _ _
 72
    65
 73
     6
 40
1.25
 49
0.625
 49
-0.125
 49
0.125
 49
-0.125
 49
0.125
 49
-0.125
  0
LTYPE
  2
VERDECKT
 70
     0
  3
Verdeckt __ __ __ __ __ __ __ __ __ __ __ __ __
 72
    65
 73
     2
 40
0.375
 49
0.25
 49
-0.125
  0
ENDTAB
  0
TABLE
  2
LAYER
 70
    14
  0
LAYER
  2
0
 70
     0
 62
     7
  6
CONTINUOUS
  0
LAYER
  2
STEMPEL
 70
     0
 62
     3
  6
CONTINUOUS
  0
LAYER
  2
DEFPOINTS
 70
     0
 62
     7
  6
AUSGEZOGEN
  0
LAYER
  2
ADSK_ASSOC_ENTITY_BACKUPS
 70
     1
 62
    -7
  6
CONTINUOUS
  0
ENDTAB
  0
TABLE
  2
STYLE
 70
     4
  0
STYLE
  2
STANDARD
 70
     0
 40
0.0
 41
0.8
 50
0.0
 71
     0
 42
3.5
  3
simplex.shx
  4

  0
ENDTAB
  0
TABLE
  2
VIEW
 70
     1
  0
ENDTAB
  0
TABLE
  2
UCS
 70
     0
  0
ENDTAB
  0
TABLE
  2
APPID
 70
    23
  0
APPID
  2
ACAD
 70
     0
  0
APPID
  2
ACAD_NAV_VCDISPLAY
 70
     0
  0
APPID
  2
GRADIENTCOLOR1ACI
 70
     0
  0
APPID
  2
GRADIENTCOLOR2ACI
 70
     0
  0
APPID
  2
ACAD_DSTYLE_DIMRADIAL_EXTENSION
 70
     0
  0
APPID
  2
ACADANNOMONITORALERTICONDI
 70
     0
  0
APPID
  2
ACAD_EXEMPT_FROM_CAD_STANDARDS
 70
     0
  0
APPID
  2
ACAD_MLEADERVER
 70
     0
  0
APPID
  2
ACAD_PSEXT
 70
     0
  0
APPID
  2
ACAECLAYERSTANDARD
 70
     0
  0
APPID
  2
ACAUTHENVIRON
 70
     0
  0
APPID
  2
ACCMTRANSPARENCY
 70
     0
  0
APPID
  2
ACSYNERGY
 70
     0
  0
APPID
  2
SYNERGY_BODY_TBR_ID
 70
     0
  0
APPID
  2
ACAD_VIEW_EDGE_ID
 70
     0
  0
APPID
  2
ACSYNERGYSKETCH
 70
     0
  0
APPID
  2
ACAD_MODELDOC_XFORM
 70
     0
  0
APPID
  2
ACAD_DSTYLE_DIMJAG
 70
     0
  0
APPID
  2
ACAD_DSTYLE_DIMTALN
 70
     0
  0
APPID
  2
ACAD_DIMASSOC_CALC_DIMLFAC
 70
     0
  0
APPID
  2
ACAD_DIMASSOC_DIMLFAC
 70
     0
  0
APPID
  2
ACAD_DIMASSOC_OVERRIDDEN_D
 70
     0
  0
APPID
  2
AcDbAttr
 70
     0
  0
ENDTAB
  0
TABLE
  2
DIMSTYLE
 70
     2
  0
DIMSTYLE
  2
STANDARD
 70
     0
  3

  4

  5

  6

  7

 40
1.0
 41
0.18
 42
0.0625
 43
0.38
 44
0.18
 45
0.0
 46
0.0
 47
0.0
 48
0.0
140
0.18
141
0.09
142
0.0
143
25.3999999999999986
144
1.0
145
0.0
146
1.0
147
0.09
 71
     0
 72
     0
 73
     1
 74
     1
 75
     0
 76
     0
 77
     0
 78
     0
170
     0
171
     2
172
     0
173
     0
174
     0
175
     0
176
     0
177
     0
178
     0
  0
ENDTAB
  0
ENDSEC
  0
SECTION
  2
BLOCKS
  0
BLOCK
  8
0
  2
$MODEL_SPACE
 70
     0
 10
0.0
 20
0.0
 30
0.0
  3
$MODEL_SPACE
  1

  0
ENDBLK
  5
38
  8
0
  0
BLOCK
 67
     1
  8
0
  2
$PAPER_SPACE
 70
     0
 10
0.0
 20
0.0
 30
0.0
  3
$PAPER_SPACE
  1

  0
ENDBLK
  5
36
 67
     1
  8
0
  0
BLOCK
  8
0
  2
*S3
 70
     1
 10
0.0
 20
0.0
 30
0.0
  3
*S3
  1

  0
ENDBLK
  5
F93
  8
0
  0
BLOCK
  8
0
  2
A$CF378E6D4
 70
     0
 10
0.0
 20
0.0
 30
0.0
  3
A$CF378E6D4
  1

  0
LINE
  5
1515
  8
0
 10
573.6134813918630471
 20
393.6790915273946894
 30
0.0000000000001137
 11
573.6134813918630471
 21
189.6790915273948883
 31
0.0000000000001137
  0
LINE
  5
1516
  8
0
 10
369.6134813918632744
 20
393.6790915273945757
 30
0.0000000000000711
 11
573.6134813918630471
 21
393.6790915273946894
 31
0.0000000000001124
  0
LINE
  5
1517
  8
0
 10
369.6134813918632176
 20
189.6790915273946041
 30
0.0000000000000711
 11
369.6134813918632744
 21
393.6790915273945757
 31
0.0000000000000711
  0
LINE
  5
1518
  8
0
 10
573.6134813918630471
 20
189.6790915273948883
 30
0.0000000000001137
 11
369.6134813918632176
 21
189.6790915273946041
 31
0.0000000000000723
  0
LINE
  5
1519
  8
0
 10
621.6134813918630471
 20
140.9290915273948031
 30
0.0000000000001279
 11
621.6134813918630471
 21
440.9290915273949167
 31
0.0000000000001279
  0
LINE
  5
151A
  8
0
 10
321.6134813918632176
 20
140.9290915273948031
 30
0.0000000000000711
 11
621.6134813918630471
 21
140.9290915273948031
 31
0.0000000000001319
  0
LINE
  5
151B
  8
0
 10
321.6134813918632176
 20
440.9290915273949167
 30
0.0000000000000711
 11
321.6134813918632176
 21
140.9290915273948031
 31
0.0000000000000711
  0
LINE
  5
151C
  8
0
 10
621.6134813918630471
 20
440.9290915273949167
 30
0.0000000000001279
 11
321.6134813918632176
 21
440.9290915273949167
 31
0.0000000000000671
  0
CIRCLE
  5
151D
  8
0
 10
471.6134813918631039
 20
290.9290915273948031
 30
0.0000000000000924
 40
63.1441762133698603
  0
LINE
  5
151E
  8
0
 10
375.1134813918632176
 20
391.4290915273949167
 30
0.0000000000000711
 11
375.1134813918632176
 21
387.4290915273949167
 31
0.0000000000000711
  0
LINE
  5
151F
  8
0
 10
375.1134813918632176
 20
387.4290915273949167
 30
0.0000000000000711
 11
371.1134813918631039
 21
387.4290915273949167
 31
0.0000000000000702
  0
LINE
  5
1520
  8
0
 10
568.1134813918630471
 20
194.4290915273948031
 30
0.0000000000001137
 11
572.1134813918630471
 21
194.4290915273948031
 31
0.0000000000001145
  0
LINE
  5
1521
  8
0
 10
568.1134813918630471
 20
190.4290915273948031
 30
0.0000000000001137
 11
568.1134813918630471
 21
194.4290915273948031
 31
0.0000000000001137
  0
LINE
  5
1522
  8
0
 10
568.1134813918630471
 20
387.4290915273949167
 30
0.0000000000001137
 11
568.1134813918630471
 21
391.4290915273949167
 31
0.0000000000001137
  0
LINE
  5
1523
  8
0
 10
572.1134813918630471
 20
387.4290915273949167
 30
0.0000000000001137
 11
568.1134813918630471
 21
387.4290915273949167
 31
0.0000000000001129
  0
LINE
  5
1524
  8
0
 10
371.1134813918631039
 20
194.4290915273948031
 30
0.0000000000000711
 11
375.1134813918632176
 21
194.4290915273948031
 31
0.0000000000000719
  0
LINE
  5
1525
  8
0
 10
375.1134813918632176
 20
194.4290915273948031
 30
0.0000000000000711
 11
375.1134813918632176
 21
190.4290915273948031
 31
0.0000000000000711
  0
LINE
  5
1526
  8
0
 10
375.1134813918632176
 20
391.4290915273949167
 30
0.0000000000000711
 11
568.1134813918630471
 21
391.4290915273949167
 31
0.0000000000001102
  0
LINE
  5
1527
  8
0
 10
572.1134813918630471
 20
387.4290915273949167
 30
0.0000000000001137
 11
572.1134813918630471
 21
194.4290915273948031
 31
0.0000000000001137
  0
LINE
  5
1528
  8
0
 10
568.1134813918630471
 20
387.4290915273949167
 30
0.0000000000001137
 11
568.1134813918630471
 21
194.4290915273948031
 31
0.0000000000001137
  0
LINE
  5
1529
  8
0
 10
568.1134813918630471
 20
194.4290915273948031
 30
0.0000000000001137
 11
375.1134813918632176
 21
194.4290915273948031
 31
0.0000000000000746
  0
LINE
  5
152A
  8
0
 10
568.1134813918630471
 20
190.4290915273948031
 30
0.0000000000001137
 11
375.1134813918632176
 21
190.4290915273948031
 31
0.0000000000000746
  0
LINE
  5
152B
  8
0
 10
371.1134813918631039
 20
194.4290915273948031
 30
0.0000000000000711
 11
371.1134813918631039
 21
387.4290915273949167
 31
0.0000000000000711
  0
LINE
  5
152C
  8
0
 10
375.1134813918632176
 20
194.4290915273948031
 30
0.0000000000000711
 11
375.1134813918632176
 21
387.4290915273949167
 31
0.0000000000000711
  0
LINE
  5
152D
  8
0
 10
375.1134813918632176
 20
387.4290915273949167
 30
0.0000000000000711
 11
568.1134813918630471
 21
387.4290915273949167
 31
0.0000000000001102
  0
CIRCLE
  5
152E
  8
0
 10
471.6134813918631039
 20
290.9290915273948031
 30
0.0000000000000995
 40
64.0
  0
LINE
  5
152F
  8
0
 10
375.1134813918631039
 20
387.4290915273949167
 30
0.0000000000000711
 11
379.1134813918631039
 21
383.4290915273949167
 31
0.0000000000000711
  0
LINE
  5
1530
  8
0
 10
568.1134813918630471
 20
387.4290915273949167
 30
0.0000000000001137
 11
564.1134813918631608
 21
383.4290915273949167
 31
0.0000000000001137
  0
LINE
  5
1531
  8
0
 10
397.9021434204311731
 20
364.6404294988267907
 30
0.0000000000000853
 11
401.2737354297074717
 21
361.2688374895503785
 31
0.0000000000000853
  0
LINE
  5
1532
  8
0
 10
545.3248193632949778
 20
364.6404294988267907
 30
0.0000000000001137
 11
541.9532273540188498
 21
361.2688374895504921
 31
0.0000000000001137
  0
LINE
  5
1533
  8
0
 10
394.73786325689872
 20
367.8047096623594143
 30
0.0000000000000853
 11
397.9021434204311731
 21
364.6404294988267907
 31
0.0000000000000862
  0
LINE
  5
1534
  8
0
 10
548.4890995268275447
 20
367.8047096623594143
 30
0.0000000000001137
 11
545.3248193632949778
 21
364.6404294988267907
 31
0.0000000000001128
  0
LINE
  5
1535
  8
0
 10
394.73786325689872
 20
367.8047096623594143
 30
0.0000000000000853
 11
387.9946792383461229
 21
374.5478936809118977
 31
0.0000000000000853
  0
LINE
  5
1536
  8
0
 10
548.4890995268275447
 20
367.8047096623594143
 30
0.0000000000001137
 11
555.2322835453801417
 21
374.5478936809118977
 31
0.0000000000001137
  0
LINE
  5
1537
  8
0
 10
375.1134813918631039
 20
194.4290915273948031
 30
0.0000000000000711
 11
379.1134813918631039
 21
198.4290915273948031
 31
0.0000000000000711
  0
LINE
  5
1538
  8
0
 10
397.9021434204311731
 20
217.2177535559629007
 30
0.0000000000000853
 11
401.2737354297074148
 21
220.5893455652391992
 31
0.0000000000000853
  0
LINE
  5
1539
  8
0
 10
394.73786325689872
 20
214.0534733924303055
 30
0.0000000000000853
 11
397.9021434204311731
 21
217.2177535559629007
 31
0.0000000000000862
  0
LINE
  5
153A
  8
0
 10
394.73786325689872
 20
214.0534733924303055
 30
0.0000000000000853
 11
387.9946792383461229
 21
207.3102893738777937
 31
0.0000000000000853
  0
LINE
  5
153B
  8
0
 10
568.1134813918630471
 20
194.4290915273948031
 30
0.0000000000001137
 11
564.1134813918631608
 21
198.4290915273948031
 31
0.0000000000001137
  0
LINE
  5
153C
  8
0
 10
545.3248193632949778
 20
217.2177535559629007
 30
0.0000000000001137
 11
541.9532273540188498
 21
220.5893455652391992
 31
0.0000000000001137
  0
LINE
  5
153D
  8
0
 10
548.4890995268275447
 20
214.0534733924303055
 30
0.0000000000001137
 11
545.3248193632949778
 21
217.2177535559629007
 31
0.0000000000001128
  0
LINE
  5
153E
  8
0
 10
548.4890995268275447
 20
214.0534733924303055
 30
0.0000000000001137
 11
555.2322835453801417
 21
207.3102893738777937
 31
0.0000000000001137
  0
CIRCLE
  5
153F
  8
0
  6
VERDECKT
 62
     1
 10
471.6134813918631039
 20
290.9290915273948031
 30
0.0000000000000924
 40
66.5
  0
CIRCLE
  5
1540
  8
0
  6
VERDECKT
 62
     1
 10
471.6134813918631039
 20
290.9290915273948031
 30
0.0000000000000924
 40
65.634662958599165
  0
ENDBLK
  5
1542
  8
0
  0
BLOCK
  8
0
  2
A$CAED35B7F
 70
     0
 10
0.0
 20
0.0
 30
0.0
  3
A$CAED35B7F
  1

  0
LINE
  5
1546
  8
0
 10
621.6134813918630471
 20
78.0000000000002416
 30
-0.0000000000000173
 11
621.6134813918630471
 21
83.0000000000002274
 31
-0.0000000000000184
210
0.0
220
1.0
230
-0.0000000000000002
  0
LINE
  5
1547
  8
0
 10
321.6134813918632176
 20
78.0000000000002416
 30
-0.0000000000000173
 11
621.6134813918630471
 21
78.0000000000002416
 31
-0.0000000000000173
210
0.0
220
1.0
230
-0.0000000000000002
  0
LINE
  5
1548
  8
0
 10
321.6134813918632176
 20
83.0000000000002274
 30
-0.0000000000000184
 11
621.6134813918630471
 21
83.0000000000002274
 31
-0.0000000000000184
210
0.0
220
1.0
230
-0.0000000000000002
  0
LINE
  5
1549
  8
0
 10
321.6134813918632176
 20
78.0000000000002416
 30
-0.0000000000000173
 11
321.6134813918632176
 21
83.0000000000002274
 31
-0.0000000000000184
210
0.0
220
1.0
230
-0.0000000000000002
  0
LINE
  5
154A
  8
0
 10
405.9788184332638821
 20
-60.0000000000000711
 30
0.0000000000000133
 11
537.2481443504623257
 21
-60.0000000000000711
 31
0.0000000000000133
210
0.0
220
1.0
230
-0.0000000000000002
  0
LINE
  5
154B
  8
0
 10
538.1134813918630471
 20
59.9999999999999574
 30
-0.0000000000000133
 11
538.1134813918630471
 21
-49.4760686850979781
 31
0.000000000000011
210
0.0
220
1.0
230
-0.0000000000000002
  0
LINE
  5
154C
  8
0
 10
405.1134813918631039
 20
59.9999999999999574
 30
-0.0000000000000133
 11
405.1134813918631039
 21
-49.4760686850979781
 31
0.000000000000011
210
0.0
220
1.0
230
-0.0000000000000002
  0
ARC
  5
154D
  8
0
 10
-419.6134813918810096
 20
-49.4760686850972604
 30
0.0
 40
14.5000000000179003
210
0.0
220
-0.0000000000000002
230
-1.0
 50
355.0000000000035243
 51
359.9999999999972147
  0
ARC
  5
154E
  8
0
 10
-523.6134813918749842
 20
-49.4760686850992215
 30
0.0
 40
14.4999999999880593
210
0.0
220
-0.0000000000000002
230
-1.0
 50
179.9999999999951115
 51
184.9999999999990052
  0
LINE
  5
154F
  8
0
 10
405.9788184332638821
 20
-60.0000000000000711
 30
0.0000000000000133
 11
405.1686582695327843
 21
-50.7398269549389767
 31
0.0000000000000113
210
0.0
220
1.0
230
-0.0000000000000002
  0
LINE
  5
1550
  8
0
 10
537.2481443504623257
 20
-60.0000000000000711
 30
0.0000000000000133
 11
538.0583045141934235
 21
-50.7398269549389767
 31
0.0000000000000113
210
0.0
220
1.0
230
-0.0000000000000002
  0
LINE
  5
1551
  8
0
 10
572.1134813918630471
 20
93.0000000000002274
 30
-0.0000000000000207
 11
572.1134813918630471
 21
83.0000000000002274
 31
-0.0000000000000184
210
0.0
220
1.0
230
-0.0000000000000002
  0
LINE
  5
1552
  8
0
 10
568.1134813918630471
 20
93.0000000000002274
 30
-0.0000000000000207
 11
572.1134813918630471
 21
93.0000000000002274
 31
-0.0000000000000207
210
0.0
220
1.0
230
-0.0000000000000002
  0
ARC
  5
1553
  8
0
 10
-564.1134813918625923
 20
78.5000000000003553
 30
0.0
 40
8.0000000000003766
210
0.0
220
-0.0000000000000002
230
-1.0
 50
183.5833216984725027
 51
239.9999999999982094
  0
LINE
  5
1554
  8
0
 10
568.1134813918630471
 20
83.0000000000002274
 30
-0.0000000000000184
 11
568.1134813918630471
 21
93.0000000000002274
 31
-0.0000000000000207
210
0.0
220
1.0
230
-0.0000000000000002
  0
LINE
  5
1555
  8
0
 10
568.1134813918630471
 20
78.0000000000002416
 30
-0.0000000000000173
 11
568.1134813918630471
 21
71.5717967697246564
 31
-0.0000000000000159
210
0.0
220
1.0
230
-0.0000000000000002
  0
ARC
  5
1556
  8
0
 10
-379.1134813918629902
 20
78.5000000000000142
 30
0.0
 40
7.9999999999997833
210
0.0
220
-0.0000000000000002
230
-1.0
 50
299.9999999999993747
 51
356.4166783015296005
  0
LINE
  5
1557
  8
0
 10
371.1134813918631039
 20
93.0000000000002274
 30
-0.0000000000000207
 11
375.1134813918632176
 21
93.0000000000002274
 31
-0.0000000000000207
210
0.0
220
1.0
230
-0.0000000000000002
  0
LINE
  5
1558
  8
0
 10
371.1134813918631039
 20
83.0000000000002274
 30
-0.0000000000000184
 11
371.1134813918631039
 21
93.0000000000002274
 31
-0.0000000000000207
210
0.0
220
1.0
230
-0.0000000000000002
  0
LINE
  5
1559
  8
0
 10
375.1134813918632176
 20
71.5717967697246422
 30
-0.0000000000000159
 11
375.1134813918632176
 21
78.0000000000002416
 31
-0.0000000000000173
210
0.0
220
1.0
230
-0.0000000000000002
  0
LINE
  5
155A
  8
0
 10
375.1134813918632176
 20
93.0000000000002274
 30
-0.0000000000000207
 11
375.1134813918632176
 21
83.0000000000002274
 31
-0.0000000000000184
210
0.0
220
1.0
230
-0.0000000000000002
  0
LINE
  5
155B
  8
0
 10
568.1134813918630471
 20
93.0000000000000142
 30
-0.0000000000000207
 11
375.1134813918632176
 21
93.0000000000000142
 31
-0.0000000000000207
210
0.0
220
1.0
230
-0.0000000000000002
  0
ARC
  5
155C
  8
0
 10
-379.1134813918631039
 20
78.5000000000001137
 30
0.0
 40
7.9999999999998854
210
0.0
220
-0.0000000000000002
230
-1.0
 50
269.9999999999996021
 51
300.0
  0
ARC
  5
155D
  8
0
 10
387.9946792383461229
 20
66.4999999999999005
 30
-0.0000000000000148
 40
4.0000000000000986
 50
32.5525812495944535
 51
89.9999999999987637
  0
LINE
  5
155E
  8
0
 10
394.5305514111552156
 20
63.695412994033191
 30
-0.0000000000000141
 11
391.3662712476221941
 21
68.6522935029835395
 31
-0.0000000000000152
210
0.0
220
1.0
230
-0.0000000000000002
  0
ARC
  5
155F
  8
0
 10
-401.2737354297078127
 20
68.0000000000003553
 30
0.0
 40
8.0000000000003411
210
0.0
220
-0.0000000000000002
230
-1.0
 50
270.0000000000036948
 51
327.4474187504076781
  0
LINE
  5
1560
  8
0
 10
564.1134813918631608
 20
70.5000000000002416
 30
-0.0000000000000157
 11
379.1134813918631039
 21
70.5000000000002416
 31
-0.0000000000000157
210
0.0
220
1.0
230
-0.0000000000000002
  0
ARC
  5
1561
  8
0
 10
564.1134813918631608
 20
78.5000000000001137
 30
-0.0000000000000174
 40
7.9999999999998872
 50
269.9999999999994884
 51
300.0000000000002842
  0
ARC
  5
1562
  8
0
 10
-555.2322835453802554
 20
66.4999999999999005
 30
0.0
 40
4.0000000000000986
210
0.0
220
-0.0000000000000002
230
-1.0
 50
32.5525812495943612
 51
89.9999999999987637
  0
LINE
  5
1563
  8
0
 10
548.6964113725711059
 20
63.695412994033191
 30
-0.0000000000000141
 11
551.8606915361040137
 21
68.6522935029835395
 31
-0.0000000000000152
210
0.0
220
1.0
230
-0.0000000000000002
  0
ARC
  5
1564
  8
0
 10
541.9532273540185088
 20
68.0000000000003553
 30
-0.0000000000000151
 40
8.0000000000003411
 50
270.0000000000036948
 51
327.4474187504076781
  0
LINE
  5
1565
  8
0
 10
541.9532273540188498
 20
60.0000000000000071
 30
-0.0000000000000133
 11
401.2737354297074717
 21
60.0000000000000071
 31
-0.0000000000000133
210
0.0
220
1.0
230
-0.0000000000000002
  0
LINE
  5
1566
  8
0
  6
VERDECKT
 62
     1
 10
573.6134813918630471
 20
78.0000000000002416
 30
-0.0000000000000173
 11
573.6134813918630471
 21
83.0000000000002274
 31
-0.0000000000000184
210
0.0
220
1.0
230
-0.0000000000000002
  0
LINE
  5
1567
  8
0
  6
VERDECKT
 62
     1
 10
369.6134813918632176
 20
78.0000000000002416
 30
-0.0000000000000173
 11
369.6134813918632176
 21
83.0000000000002274
 31
-0.0000000000000184
210
0.0
220
1.0
230
-0.0000000000000002
  0
LINE
  5
1568
  8
0
  6
VERDECKT
 62
     1
 10
408.4693051784933004
 20
-59.7821106431308991
 30
0.0000000000000133
 11
534.7576576052330211
 21
-59.7821106431308991
 31
0.0000000000000133
210
0.0
220
1.0
230
-0.0000000000000002
  0
LINE
  5
1569
  8
0
  6
VERDECKT
 62
     1
 10
534.7576576052330211
 20
-59.7821106431309133
 30
0.0000000000000133
 11
537.2481443504623257
 21
-60.0000000000000711
 31
0.0000000000000133
210
0.0
220
1.0
230
-0.0000000000000002
  0
LINE
  5
156A
  8
0
  6
VERDECKT
 62
     1
 10
408.4693051784933004
 20
-59.7821106431309204
 30
0.0000000000000133
 11
405.9788184332638821
 21
-60.0000000000000782
 31
0.0000000000000133
210
0.0
220
1.0
230
-0.0000000000000002
  0
LINE
  5
156B
  8
0
  6
VERDECKT
 62
     1
 10
408.4693051784933004
 20
-59.7821106431308991
 30
0.0000000000000133
 11
407.659145014762089
 21
-50.5219375980698686
 31
0.0000000000000112
210
0.0
220
1.0
230
-0.0000000000000002
  0
LINE
  5
156C
  8
0
  6
VERDECKT
 62
     1
 10
534.7576576052330211
 20
-59.7821106431308991
 30
0.0000000000000133
 11
535.5678177689640052
 21
-50.5219375980698686
 31
0.0000000000000112
210
0.0
220
1.0
230
-0.0000000000000002
  0
ARC
  5
156D
  8
0
  6
VERDECKT
 62
     1
 10
-419.6134813918545774
 20
-49.4760686850984683
 30
0.0
 40
11.9999999999915303
210
0.0
220
-0.0000000000000002
230
-1.0
 50
354.9999999999988063
 51
0.0000000000020356
  0
ARC
  5
156E
  8
0
  6
VERDECKT
 62
     1
 10
-523.6134813918716873
 20
-49.4760686850984683
 30
0.0
 40
11.9999999999915907
210
0.0
220
-0.0000000000000002
230
-1.0
 50
179.9999999999978968
 51
185.0000000000009948
  0
LINE
  5
156F
  8
0
  6
VERDECKT
 62
     1
 10
535.6134813918630471
 20
60.0000000000000071
 30
-0.0000000000000133
 11
535.6134813918630471
 21
-49.476068685098042
 31
0.000000000000011
210
0.0
220
1.0
230
-0.0000000000000002
  0
LINE
  5
1570
  8
0
  6
VERDECKT
 62
     1
 10
407.6134813918631039
 20
60.0000000000000071
 30
-0.0000000000000133
 11
407.6134813918631039
 21
-49.476068685098042
 31
0.000000000000011
210
0.0
220
1.0
230
-0.0000000000000002
  0
LINE
  5
1571
  8
0
  6
VERDECKT
 62
     1
 10
572.1134813918630471
 20
83.0000000000002274
 30
-0.0000000000000184
 11
572.1134813918630471
 21
78.5000000000002416
 31
-0.0000000000000174
210
0.0
220
1.0
230
-0.0000000000000002
  0
ARC
  5
1572
  8
0
  6
VERDECKT
 62
     1
 10
-564.1134813918830559
 20
78.4999999999995595
 30
0.0
 40
7.9999999999799618
210
0.0
220
-0.0000000000000002
230
-1.0
 50
179.9999999999951115
 51
183.5833216984759986
  0
LINE
  5
1573
  8
0
  6
VERDECKT
 62
     1
 10
568.1134813918630471
 20
78.5000000000002416
 30
-0.0000000000000174
 11
568.1134813918630471
 21
83.0000000000002274
 31
-0.0000000000000184
210
0.0
220
1.0
230
-0.0000000000000002
  0
LINE
  5
1574
  8
0
  6
VERDECKT
 62
     1
 10
568.1134813918630471
 20
78.5000000000002416
 30
-0.0000000000000174
 11
568.1134813918630471
 21
78.0000000000002416
 31
-0.0000000000000173
210
0.0
220
1.0
230
-0.0000000000000002
  0
ARC
  5
1575
  8
0
  6
VERDECKT
 62
     1
 10
-379.1134813918649229
 20
78.5000000000001137
 30
0.0
 40
8.0000000000017231
210
0.0
220
-0.0000000000000002
230
-1.0
 50
356.4166783015296005
 51
0.0000000000008269
  0
LINE
  5
1576
  8
0
  6
VERDECKT
 62
     1
 10
371.1134813918631039
 20
78.5000000000002416
 30
-0.0000000000000174
 11
371.1134813918631039
 21
83.0000000000002274
 31
-0.0000000000000184
210
0.0
220
1.0
230
-0.0000000000000002
  0
LINE
  5
1577
  8
0
  6
VERDECKT
 62
     1
 10
375.1134813918632176
 20
78.0000000000002416
 30
-0.0000000000000173
 11
375.1134813918632176
 21
78.5000000000002416
 31
-0.0000000000000174
210
0.0
220
1.0
230
-0.0000000000000002
  0
LINE
  5
1578
  8
0
  6
VERDECKT
 62
     1
 10
375.1134813918632176
 20
83.0000000000002274
 30
-0.0000000000000184
 11
375.1134813918632176
 21
78.5000000000002416
 31
-0.0000000000000174
210
0.0
220
1.0
230
-0.0000000000000002
  0
ARC
  5
1579
  8
0
  6
VERDECKT
 62
     1
 10
379.1134813918631039
 20
78.5000000000002416
 30
-0.0000000000000174
 40
3.9999999999999711
 50
180.0
 51
270.0000000000003979
  0
ARC
  5
157A
  8
0
  6
VERDECKT
 62
     1
 10
401.2737354297074148
 20
68.0000000000002416
 30
-0.0000000000000151
 40
4.000000000000024
 50
212.5525812495909861
 51
270.0000000000003979
  0
LINE
  5
157B
  8
0
  6
VERDECKT
 62
     1
 10
394.73786325689872
 20
70.8045870059668232
 30
-0.0000000000000157
 11
397.9021434204311731
 21
65.84770649701683
 31
-0.0000000000000146
210
0.0
220
1.0
230
-0.0000000000000002
  0
ARC
  5
157C
  8
0
  6
VERDECKT
 62
     1
 10
-387.9946792383461798
 20
66.5000000000000142
 30
0.0
 40
8.0000000000000018
210
0.0
220
-0.0000000000000002
230
-1.0
 50
89.9999999999992042
 51
147.4474187504085876
  0
LINE
  5
157D
  8
0
  6
VERDECKT
 62
     1
 10
564.1134813918631608
 20
74.5000000000002416
 30
-0.0000000000000165
 11
379.1134813918631039
 21
74.5000000000002416
 31
-0.0000000000000165
210
0.0
220
1.0
230
-0.0000000000000002
  0
ARC
  5
157E
  8
0
  6
VERDECKT
 62
     1
 10
-564.1134813918631608
 20
78.5000000000002416
 30
0.0
 40
3.9999999999999711
210
0.0
220
-0.0000000000000002
230
-1.0
 50
180.0
 51
270.0000000000003979
  0
LINE
  5
157F
  8
0
  6
VERDECKT
 62
     1
 10
541.9532273540187362
 20
64.0000000000002416
 30
-0.0000000000000142
 11
401.2737354297074148
 21
64.0000000000002416
 31
-0.0000000000000142
210
0.0
220
1.0
230
-0.0000000000000002
  0
ARC
  5
1580
  8
0
  6
VERDECKT
 62
     1
 10
-541.9532273540188498
 20
68.0000000000002416
 30
0.0
 40
4.000000000000024
210
0.0
220
-0.0000000000000002
230
-1.0
 50
212.5525812495910998
 51
270.0000000000003979
  0
LINE
  5
1581
  8
0
  6
VERDECKT
 62
     1
 10
548.4890995268275447
 20
70.8045870059668232
 30
-0.0000000000000157
 11
545.3248193632949778
 21
65.84770649701683
 31
-0.0000000000000146
210
0.0
220
1.0
230
-0.0000000000000002
  0
ARC
  5
1582
  8
0
  6
VERDECKT
 62
     1
 10
555.2322835453801417
 20
66.5000000000000142
 30
-0.0000000000000148
 40
8.0000000000000018
 50
89.9999999999992752
 51
147.4474187504085876
  0
LINE
  5
1583
  8
0
  6
VERDECKT
 62
     1
 10
407.6134813918631039
 20
59.9999999999999005
 30
-0.0000000000000133
 11
407.6134813918631039
 21
64.0000000000002416
 31
-0.0000000000000142
210
0.0
220
1.0
230
-0.0000000000000002
  0
LINE
  5
1584
  8
0
  6
VERDECKT
 62
     1
 10
535.6134813918630471
 20
60.0000000000000071
 30
-0.0000000000000133
 11
535.6134813918630471
 21
64.0000000000002416
 31
-0.0000000000000142
210
0.0
220
1.0
230
-0.0000000000000002
  0
ENDBLK
  5
1586
  8
0
  0
ENDSEC
  0
SECTION
  2
ENTITIES
  0
INSERT
  5
F95
  8
ADSK_ASSOC_ENTITY_BACKUPS
  2
*S3
 10
0.0
 20
0.0
 30
0.0
  0
INSERT
  5
1543
  8
STEMPEL
  2
A$CF378E6D4
 10
386.7359299718423813
 20
-277.835961434471983
 30
-34.5973569241668883
  0
INSERT
  5
1587
  8
STEMPEL
  2
A$CAED35B7F
 10
386.7359299718423813
 20
288.4425018196978954
 30
-34.5973569241668102
  0
VIEWPORT
  5
D4D
 67
     1
  8
0
 10
148.2764251277527876
 20
209.7763229588427123
 30
0.0
 40
755.1471947795562301
 41
423.0035756853396265
 68
     1
 69
     1
1001
ACAD
1000
MVIEW
1002
{
1070
    16
1010
0.0
1020
0.0
1030
0.0
1010
0.0
1020
0.0
1030
1.0
1040
0.0
1040
423.0035756853396265
1040
148.2764251277527876
1040
209.7763229588427123
1040
50.0
1040
0.0
1040
0.0
1070
     0
1070
  1500
1070
     1
1070
     1
1070
     0
1070
     0
1070
     0
1070
     0
1040
0.0
1040
0.0
1040
0.0
1040
10.0
1040
10.0
1040
10.0
1040
10.0
1070
     0
1002
{
1002
}
1002
}
  0
ENDSEC
  0
EOF
