  0
SECTION
  2
HEADER
  9
$ACADVER
  1
AC1009
  9
$INSBASE
 10
0.0
 20
0.0
 30
0.0
  9
$EXTMIN
 10
1235.0132196168528935
 20
79.5634175358727589
 30
-113.7301650919526992
  9
$EXTMAX
 10
1535.0132196168528935
 20
580.3039198576365152
 30
-113.7301650919525997
  9
$LIMMIN
 10
0.0
 20
0.0
  9
$LIMMAX
 10
593.9999999999996589
 20
840.0000000000002274
  9
$ORTHOMODE
 70
     1
  9
$REGENMODE
 70
     1
  9
$FILLMODE
 70
     1
  9
$QTEXTMODE
 70
     0
  9
$MIRRTEXT
 70
     1
  9
$DRAGMODE
 70
     2
  9
$LTSCALE
 40
10.0
  9
$OSMODE
 70
  2495
  9
$ATTMODE
 70
     1
  9
$TEXTSIZE
 40
2.5
  9
$TRACEWID
 40
0.5
  9
$TEXTSTYLE
  7
GREEKS
  9
$CLAYER
  8
STEMPEL
  9
$CELTYPE
  6
BYLAYER
  9
$CECOLOR
 62
   256
  9
$DIMSCALE
 40
1.0
  9
$DIMASZ
 40
3.5
  9
$DIMEXO
 40
1.0
  9
$DIMDLI
 40
7.0
  9
$DIMRND
 40
0.0
  9
$DIMDLE
 40
0.0
  9
$DIMEXE
 40
1.0
  9
$DIMTP
 40
1.5
  9
$DIMTM
 40
0.0
  9
$DIMTXT
 40
3.5
  9
$DIMCEN
 40
1.5
  9
$DIMTSZ
 40
0.0
  9
$DIMTOL
 70
     0
  9
$DIMLIM
 70
     0
  9
$DIMTIH
 70
     0
  9
$DIMTOH
 70
     0
  9
$DIMSE1
 70
     0
  9
$DIMSE2
 70
     0
  9
$DIMTAD
 70
     1
  9
$DIMZIN
 70
     8
  9
$DIMBLK
  1

  9
$DIMASO
 70
     1
  9
$DIMSHO
 70
     0
  9
$DIMPOST
  1

  9
$DIMAPOST
  1

  9
$DIMALT
 70
     0
  9
$DIMALTD
 70
     2
  9
$DIMALTF
 40
25.3999999999999986
  9
$DIMLFAC
 40
1.0
  9
$DIMTOFL
 70
     1
  9
$DIMTVP
 40
0.0
  9
$DIMTIX
 70
     0
  9
$DIMSOXD
 70
     0
  9
$DIMSAH
 70
     0
  9
$DIMBLK1
  1

  9
$DIMBLK2
  1

  9
$DIMSTYLE
  2
STANDARD
  9
$DIMCLRD
 70
     0
  9
$DIMCLRE
 70
     0
  9
$DIMCLRT
 70
     1
  9
$DIMTFAC
 40
0.5
  9
$DIMGAP
 40
1.5
  9
$LUNITS
 70
     2
  9
$LUPREC
 70
     2
  9
$SKETCHINC
 40
1.0
  9
$FILLETRAD
 40
0.0
  9
$AUNITS
 70
     0
  9
$AUPREC
 70
     0
  9
$MENU
  1
ACAD
  9
$ELEVATION
 40
0.0
  9
$PELEVATION
 40
0.0
  9
$THICKNESS
 40
0.0
  9
$LIMCHECK
 70
     0
  9
$BLIPMODE
 70
     0
  9
$CHAMFERA
 40
0.0
  9
$CHAMFERB
 40
0.0
  9
$SKPOLY
 70
     0
  9
$TDCREATE
 40
2451933.5171874999068677
  9
$TDUPDATE
 40
2459677.584826388861984
  9
$TDINDWG
 40
0.2497972106
  9
$TDUSRTIMER
 40
0.2497972106
  9
$USRTIMER
 70
     1
  9
$ANGBASE
 50
0.0
  9
$ANGDIR
 70
     0
  9
$PDMODE
 70
     0
  9
$PDSIZE
 40
0.0
  9
$PLINEWID
 40
0.0
  9
$COORDS
 70
     1
  9
$SPLFRAME
 70
     0
  9
$SPLINETYPE
 70
     6
  9
$SPLINESEGS
 70
     8
  9
$ATTDIA
 70
     1
  9
$ATTREQ
 70
     1
  9
$HANDLING
 70
     1
  9
$HANDSEED
  5
2605
  9
$SURFTAB1
 70
     6
  9
$SURFTAB2
 70
     6
  9
$SURFTYPE
 70
     6
  9
$SURFU
 70
     6
  9
$SURFV
 70
     6
  9
$UCSNAME
  2

  9
$UCSORG
 10
0.0
 20
0.0
 30
0.0
  9
$UCSXDIR
 10
1.0
 20
0.0
 30
0.0
  9
$UCSYDIR
 10
0.0
 20
1.0
 30
0.0
  9
$PUCSNAME
  2

  9
$PUCSORG
 10
0.0
 20
0.0
 30
0.0
  9
$PUCSXDIR
 10
1.0
 20
0.0
 30
0.0
  9
$PUCSYDIR
 10
0.0
 20
1.0
 30
0.0
  9
$USERI1
 70
     0
  9
$USERI2
 70
     0
  9
$USERI3
 70
     0
  9
$USERI4
 70
     0
  9
$USERI5
 70
     0
  9
$USERR1
 40
0.0
  9
$USERR2
 40
0.0
  9
$USERR3
 40
0.0
  9
$USERR4
 40
0.0
  9
$USERR5
 40
0.0
  9
$WORLDVIEW
 70
     1
  9
$SHADEDGE
 70
     3
  9
$SHADEDIF
 70
    70
  9
$TILEMODE
 70
     1
  9
$MAXACTVP
 70
    16
  9
$PLIMCHECK
 70
     0
  9
$PEXTMIN
 10
1.0000000000000000E+20
 20
1.0000000000000000E+20
 30
1.0000000000000000E+20
  9
$PEXTMAX
 10
-1.0000000000000000E+20
 20
-1.0000000000000000E+20
 30
-1.0000000000000000E+20
  9
$PLIMMIN
 10
-241.3639142918196114
 20
-366.9171943871298822
  9
$PLIMMAX
 10
55.6360857081803601
 20
53.0828056128700609
  9
$UNITMODE
 70
     0
  9
$VISRETAIN
 70
     0
  9
$PLINEGEN
 70
     0
  9
$PSLTSCALE
 70
     0
  0
ENDSEC
  0
SECTION
  2
TABLES
  0
TABLE
  2
VPORT
 70
     1
  0
VPORT
  2
*ACTIVE
 70
     0
 10
0.0
 20
0.0
 11
1.0
 21
1.0
 12
189.0008725037388047
 22
-263.9316959529812721
 13
0.0
 23
0.0
 14
1.0
 24
1.0
 15
10.0
 25
10.0
 16
-0.0000000000004547
 26
0.0
 36
1929.4076016424139652
 17
1196.0123471131139468
 27
593.8653646497359659
 37
-88.4999999999998863
 40
504.321483268045597
 41
1.7852028639618129
 42
50.0
 43
0.0
 44
0.0
 50
0.0
 51
0.0
 71
     0
 72
  1500
 73
     1
 74
     0
 75
     0
 76
     0
 77
     0
 78
     0
  0
ENDTAB
  0
TABLE
  2
LTYPE
 70
     5
  0
LTYPE
  2
CONTINUOUS
 70
     0
  3
Solid line
 72
    65
 73
     0
 40
0.0
  0
LTYPE
  2
VERDECKT
 70
     0
  3
Verdeckt __ __ __ __ __ __ __ __ __ __ __ __ __
 72
    65
 73
     2
 40
0.375
 49
0.25
 49
-0.125
  0
ENDTAB
  0
TABLE
  2
LAYER
 70
    14
  0
LAYER
  2
0
 70
     0
 62
     7
  6
CONTINUOUS
  0
LAYER
  2
STEMPEL
 70
     0
 62
     3
  6
CONTINUOUS
  0
LAYER
  2
DEFPOINTS
 70
     0
 62
     7
  6
CONTINUOUS
  0
LAYER
  2
ADSK_ASSOC_ENTITY_BACKUPS
 70
     1
 62
    -7
  6
CONTINUOUS
  0
ENDTAB
  0
TABLE
  2
STYLE
 70
     4
  0
STYLE
  2
STANDARD
 70
     0
 40
0.0
 41
1.0
 50
0.0
 71
     0
 42
3.5
  3
txt
  4

  0
STYLE
  2
GREEKS
 70
     0
 40
0.0
 41
0.8
 50
0.0
 71
     0
 42
2.5
  3
SIMPLEX.shx
  4

  0
ENDTAB
  0
TABLE
  2
VIEW
 70
     1
  0
ENDTAB
  0
TABLE
  2
UCS
 70
     0
  0
ENDTAB
  0
TABLE
  2
APPID
 70
    25
  0
APPID
  2
ACAD
 70
     0
  0
APPID
  2
ACAD_NAV_VCDISPLAY
 70
     0
  0
APPID
  2
ACAECLAYERSTANDARD
 70
     0
  0
APPID
  2
ACCMTRANSPARENCY
 70
     0
  0
APPID
  2
ACAD_STEPID
 70
     0
  0
APPID
  2
ACAD_PSEXT
 70
     0
  0
APPID
  2
ACAD_EXEMPT_FROM_CAD_STANDARDS
 70
     0
  0
APPID
  2
ACSYNERGY
 70
     0
  0
APPID
  2
SYNERGY_BODY_TBR_ID
 70
     0
  0
APPID
  2
ACAD_VIEW_EDGE_ID
 70
     0
  0
APPID
  2
ACSYNERGYSKETCH
 70
     0
  0
APPID
  2
ACAD_MODELDOC_XFORM
 70
     0
  0
APPID
  2
GRADIENTCOLOR1ACI
 70
     0
  0
APPID
  2
GRADIENTCOLOR2ACI
 70
     0
  0
APPID
  2
ACAD_DSTYLE_DIMRADIAL_EXTENSION
 70
     0
  0
APPID
  2
ACADANNOMONITORALERTICONDI
 70
     0
  0
APPID
  2
ACAD_MLEADERVER
 70
     0
  0
APPID
  2
ACAD_DIMASSOC_CALC_DIMLFAC
 70
     0
  0
APPID
  2
ACAD_DIMASSOC_DIMLFAC
 70
     0
  0
APPID
  2
ACAD_DIMASSOC_OVERRIDDEN_D
 70
     0
  0
APPID
  2
ACAD_DSTYLE_DIMJAG
 70
     0
  0
APPID
  2
ACAD_DSTYLE_DIMTALN
 70
     0
  0
APPID
  2
ACAD_DSTYLE_DIMBREAK
 70
     0
  0
APPID
  2
ACAD_ASSOCPERSSUBENTMANAGER
 70
     0
  0
APPID
  2
AcDbAttr
 70
     0
  0
ENDTAB
  0
TABLE
  2
DIMSTYLE
 70
     2
  0
DIMSTYLE
  2
STANDARD
 70
     0
  3

  4

  5

  6

  7

 40
1.0
 41
0.18
 42
0.0625
 43
0.38
 44
0.18
 45
0.0
 46
0.0
 47
0.0
 48
0.0
140
0.18
141
0.09
142
0.0
143
25.3999999999999986
144
1.0
145
0.0
146
1.0
147
0.09
 71
     0
 72
     0
 73
     1
 74
     1
 75
     0
 76
     0
 77
     0
 78
     0
170
     0
171
     2
172
     0
173
     0
174
     0
175
     0
176
     0
177
     0
178
     0
  0
ENDTAB
  0
ENDSEC
  0
SECTION
  2
BLOCKS
  0
BLOCK
  8
0
  2
$MODEL_SPACE
 70
     0
 10
0.0
 20
0.0
 30
0.0
  3
$MODEL_SPACE
  1

  0
ENDBLK
  5
63
  8
0
  0
BLOCK
 67
     1
  8
0
  2
$PAPER_SPACE
 70
     0
 10
0.0
 20
0.0
 30
0.0
  3
$PAPER_SPACE
  1

  0
ENDBLK
  5
61
 67
     1
  8
0
  0
BLOCK
  8
0
  2
*S0
 70
     1
 10
0.0
 20
0.0
 30
0.0
  3
*S0
  1

  0
ENDBLK
  5
CC8
  8
0
  0
BLOCK
  8
0
  2
A$CA6B07FE6
 70
     0
 10
0.0
 20
0.0
 30
0.0
  3
A$CA6B07FE6
  1

  0
LINE
  5
2544
  8
0
 10
1103.5114690489060649
 20
497.6810442392077789
 30
0.0000000000002238
 11
1103.5114690489060649
 21
501.6810442392077789
 31
0.0000000000002238
  0
LINE
  5
2545
  8
0
 10
1103.5114690489060649
 20
501.6810442392077789
 30
0.0000000000002238
 11
1107.5114690489060649
 21
501.6810442392077789
 31
0.0000000000002246
  0
LINE
  5
2546
  8
0
 10
1103.5114690489060649
 20
497.6810442392077789
 30
0.0000000000002238
 11
910.5114690489065197
 21
497.6810442392077789
 31
0.0000000000001847
  0
LINE
  5
2547
  8
0
 10
1107.5114690489060649
 20
694.6810442392077221
 30
0.0000000000002238
 11
1107.5114690489060649
 21
501.6810442392077221
 31
0.0000000000002238
  0
LINE
  5
2548
  8
0
 10
1107.5114690489060649
 20
694.6810442392077221
 30
0.0000000000002238
 11
1103.5114690489060649
 21
694.6810442392077221
 31
0.000000000000223
  0
LINE
  5
2549
  8
0
 10
1103.5114690489060649
 20
694.6810442392077221
 30
0.0000000000002238
 11
1103.5114690489060649
 21
501.6810442392077221
 31
0.0000000000002238
  0
LINE
  5
254A
  8
0
 10
906.5114690489066334
 20
501.6810442392077789
 30
0.0000000000001847
 11
910.5114690489065197
 21
501.6810442392077789
 31
0.0000000000001856
  0
LINE
  5
254B
  8
0
 10
910.5114690489065197
 20
501.6810442392077789
 30
0.0000000000001847
 11
910.5114690489065197
 21
497.6810442392077789
 31
0.0000000000001847
  0
LINE
  5
254C
  8
0
 10
906.5114690489066334
 20
694.6810442392077221
 30
0.0000000000001847
 11
906.5114690489066334
 21
501.6810442392077221
 31
0.0000000000001847
  0
LINE
  5
254D
  8
0
 10
1103.5114690489060649
 20
501.6810442392077789
 30
0.0000000000002238
 11
910.5114690489065197
 21
501.6810442392077789
 31
0.0000000000001847
  0
LINE
  5
254E
  8
0
 10
910.5114690489065197
 20
501.6810442392077789
 30
0.0000000000001847
 11
910.5114690489065197
 21
694.6810442392077221
 31
0.0000000000001847
  0
LINE
  5
254F
  8
0
 10
910.5114690489065197
 20
694.6810442392077221
 30
0.0000000000001847
 11
906.5114690489066334
 21
694.6810442392077221
 31
0.0000000000001839
  0
LINE
  5
2550
  8
0
 10
910.5114690489065197
 20
698.6810442392076084
 30
0.0000000000001847
 11
910.5114690489065197
 21
694.6810442392077221
 31
0.0000000000001847
  0
LINE
  5
2551
  8
0
 10
910.5114690489065197
 20
698.6810442392076084
 30
0.0000000000001847
 11
1103.5114690489060649
 21
698.6810442392076084
 31
0.0000000000002239
  0
LINE
  5
2552
  8
0
 10
910.5114690489065197
 20
694.6810442392077221
 30
0.0000000000001847
 11
1103.5114690489060649
 21
694.6810442392077221
 31
0.0000000000002239
  0
LINE
  5
2553
  8
0
 10
1103.5114690489060649
 20
694.6810442392077221
 30
0.0000000000002238
 11
1103.5114690489060649
 21
698.6810442392076084
 31
0.0000000000002238
  0
CIRCLE
  5
2554
  8
0
 10
1007.0114690489059512
 20
598.1810442392077221
 30
0.0000000000002061
 40
49.0
  0
LINE
  5
2555
  8
0
 10
914.511469048906406
 20
690.6810442392077221
 30
0.0000000000001847
 11
910.5114690489065197
 21
694.6810442392077221
 31
0.0000000000001847
  0
LINE
  5
2556
  8
0
 10
910.5114690489065197
 20
501.6810442392077789
 30
0.0000000000001847
 11
914.511469048906406
 21
505.6810442392077789
 31
0.0000000000001847
  0
LINE
  5
2557
  8
0
 10
1099.5114690489060649
 20
690.6810442392077221
 30
0.0000000000002203
 11
1103.5114690489060649
 21
694.6810442392077221
 31
0.0000000000002203
  0
LINE
  5
2558
  8
0
 10
1099.5114690489060649
 20
505.6810442392077789
 30
0.0000000000002203
 11
1103.5114690489060649
 21
501.6810442392078926
 31
0.0000000000002203
  0
CIRCLE
  5
2559
  8
0
 10
1007.0114690489059512
 20
598.1810442392077221
 30
0.000000000000199
 40
48.125113364740848
  0
LINE
  5
255A
  8
0
 10
1109.0114690489060649
 20
496.1810442392077221
 30
0.0000000000002274
 11
905.0114690489065197
 21
496.1810442392077221
 31
0.000000000000186
  0
LINE
  5
255B
  8
0
 10
905.0114690489065197
 20
700.1810442392077221
 30
0.0000000000001847
 11
1109.0114690489060649
 21
700.1810442392077221
 31
0.0000000000002261
  0
LINE
  5
255C
  8
0
 10
1109.0114690489060649
 20
700.1810442392077221
 30
0.0000000000002274
 11
1109.0114690489060649
 21
496.1810442392077221
 31
0.0000000000002274
  0
LINE
  5
255D
  8
0
 10
905.0114690489065197
 20
496.1810442392077221
 30
0.0000000000001847
 11
905.0114690489065197
 21
700.1810442392077221
 31
0.0000000000001847
  0
LINE
  5
255E
  8
0
 10
857.0114690489065197
 20
748.1810442392077221
 30
0.0000000000001705
 11
1157.0114690489060649
 21
748.1810442392077221
 31
0.0000000000002314
  0
LINE
  5
255F
  8
0
 10
1157.0114690489060649
 20
448.1810442392077221
 30
0.0000000000002345
 11
857.0114690489065197
 21
448.1810442392077221
 31
0.0000000000001737
  0
LINE
  5
2560
  8
0
 10
1157.0114690489060649
 20
748.1810442392077221
 30
0.0000000000002345
 11
1157.0114690489060649
 21
448.1810442392077221
 31
0.0000000000002345
  0
LINE
  5
2561
  8
0
 10
857.0114690489065197
 20
748.1810442392077221
 30
0.0000000000001705
 11
857.0114690489065197
 21
448.1810442392077221
 31
0.0000000000001705
  0
CIRCLE
  5
2562
  8
0
  6
VERDECKT
 62
     1
 10
1007.0114690489059512
 20
598.1810442392077221
 30
0.0000000000002061
 40
51.0
  0
CIRCLE
  5
2563
  8
0
  6
VERDECKT
 62
     1
 10
1007.0114690489059512
 20
598.1810442392077221
 30
0.000000000000199
 40
50.1327530398275485
  0
ENDBLK
  5
2565
  8
0
  0
BLOCK
  8
0
  2
A$CB194E4FA
 70
     0
 10
0.0
 20
0.0
 30
0.0
  3
A$CB194E4FA
  1

  0
LINE
  5
2569
  8
0
 10
1103.5114690489060649
 20
-39.0
 30
0.0000000000000087
 11
1103.5114690489060649
 21
-45.4282032302754715
 31
0.0000000000000101
210
0.0
220
1.0
230
-0.0000000000000002
  0
LINE
  5
256A
  8
0
 10
1103.5114690489060649
 20
-34.0000000000000071
 30
0.0000000000000075
 11
1103.5114690489060649
 21
-24.0000000000000107
 31
0.0000000000000053
210
0.0
220
1.0
230
-0.0000000000000002
  0
ARC
  5
256B
  8
0
 10
-1099.5114690489069744
 20
-38.5000000000004619
 30
0.0
 40
7.9999999999992619
210
0.0
220
-0.0000000000000002
230
-1.0
 50
183.5833216984690068
 51
240.0000000000025011
  0
LINE
  5
256C
  8
0
 10
1107.5114690489060649
 20
-24.0000000000000107
 30
0.0000000000000053
 11
1107.5114690489060649
 21
-34.0000000000000071
 31
0.0000000000000075
210
0.0
220
1.0
230
-0.0000000000000002
  0
LINE
  5
256D
  8
0
 10
1103.5114690489060649
 20
-24.0000000000000107
 30
0.0000000000000053
 11
1107.5114690489060649
 21
-24.0000000000000107
 31
0.0000000000000053
210
0.0
220
1.0
230
-0.0000000000000002
  0
LINE
  5
256E
  8
0
 10
910.5114690489065197
 20
-45.4282032302755283
 30
0.0000000000000101
 11
910.5114690489065197
 21
-39.0000000000000071
 31
0.0000000000000087
210
0.0
220
1.0
230
-0.0000000000000002
  0
ARC
  5
256F
  8
0
 10
-914.511469048906406
 20
-38.5000000000000071
 30
0.0
 40
8.0000000000000018
210
0.0
220
-0.0000000000000002
230
-1.0
 50
270.0
 51
300.0000000000002274
  0
LINE
  5
2570
  8
0
 10
914.511469048906406
 20
-46.5000000000000071
 30
0.0000000000000103
 11
1099.5114690489060649
 21
-46.5000000000000071
 31
0.0000000000000103
210
0.0
220
1.0
230
-0.0000000000000002
  0
ARC
  5
2571
  8
0
 10
1099.5114690489060649
 20
-38.5000000000000071
 30
0.0000000000000085
 40
8.0000000000000018
 50
270.0
 51
300.0000000000002274
  0
LINE
  5
2572
  8
0
 10
1103.5114690489060649
 20
-24.0000000000000107
 30
0.0000000000000053
 11
910.5114690489065197
 21
-24.0000000000000107
 31
0.0000000000000053
210
0.0
220
1.0
230
-0.0000000000000002
  0
LINE
  5
2573
  8
0
 10
910.5114690489065197
 20
-24.0000000000000107
 30
0.0000000000000053
 11
910.5114690489065197
 21
-34.0000000000000071
 31
0.0000000000000075
210
0.0
220
1.0
230
-0.0000000000000002
  0
ARC
  5
2574
  8
0
 10
-914.5114690489059512
 20
-38.5000000000004619
 30
0.0
 40
7.9999999999992317
210
0.0
220
-0.0000000000000002
230
-1.0
 50
299.9999999999974989
 51
356.4166783015310216
  0
LINE
  5
2575
  8
0
 10
906.5114690489066334
 20
-24.0000000000000107
 30
0.0000000000000053
 11
910.5114690489065197
 21
-24.0000000000000107
 31
0.0000000000000053
210
0.0
220
1.0
230
-0.0000000000000002
  0
LINE
  5
2576
  8
0
 10
906.5114690489066334
 20
-34.0000000000000071
 30
0.0000000000000075
 11
906.5114690489066334
 21
-24.0000000000000107
 31
0.0000000000000053
210
0.0
220
1.0
230
-0.0000000000000002
  0
ARC
  5
2577
  8
0
 10
-923.9735223709769798
 20
-50.4999999999999574
 30
0.0
 40
4.0000000000000009
210
0.0
220
-0.0000000000000002
230
-1.0
 50
90.0000000000001705
 51
150.2721431504897112
  0
LINE
  5
2578
  8
0
 10
927.4470844624875099
 20
-48.5164762677444728
 30
0.0000000000000108
 11
929.9885140838136977
 21
-52.9670474645114524
 31
0.0000000000000118
210
0.0
220
1.0
230
-0.0000000000000002
  0
ARC
  5
2579
  8
0
 10
936.9356382668347578
 20
-49.0000000000003482
 30
0.0000000000000109
 40
7.9999999999997717
 50
209.7278568495108004
 51
270.0
  0
ARC
  5
257A
  8
0
 10
-1090.0494157268360595
 20
-50.4999999999999574
 30
0.0
 40
4.0
210
0.0
220
-0.0000000000000002
230
-1.0
 50
29.7278568495101787
 51
89.999999999999801
  0
LINE
  5
257B
  8
0
 10
1084.0344240139988869
 20
-52.9670474645114027
 30
0.0000000000000118
 11
1086.5758536353250747
 21
-48.5164762677444088
 31
0.0000000000000108
210
0.0
220
1.0
230
-0.0000000000000002
  0
ARC
  5
257C
  8
0
 10
1077.0872998309780542
 20
-49.0000000000003482
 30
0.0000000000000109
 40
7.9999999999997717
 50
270.0
 51
330.272143150489228
  0
LINE
  5
257D
  8
0
 10
936.9356382668347578
 20
-57.0000000000000071
 30
0.0000000000000127
 11
1077.0872998309780542
 21
-57.0000000000000071
 31
0.0000000000000127
210
0.0
220
1.0
230
-0.0000000000000002
  0
LINE
  5
257E
  8
0
 10
956.8787160090789712
 20
-177.0
 30
0.0000000000000393
 11
1057.1442220887340682
 21
-177.0
 31
0.0000000000000393
210
0.0
220
1.0
230
-0.0000000000000002
  0
ARC
  5
257F
  8
0
 10
-968.0114690488982205
 20
-166.5633905709152884
 30
0.0
 40
11.9999999999918092
210
0.0
220
-0.0000000000000002
230
-1.0
 50
354.9999999999989768
 51
0.0000000000021755
  0
ARC
  5
2580
  8
0
 10
-1046.0114690489740497
 20
-166.5633905709165958
 30
0.0
 40
11.9999999999322409
210
0.0
220
-0.0000000000000002
230
-1.0
 50
179.9999999999917009
 51
185.0000000000196962
  0
LINE
  5
2581
  8
0
 10
1058.0114690489060649
 20
-57.0000000000000071
 30
0.0000000000000127
 11
1058.0114690489060649
 21
-166.5633905709148905
 31
0.000000000000037
210
0.0
220
1.0
230
-0.0000000000000002
  0
LINE
  5
2582
  8
0
 10
956.0114690489065197
 20
-57.0000000000000071
 30
0.0000000000000127
 11
956.0114690489065197
 21
-166.5633905709148905
 31
0.000000000000037
210
0.0
220
1.0
230
-0.0000000000000002
  0
LINE
  5
2583
  8
0
 10
956.8787160090789712
 20
-177.0
 30
0.0000000000000393
 11
956.0571326718055616
 21
-167.6092594838866887
 31
0.0000000000000372
210
0.0
220
1.0
230
-0.0000000000000002
  0
LINE
  5
2584
  8
0
 10
1057.1442220887340682
 20
-177.0
 30
0.0000000000000393
 11
1057.9658054260069093
 21
-167.6092594838866887
 31
0.0000000000000372
210
0.0
220
1.0
230
-0.0000000000000002
  0
LINE
  5
2585
  8
0
 10
857.0114690489065197
 20
-33.9999999999999432
 30
0.0000000000000075
 11
857.0114690489065197
 21
-38.9999999999999432
 31
0.0000000000000087
210
0.0
220
1.0
230
-0.0000000000000002
  0
LINE
  5
2586
  8
0
 10
857.0114690489065197
 20
-38.9999999999999432
 30
0.0000000000000087
 11
1157.0114690489060649
 21
-38.9999999999999432
 31
0.0000000000000087
210
0.0
220
1.0
230
-0.0000000000000002
  0
LINE
  5
2587
  8
0
 10
1157.0114690489060649
 20
-38.9999999999999432
 30
0.0000000000000087
 11
1157.0114690489060649
 21
-33.9999999999999432
 31
0.0000000000000075
210
0.0
220
1.0
230
-0.0000000000000002
  0
LINE
  5
2588
  8
0
 10
1157.0114690489060649
 20
-33.9999999999999432
 30
0.0000000000000075
 11
857.0114690489065197
 21
-33.9999999999999432
 31
0.0000000000000075
210
0.0
220
1.0
230
-0.0000000000000002
  0
LINE
  5
2589
  8
0
  6
VERDECKT
 62
     1
 10
1103.5114690489060649
 20
-38.5
 30
0.0000000000000085
 11
1103.5114690489060649
 21
-39.0000000000000071
 31
0.0000000000000087
210
0.0
220
1.0
230
-0.0000000000000002
  0
LINE
  5
258A
  8
0
  6
VERDECKT
 62
     1
 10
1103.5114690489060649
 20
-38.5000000000000071
 30
0.0000000000000085
 11
1103.5114690489060649
 21
-34.0000000000000071
 31
0.0000000000000075
210
0.0
220
1.0
230
-0.0000000000000002
  0
ARC
  5
258B
  8
0
  6
VERDECKT
 62
     1
 10
-1099.5114690487230291
 20
-38.4999999999937614
 30
0.0
 40
8.0000000001834906
210
0.0
220
-0.0000000000000002
230
-1.0
 50
180.0000000000447073
 51
183.5833216984345029
  0
LINE
  5
258C
  8
0
  6
VERDECKT
 62
     1
 10
1107.5114690489060649
 20
-34.0000000000000071
 30
0.0000000000000075
 11
1107.5114690489060649
 21
-38.5000000000000071
 31
0.0000000000000085
210
0.0
220
1.0
230
-0.0000000000000002
  0
LINE
  5
258D
  8
0
  6
VERDECKT
 62
     1
 10
910.5114690489065197
 20
-39.0000000000000071
 30
0.0000000000000087
 11
910.5114690489065197
 21
-38.5000000000000071
 31
0.0000000000000085
210
0.0
220
1.0
230
-0.0000000000000002
  0
LINE
  5
258E
  8
0
  6
VERDECKT
 62
     1
 10
910.5114690489065197
 20
-34.0000000000000071
 30
0.0000000000000075
 11
910.5114690489065197
 21
-38.5000000000000071
 31
0.0000000000000085
210
0.0
220
1.0
230
-0.0000000000000002
  0
ARC
  5
258F
  8
0
  6
VERDECKT
 62
     1
 10
-914.5114690490898965
 20
-38.4999999999937614
 30
0.0
 40
8.0000000001834941
210
0.0
220
-0.0000000000000002
230
-1.0
 50
356.4166783015655255
 51
359.9999999999552074
  0
LINE
  5
2590
  8
0
  6
VERDECKT
 62
     1
 10
906.5114690489066334
 20
-38.5000000000000071
 30
0.0000000000000085
 11
906.5114690489066334
 21
-34.0000000000000071
 31
0.0000000000000075
210
0.0
220
1.0
230
-0.0000000000000002
  0
ARC
  5
2591
  8
0
  6
VERDECKT
 62
     1
 10
1090.4787641153989171
 20
-50.4999999999999574
 30
0.0000000000000112
 40
8.0
 50
90.0000000000000568
 51
148.3590199303723978
  0
LINE
  5
2592
  8
0
  6
VERDECKT
 62
     1
 10
1083.6679485783090513
 20
-46.3032403309546297
 30
0.0000000000000103
 11
1080.7132292842049992
 21
-51.0983798345225821
 31
0.0000000000000113
210
0.0
220
1.0
230
-0.0000000000000002
  0
ARC
  5
2593
  8
0
  6
VERDECKT
 62
     1
 10
-1077.3078215156599526
 20
-48.9999999999999005
 30
0.0
 40
3.999999999999996
210
0.0
220
-0.0000000000000002
230
-1.0
 50
211.6409800696274885
 51
270.0
  0
ARC
  5
2594
  8
0
  6
VERDECKT
 62
     1
 10
923.5441739824136675
 20
-50.4999999999999574
 30
0.0000000000000112
 40
8.0
 50
31.6409800696275383
 51
89.9999999999999432
  0
LINE
  5
2595
  8
0
  6
VERDECKT
 62
     1
 10
933.3097088136075854
 20
-51.0983798345225324
 30
0.0000000000000113
 11
930.3549895195041017
 21
-46.3032403309545728
 31
0.0000000000000103
210
0.0
220
1.0
230
-0.0000000000000002
  0
ARC
  5
2596
  8
0
  6
VERDECKT
 62
     1
 10
-936.7151165821527457
 20
-48.9999999999999005
 30
0.0
 40
3.9999999999999432
210
0.0
220
-0.0000000000000002
230
-1.0
 50
270.0
 51
328.3590199303724262
  0
LINE
  5
2597
  8
0
  6
VERDECKT
 62
     1
 10
1099.5114690489060649
 20
-42.5
 30
0.0000000000000094
 11
914.511469048906406
 21
-42.5
 31
0.0000000000000094
210
0.0
220
1.0
230
-0.0000000000000002
  0
LINE
  5
2598
  8
0
  6
VERDECKT
 62
     1
 10
1077.3078215156599526
 20
-52.9999999999998366
 30
0.0000000000000118
 11
936.7151165821527457
 21
-52.9999999999998366
 31
0.0000000000000118
210
0.0
220
1.0
230
-0.0000000000000002
  0
ARC
  5
2599
  8
0
  6
VERDECKT
 62
     1
 10
914.511469048906406
 20
-38.5000000000000071
 30
0.0000000000000085
 40
4.0
 50
180.0
 51
270.0
  0
ARC
  5
259A
  8
0
  6
VERDECKT
 62
     1
 10
1099.5114690489060649
 20
-38.5000000000000071
 30
0.0000000000000085
 40
4.0
 50
270.0
 51
0.0
  0
LINE
  5
259B
  8
0
  6
VERDECKT
 62
     1
 10
1056.0114690489060649
 20
-52.9999999999999005
 30
0.0000000000000118
 11
1056.0114690489060649
 21
-57.0000000000000071
 31
0.0000000000000127
210
0.0
220
1.0
230
-0.0000000000000002
  0
LINE
  5
259C
  8
0
  6
VERDECKT
 62
     1
 10
958.0114690489065197
 20
-52.9999999999999005
 30
0.0000000000000118
 11
958.0114690489065197
 21
-57.0000000000000711
 31
0.0000000000000127
210
0.0
220
1.0
230
-0.0000000000000002
  0
ARC
  5
259D
  8
0
  6
VERDECKT
 62
     1
 10
-968.0114690488877613
 20
-166.5633905709144926
 30
0.0
 40
9.9999999999812417
210
0.0
220
-0.0000000000000002
230
-1.0
 50
354.9999999999947136
 51
0.0000000000032569
  0
ARC
  5
259E
  8
0
  6
VERDECKT
 62
     1
 10
-1046.0114690488060205
 20
-166.5633905709092915
 30
0.0
 40
10.00000000010027
210
0.0
220
-0.0000000000000002
230
-1.0
 50
180.000000000026489
 51
184.9999999999755005
  0
LINE
  5
259F
  8
0
  6
VERDECKT
 62
     1
 10
958.8863556841656646
 20
-177.0
 30
0.0000000000000393
 11
958.0495220679890735
 21
-167.4349479983904132
 31
0.0000000000000372
210
0.0
220
1.0
230
-0.0000000000000002
  0
LINE
  5
25A0
  8
0
  6
VERDECKT
 62
     1
 10
1055.13658241364692
 20
-177.0
 30
0.0000000000000393
 11
1055.9734160298239658
 21
-167.4349479983904132
 31
0.0000000000000372
210
0.0
220
1.0
230
-0.0000000000000002
  0
LINE
  5
25A1
  8
0
  6
VERDECKT
 62
     1
 10
1056.0114690489060649
 20
-57.0000000000000071
 30
0.0000000000000127
 11
1056.0114690489060649
 21
-166.5633905709140095
 31
0.000000000000037
210
0.0
220
1.0
230
-0.0000000000000002
  0
LINE
  5
25A2
  8
0
  6
VERDECKT
 62
     1
 10
958.0114690489065197
 20
-57.0000000000000071
 30
0.0000000000000127
 11
958.0114690489065197
 21
-166.5633905709140095
 31
0.000000000000037
210
0.0
220
1.0
230
-0.0000000000000002
  0
LINE
  5
25A3
  8
0
  6
VERDECKT
 62
     1
 10
905.0114690489065197
 20
-38.9999999999999503
 30
0.0000000000000087
 11
905.0114690489065197
 21
-33.9999999999999503
 31
0.0000000000000075
210
0.0
220
1.0
230
-0.0000000000000002
  0
LINE
  5
25A4
  8
0
  6
VERDECKT
 62
     1
 10
1109.0114690489060649
 20
-33.9999999999999503
 30
0.0000000000000075
 11
1109.0114690489060649
 21
-38.9999999999999503
 31
0.0000000000000087
210
0.0
220
1.0
230
-0.0000000000000002
  0
ENDBLK
  5
25A6
  8
0
  0
ENDSEC
  0
SECTION
  2
ENTITIES
  0
INSERT
  5
CCA
  8
ADSK_ASSOC_ENTITY_BACKUPS
  2
*S0
 10
0.0
 20
0.0
 30
0.0
  0
INSERT
  5
2566
  8
STEMPEL
  2
A$CA6B07FE6
 10
378.0017505679464875
 20
-368.61762670333502
 30
-113.7301650919527987
  0
INSERT
  5
25A7
  8
STEMPEL
  2
A$CB194E4FA
 10
378.0017505679466012
 20
604.3039198576365152
 30
-113.7301650919526992
  0
VIEWPORT
  5
CA7
 67
     1
  8
0
 10
-92.8639142918196541
 20
-156.9171943871299106
 30
0.0
 40
755.1471947795562301
 41
423.0035756853396265
 68
     1
 69
     1
1001
ACAD
1000
MVIEW
1002
{
1070
    16
1010
0.0
1020
0.0
1030
0.0
1010
0.0
1020
0.0
1030
1.0
1040
0.0
1040
423.0035756853396265
1040
-92.8639142918196541
1040
-156.9171943871299106
1040
50.0
1040
0.0
1040
0.0
1070
     0
1070
  1500
1070
     1
1070
     1
1070
     0
1070
     0
1070
     0
1070
     0
1040
0.0
1040
0.0
1040
0.0
1040
10.0
1040
10.0
1040
10.0
1040
10.0
1070
     0
1002
{
1002
}
1002
}
  0
ENDSEC
  0
EOF
