  0
SECTION
  2
HEADER
  9
$ACADVER
  1
AC1009
  9
$INSBASE
 10
0.0
 20
0.0
 30
0.0
  9
$EXTMIN
 10
893.2943904125372683
 20
-110.8055109741900992
 30
-70.0237083770590942
  9
$EXTMAX
 10
1077.2943904125370409
 20
282.7796549822008956
 30
-70.0237083770590232
  9
$LIMMIN
 10
0.0
 20
0.0
  9
$LIMMAX
 10
419.9999999999998863
 20
594.0
  9
$ORTHOMODE
 70
     1
  9
$REGENMODE
 70
     1
  9
$FILLMODE
 70
     1
  9
$QTEXTMODE
 70
     0
  9
$MIRRTEXT
 70
     1
  9
$DRAGMODE
 70
     2
  9
$LTSCALE
 40
20.0
  9
$OSMODE
 70
  2495
  9
$ATTMODE
 70
     1
  9
$TEXTSIZE
 40
3.5
  9
$TRACEWID
 40
0.5
  9
$TEXTSTYLE
  7
STANDARD
  9
$CLAYER
  8
STEMPEL
  9
$CELTYPE
  6
BYLAYER
  9
$CECOLOR
 62
   256
  9
$DIMSCALE
 40
1.0
  9
$DIMASZ
 40
3.5
  9
$DIMEXO
 40
1.0
  9
$DIMDLI
 40
7.0
  9
$DIMRND
 40
0.0
  9
$DIMDLE
 40
0.0
  9
$DIMEXE
 40
1.0
  9
$DIMTP
 40
0.0
  9
$DIMTM
 40
0.0
  9
$DIMTXT
 40
3.5
  9
$DIMCEN
 40
1.5
  9
$DIMTSZ
 40
0.0
  9
$DIMTOL
 70
     0
  9
$DIMLIM
 70
     0
  9
$DIMTIH
 70
     0
  9
$DIMTOH
 70
     0
  9
$DIMSE1
 70
     0
  9
$DIMSE2
 70
     0
  9
$DIMTAD
 70
     1
  9
$DIMZIN
 70
     8
  9
$DIMBLK
  1

  9
$DIMASO
 70
     1
  9
$DIMSHO
 70
     0
  9
$DIMPOST
  1

  9
$DIMAPOST
  1

  9
$DIMALT
 70
     0
  9
$DIMALTD
 70
     2
  9
$DIMALTF
 40
25.3999999999999986
  9
$DIMLFAC
 40
2.0
  9
$DIMTOFL
 70
     1
  9
$DIMTVP
 40
0.0
  9
$DIMTIX
 70
     0
  9
$DIMSOXD
 70
     0
  9
$DIMSAH
 70
     0
  9
$DIMBLK1
  1

  9
$DIMBLK2
  1

  9
$DIMSTYLE
  2
STANDARD
  9
$DIMCLRD
 70
     0
  9
$DIMCLRE
 70
     0
  9
$DIMCLRT
 70
     1
  9
$DIMTFAC
 40
0.5142857142857143
  9
$DIMGAP
 40
1.5
  9
$LUNITS
 70
     2
  9
$LUPREC
 70
     2
  9
$SKETCHINC
 40
1.0
  9
$FILLETRAD
 40
5.0
  9
$AUNITS
 70
     0
  9
$AUPREC
 70
     0
  9
$MENU
  1
ACAD
  9
$ELEVATION
 40
0.0
  9
$PELEVATION
 40
0.0
  9
$THICKNESS
 40
0.0
  9
$LIMCHECK
 70
     0
  9
$BLIPMODE
 70
     0
  9
$CHAMFERA
 40
0.0
  9
$CHAMFERB
 40
0.0
  9
$SKPOLY
 70
     0
  9
$TDCREATE
 40
2455397.8646990740671754
  9
$TDUPDATE
 40
2459677.5809722221456468
  9
$TDINDWG
 40
0.3206451157
  9
$TDUSRTIMER
 40
0.3206451157
  9
$USRTIMER
 70
     1
  9
$ANGBASE
 50
0.0
  9
$ANGDIR
 70
     0
  9
$PDMODE
 70
     0
  9
$PDSIZE
 40
0.0
  9
$PLINEWID
 40
0.0
  9
$COORDS
 70
     1
  9
$SPLFRAME
 70
     0
  9
$SPLINETYPE
 70
     6
  9
$SPLINESEGS
 70
     8
  9
$ATTDIA
 70
     1
  9
$ATTREQ
 70
     1
  9
$HANDLING
 70
     1
  9
$HANDSEED
  5
277A
  9
$SURFTAB1
 70
     6
  9
$SURFTAB2
 70
     6
  9
$SURFTYPE
 70
     6
  9
$SURFU
 70
     6
  9
$SURFV
 70
     6
  9
$UCSNAME
  2

  9
$UCSORG
 10
0.0
 20
0.0
 30
0.0
  9
$UCSXDIR
 10
1.0
 20
0.0
 30
0.0
  9
$UCSYDIR
 10
0.0
 20
1.0
 30
0.0
  9
$PUCSNAME
  2

  9
$PUCSORG
 10
0.0
 20
0.0
 30
0.0
  9
$PUCSXDIR
 10
1.0
 20
0.0
 30
0.0
  9
$PUCSYDIR
 10
0.0
 20
1.0
 30
0.0
  9
$USERI1
 70
     0
  9
$USERI2
 70
     0
  9
$USERI3
 70
     0
  9
$USERI4
 70
     0
  9
$USERI5
 70
     0
  9
$USERR1
 40
0.0
  9
$USERR2
 40
0.0
  9
$USERR3
 40
0.0
  9
$USERR4
 40
0.0
  9
$USERR5
 40
0.0
  9
$WORLDVIEW
 70
     1
  9
$SHADEDGE
 70
     3
  9
$SHADEDIF
 70
    70
  9
$TILEMODE
 70
     1
  9
$MAXACTVP
 70
    16
  9
$PLIMCHECK
 70
     0
  9
$PEXTMIN
 10
1.0000000000000000E+20
 20
1.0000000000000000E+20
 30
1.0000000000000000E+20
  9
$PEXTMAX
 10
-1.0000000000000000E+20
 20
-1.0000000000000000E+20
 30
-1.0000000000000000E+20
  9
$PLIMMIN
 10
-186.1184717860826936
 20
-122.388291265346993
  9
$PLIMMAX
 10
23.88152821391731
 20
174.611708734653007
  9
$UNITMODE
 70
     0
  9
$VISRETAIN
 70
     0
  9
$PLINEGEN
 70
     0
  9
$PSLTSCALE
 70
     0
  0
ENDSEC
  0
SECTION
  2
TABLES
  0
TABLE
  2
VPORT
 70
     1
  0
VPORT
  2
*ACTIVE
 70
     0
 10
0.0
 20
0.0
 11
1.0
 21
1.0
 12
-48.2566959170923724
 22
-22.2156839211026806
 13
0.0
 23
0.0
 14
1.0
 24
1.0
 15
10.0
 25
10.0
 16
-0.0000000000013642
 26
0.0
 36
1299.7226800968840053
 17
1034.5510863296290154
 27
108.202755925108093
 37
-35.0118541885292984
 40
396.3998393720506215
 41
1.785202863961814
 42
50.0
 43
0.0
 44
0.0
 50
0.0
 51
0.0
 71
     0
 72
  1500
 73
     1
 74
     0
 75
     0
 76
     0
 77
     0
 78
     0
  0
ENDTAB
  0
TABLE
  2
LTYPE
 70
     5
  0
LTYPE
  2
CONTINUOUS
 70
     0
  3
Solid line
 72
    65
 73
     0
 40
0.0
  0
LTYPE
  2
VERDECKT
 70
     0
  3
Verdeckt __ __ __ __ __ __ __ __ __ __ __ __ __
 72
    65
 73
     2
 40
0.375
 49
0.25
 49
-0.125
  0
ENDTAB
  0
TABLE
  2
LAYER
 70
    14
  0
LAYER
  2
0
 70
     0
 62
     7
  6
CONTINUOUS
  0
LAYER
  2
VOLL
 70
     0
 62
     1
  6
CONTINUOUS
  0
LAYER
  2
STEMPEL
 70
     0
 62
     3
  6
CONTINUOUS
  0
LAYER
  2
DEFPOINTS
 70
     0
 62
     7
  6
CONTINUOUS
  0
LAYER
  2
ADSK_ASSOC_ENTITY_BACKUPS
 70
     1
 62
    -7
  6
CONTINUOUS
  0
ENDTAB
  0
TABLE
  2
STYLE
 70
     4
  0
STYLE
  2
STANDARD
 70
     0
 40
0.0
 41
0.8
 50
0.0
 71
     0
 42
3.5
  3
simplex.shx
  4

  0
STYLE
  2
GREEKS
 70
     0
 40
0.0
 41
0.8
 50
0.0
 71
     0
 42
2.5
  3
SIMPLEX.shx
  4

  0
ENDTAB
  0
TABLE
  2
VIEW
 70
     1
  0
ENDTAB
  0
TABLE
  2
UCS
 70
     0
  0
ENDTAB
  0
TABLE
  2
APPID
 70
    21
  0
APPID
  2
ACAD
 70
     0
  0
APPID
  2
ACAD_STEPID
 70
     0
  0
APPID
  2
ACAD_NAV_VCDISPLAY
 70
     0
  0
APPID
  2
ACAECLAYERSTANDARD
 70
     0
  0
APPID
  2
ACCMTRANSPARENCY
 70
     0
  0
APPID
  2
ACAD_PSEXT
 70
     0
  0
APPID
  2
ACAD_EXEMPT_FROM_CAD_STANDARDS
 70
     0
  0
APPID
  2
ACSYNERGY
 70
     0
  0
APPID
  2
SYNERGY_BODY_TBR_ID
 70
     0
  0
APPID
  2
ACAD_VIEW_EDGE_ID
 70
     0
  0
APPID
  2
ACSYNERGYSKETCH
 70
     0
  0
APPID
  2
ACAD_MODELDOC_XFORM
 70
     0
  0
APPID
  2
ACAD_MLEADERVER
 70
     0
  0
APPID
  2
ACADANNOMONITORALERTICONDI
 70
     0
  0
APPID
  2
ACAD_DIMASSOC_CALC_DIMLFAC
 70
     0
  0
APPID
  2
ACAD_DIMASSOC_DIMLFAC
 70
     0
  0
APPID
  2
ACAD_DIMASSOC_OVERRIDDEN_D
 70
     0
  0
APPID
  2
ACAD_DSTYLE_DIMRADIAL_EXTENSION
 70
     0
  0
APPID
  2
ACAD_DSTYLE_DIMJAG
 70
     0
  0
APPID
  2
ACAD_DSTYLE_DIMTALN
 70
     0
  0
APPID
  2
AcDbAttr
 70
     0
  0
ENDTAB
  0
TABLE
  2
DIMSTYLE
 70
     2
  0
DIMSTYLE
  2
STANDARD
 70
     0
  3

  4

  5

  6

  7

 40
1.0
 41
0.18
 42
0.0625
 43
0.38
 44
0.18
 45
0.0
 46
0.0
 47
0.0
 48
0.0
140
0.18
141
0.09
142
0.0
143
25.3999999999999986
144
1.0
145
0.0
146
1.0
147
0.09
 71
     0
 72
     0
 73
     1
 74
     1
 75
     0
 76
     0
 77
     0
 78
     0
170
     0
171
     2
172
     0
173
     0
174
     0
175
     0
176
     0
177
     0
178
     0
  0
ENDTAB
  0
ENDSEC
  0
SECTION
  2
BLOCKS
  0
BLOCK
  8
0
  2
$MODEL_SPACE
 70
     0
 10
0.0
 20
0.0
 30
0.0
  3
$MODEL_SPACE
  1

  0
ENDBLK
  5
36
  8
0
  0
BLOCK
 67
     1
  8
0
  2
$PAPER_SPACE
 70
     0
 10
0.0
 20
0.0
 30
0.0
  3
$PAPER_SPACE
  1

  0
ENDBLK
  5
34
 67
     1
  8
0
  0
BLOCK
  8
0
  2
*S0
 70
     1
 10
0.0
 20
0.0
 30
0.0
  3
*S0
  1

  0
ENDBLK
  5
18C4
  8
0
  0
BLOCK
  8
0
  2
A$C851273C9
 70
     0
 10
0.0
 20
0.0
 30
0.0
  3
A$C851273C9
  1

  0
CIRCLE
  5
26C4
  8
0
 10
724.7183852813535623
 20
248.7406140871806031
 30
0.0000000000002132
 40
57.5
  0
LINE
  5
26C5
  8
0
 10
637.7183852813533349
 20
339.7406140871804041
 30
0.0000000000001847
 11
637.7183852813533349
 21
335.7406140871804041
 31
0.0000000000001847
  0
LINE
  5
26C6
  8
0
 10
811.7183852813534486
 20
335.7406140871805746
 30
0.0000000000002416
 11
811.7183852813534486
 21
339.7406140871805746
 31
0.0000000000002416
  0
LINE
  5
26C7
  8
0
 10
811.7183852813526528
 20
157.7406140871806031
 30
0.0000000000002416
 11
811.7183852813526528
 21
161.7406140871802904
 31
0.0000000000002416
  0
LINE
  5
26C8
  8
0
 10
641.7183852813534486
 20
331.7406140871804041
 30
0.0000000000001892
 11
637.7183852813534486
 21
335.7406140871804041
 31
0.0000000000001878
  0
LINE
  5
26C9
  8
0
 10
811.7183852813535623
 20
335.7406140871804041
 30
0.0000000000002394
 11
807.7183852813534486
 21
331.7406140871804041
 31
0.0000000000002381
  0
LINE
  5
26CA
  8
0
 10
637.7183852813529938
 20
161.7406140871804894
 30
0.0000000000001847
 11
637.7183852813527665
 21
157.7406140871806031
 31
0.0000000000001847
  0
LINE
  5
26CB
  8
0
 10
637.7183852813534486
 20
161.7406140871802904
 30
0.0000000000001878
 11
641.7183852813534486
 21
165.7406140871802904
 31
0.0000000000001892
  0
LINE
  5
26CC
  8
0
 10
807.7183852813534486
 20
165.7406140871802904
 30
0.0000000000002381
 11
811.7183852813535623
 21
161.7406140871802904
 31
0.0000000000002394
  0
LINE
  5
26CD
  8
0
 10
811.7183852813532212
 20
161.7406140871802904
 30
0.0000000000002416
 11
637.7183852813533349
 21
161.7406140871804041
 31
0.0000000000001903
  0
LINE
  5
26CE
  8
0
 10
637.7183852813533349
 20
335.7406140871804041
 30
0.0000000000001847
 11
811.7183852813534486
 21
335.7406140871805178
 31
0.000000000000236
  0
LINE
  5
26CF
  8
0
 10
811.7183852813534486
 20
339.7406140871805746
 30
0.0000000000002416
 11
637.7183852813533349
 21
339.7406140871804041
 31
0.0000000000001903
  0
LINE
  5
26D0
  8
0
 10
637.7183852813526528
 20
157.7406140871806031
 30
0.0000000000001847
 11
811.7183852813526528
 21
157.7406140871804894
 31
0.000000000000236
  0
LINE
  5
26D1
  8
0
 10
811.7183852813535623
 20
161.7406140871804894
 30
0.0000000000002416
 11
815.7183852813534486
 21
161.7406140871804894
 31
0.0000000000002428
  0
LINE
  5
26D2
  8
0
 10
633.7183852813534486
 20
161.740614087181001
 30
0.0000000000001847
 11
637.7183852813534486
 21
161.740614087181001
 31
0.0000000000001859
  0
LINE
  5
26D3
  8
0
 10
815.7183852813534486
 20
335.7406140871805746
 30
0.0000000000002416
 11
811.7183852813534486
 21
335.7406140871805746
 31
0.0000000000002404
  0
LINE
  5
26D4
  8
0
 10
637.7183852813534486
 20
335.7406140871809725
 30
0.0000000000001847
 11
633.7183852813535623
 21
335.7406140871809725
 31
0.0000000000001836
  0
LINE
  5
26D5
  8
0
 10
637.7183852813534486
 20
161.7406140871804894
 30
0.0000000000001847
 11
637.7183852813534486
 21
335.7406140871805746
 31
0.0000000000001847
  0
LINE
  5
26D6
  8
0
 10
811.7183852813534486
 20
335.7406140871805746
 30
0.0000000000002416
 11
811.7183852813535623
 21
161.7406140871804894
 31
0.0000000000002416
  0
LINE
  5
26D7
  8
0
 10
815.7183852813534486
 20
161.7406140871804894
 30
0.0000000000002416
 11
815.7183852813534486
 21
335.7406140871805746
 31
0.0000000000002416
  0
LINE
  5
26D8
  8
0
 10
633.7183852813535623
 20
335.7406140871809725
 30
0.0000000000001847
 11
633.7183852813535623
 21
161.740614087181001
 31
0.0000000000001847
  0
CIRCLE
  5
26D9
  8
0
  6
VERDECKT
 62
     1
 10
724.7183852813535623
 20
248.7406140871806031
 30
0.0000000000002132
 40
60.3252387821457887
  0
CIRCLE
  5
26DA
  8
0
  6
VERDECKT
 62
     1
 10
724.7183852813535623
 20
248.7406140871806031
 30
0.0000000000002132
 40
57.6076951545871907
  0
CIRCLE
  5
26DB
  8
0
  6
VERDECKT
 62
     1
 10
724.7183852813535623
 20
248.7406140871806031
 30
0.0000000000002132
 40
66.5
  0
CIRCLE
  5
26DC
  8
0
  6
VERDECKT
 62
     1
 10
724.7183852813535623
 20
248.7406140871804894
 30
0.0000000000002274
 40
65.187670047111169
  0
CIRCLE
  5
26DD
  8
0
  6
VERDECKT
 62
     1
 10
724.7183852813535623
 20
248.7406140871804894
 30
0.0000000000002274
 40
62.6644835869255985
  0
CIRCLE
  5
26DE
  8
0
  6
VERDECKT
 62
     1
 10
724.7183852813535623
 20
248.7406140871806031
 30
0.0000000000002132
 40
64.0
  0
ENDBLK
  5
26E0
  8
0
  0
BLOCK
  8
0
  2
A$C123A4029
 70
     0
 10
0.0
 20
0.0
 30
0.0
  3
A$C123A4029
  1

  0
LINE
  5
26E4
  8
0
 10
782.3260804359400709
 20
-18.0
 30
0.000000000000004
 11
785.043624063499351
 21
-18.0
 31
0.000000000000004
210
0.0
220
1.0
230
-0.0000000000000002
  0
LINE
  5
26E5
  8
0
 10
706.8162096286812357
 20
-18.0
 30
0.000000000000004
 11
742.6205609340263436
 21
-18.0
 31
0.000000000000004
210
0.0
220
1.0
230
-0.0000000000000002
  0
LINE
  5
26E6
  8
0
 10
664.3931464992077736
 20
-18.0
 30
0.000000000000004
 11
667.1106901267667126
 21
-18.0
 31
0.000000000000004
210
0.0
220
1.0
230
-0.0000000000000002
  0
LINE
  5
26E7
  8
0
 10
659.5307152342423933
 20
-138.0
 30
0.0000000000000306
 11
789.9060553284648449
 21
-138.0
 31
0.0000000000000306
210
0.0
220
1.0
230
-0.0000000000000002
  0
LINE
  5
26E8
  8
0
 10
785.043624063499351
 20
-18.0000000000000391
 30
0.000000000000004
 11
790.0576375503455893
 21
-29.7657408589743611
 31
0.0000000000000066
210
0.0
220
1.0
230
-0.0000000000000002
  0
LINE
  5
26E9
  8
0
 10
664.3931464992078872
 20
-18.0000000000000391
 30
0.000000000000004
 11
659.379133012361649
 21
-29.7657408589743611
 31
0.0000000000000066
210
0.0
220
1.0
230
-0.0000000000000002
  0
ARC
  5
26EA
  8
0
 10
-672.7183852813570866
 20
-35.4503119865261809
 30
0.0
 40
14.5000000000035207
210
0.0
220
-0.0000000000000002
230
-1.0
 50
0.0000000000031169
 51
23.0814557397924496
  0
ARC
  5
26EB
  8
0
 10
-776.7183852813501517
 20
-35.4503119865261809
 30
0.0
 40
14.5000000000035207
210
0.0
220
-0.0000000000000002
230
-1.0
 50
156.9185442602075113
 51
179.999999999996902
  0
LINE
  5
26EC
  8
0
 10
791.2183852813535623
 20
-35.4503119865253922
 30
0.0000000000000079
 11
791.2183852813535623
 21
-128.0469169659608042
 31
0.0000000000000284
210
0.0
220
1.0
230
-0.0000000000000002
  0
LINE
  5
26ED
  8
0
 10
658.2183852813535623
 20
-35.4503119865253922
 30
0.0000000000000079
 11
658.2183852813535623
 21
-128.0469169659608042
 31
0.0000000000000284
210
0.0
220
1.0
230
-0.0000000000000002
  0
ARC
  5
26EE
  8
0
 10
-663.2183852813551539
 20
-128.0469169659610031
 30
0.0
 40
5.0000000000015907
210
0.0
220
-0.0000000000000002
230
-1.0
 50
352.2265587845676009
 51
0.00000000000229
  0
ARC
  5
26EF
  8
0
 10
-786.2183852813523117
 20
-128.0469169659610031
 30
0.0
 40
5.0000000000013642
210
0.0
220
-0.0000000000000002
230
-1.0
 50
179.9999999999969873
 51
187.7734412154323991
  0
LINE
  5
26F0
  8
0
 10
659.5307152342423933
 20
-138.0
 30
0.0000000000000306
 11
658.2643320644216374
 21
-128.7231985077810918
 31
0.0000000000000286
210
0.0
220
1.0
230
-0.0000000000000002
  0
LINE
  5
26F1
  8
0
 10
789.9060553284648449
 20
-138.0
 30
0.0000000000000306
 11
791.1724384982857146
 21
-128.7231985077810918
 31
0.0000000000000286
210
0.0
220
1.0
230
-0.0000000000000002
  0
ARC
  5
26F2
  8
0
 10
-807.7183852813534486
 20
4.0000000000001137
 30
0.0
 40
8.0000000000000018
210
0.0
220
-0.0000000000000002
230
-1.0
 50
240.0000000000023022
 51
270.0
  0
ARC
  5
26F3
  8
0
 10
-807.7183852813534486
 20
4.0
 30
0.0
 40
8.0000000000000568
210
0.0
220
-0.0000000000000002
230
-1.0
 50
180.0
 51
240.0000000000019043
  0
ARC
  5
26F4
  8
0
 10
-641.7183852813534486
 20
4.0000000000001137
 30
0.0
 40
8.0000000000000018
210
0.0
220
-0.0000000000000002
230
-1.0
 50
270.0
 51
300.0000000000022169
  0
ARC
  5
26F5
  8
0
 10
-641.7183852813535623
 20
4.0
 30
0.0
 40
7.9999999999999938
210
0.0
220
-0.0000000000000002
230
-1.0
 50
300.0000000000038085
 51
0.0000000000000572
  0
LINE
  5
26F6
  8
0
 10
811.7183852813532212
 20
4.0000000000001128
 30
-0.0000000000000009
 11
811.7183852813532212
 21
-2.928203230275586
 31
0.0000000000000007
210
0.0
220
1.0
230
-0.0000000000000002
  0
LINE
  5
26F7
  8
0
 10
637.7183852813531075
 20
-2.9282032302754462
 30
0.0000000000000007
 11
637.7183852813534486
 21
4.0000000000001137
 31
-0.0000000000000009
210
0.0
220
1.0
230
-0.0000000000000002
  0
LINE
  5
26F8
  8
0
 10
807.7183852813534486
 20
-4.0
 30
0.0000000000000009
 11
641.7183852813534486
 21
-3.9999999999999898
 31
0.0000000000000009
210
0.0
220
1.0
230
-0.0000000000000002
  0
LINE
  5
26F9
  8
0
 10
811.7183852813532212
 20
4.0000000000001137
 30
-0.0000000000000009
 11
811.7183852813532212
 21
35.0000000000001208
 31
-0.0000000000000078
210
0.0
220
1.0
230
-0.0000000000000002
  0
LINE
  5
26FA
  8
0
 10
637.7183852813526528
 20
4.0000000000001137
 30
-0.0000000000000009
 11
637.7183852813526528
 21
35.0000000000001208
 31
-0.0000000000000078
210
0.0
220
1.0
230
-0.0000000000000002
  0
LINE
  5
26FB
  8
0
 10
637.7183852813526528
 20
35.0000000000001208
 30
-0.0000000000000078
 11
811.7183852813526528
 21
35.0000000000001066
 31
-0.0000000000000078
210
0.0
220
1.0
230
-0.0000000000000002
  0
LINE
  5
26FC
  8
0
 10
815.7183852813534486
 20
4.0
 30
-0.0000000000000009
 11
815.7183852813534486
 21
35.0000000000000071
 31
-0.0000000000000078
210
0.0
220
1.0
230
-0.0000000000000002
  0
LINE
  5
26FD
  8
0
 10
811.7183852813535623
 20
35.0000000000000071
 30
-0.0000000000000078
 11
815.7183852813534486
 21
35.0000000000000071
 31
-0.0000000000000078
210
0.0
220
1.0
230
-0.0000000000000002
  0
LINE
  5
26FE
  8
0
 10
633.7183852813534486
 20
35.0000000000000071
 30
-0.0000000000000078
 11
637.7183852813534486
 21
35.0000000000000071
 31
-0.0000000000000078
210
0.0
220
1.0
230
-0.0000000000000002
  0
LINE
  5
26FF
  8
0
 10
633.7183852813534486
 20
4.0
 30
-0.0000000000000009
 11
633.7183852813534486
 21
35.0000000000000071
 31
-0.0000000000000078
210
0.0
220
1.0
230
-0.0000000000000002
  0
ARC
  5
2700
  8
0
 10
-652.099583127836695
 20
-8.0000000000000018
 30
0.0
 40
4.0000000000000027
210
0.0
220
-0.0000000000000002
230
-1.0
 50
89.9999999999998721
 51
149.999999999999801
  0
LINE
  5
2701
  8
0
 10
655.5636847429742602
 20
-5.999999999999944
 30
0.0000000000000013
 11
660.1824868964912412
 21
-13.9999999999998899
 31
0.0000000000000031
210
0.0
220
1.0
230
-0.0000000000000002
  0
ARC
  5
2702
  8
0
 10
667.11069012676694
 20
-9.9999999999999432
 30
0.0000000000000022
 40
8.0000000000000249
 50
209.9999999999992895
 51
269.9999999999994884
  0
ARC
  5
2703
  8
0
 10
782.3260804359404119
 20
-10.0000000000001705
 30
0.0000000000000022
 40
7.9999999999998286
 50
270.0
 51
330.0000000000019895
  0
LINE
  5
2704
  8
0
 10
789.254283666215656
 20
-14.0
 30
0.0000000000000031
 11
793.873085819732637
 21
-6.0000000000000577
 31
0.0000000000000013
210
0.0
220
1.0
230
-0.0000000000000002
  0
ARC
  5
2705
  8
0
 10
-797.3371874348704296
 20
-8.0000000000000018
 30
0.0
 40
4.0
210
0.0
220
-0.0000000000000002
230
-1.0
 50
30.0000000000000107
 51
90.0000000000000284
  0
LINE
  5
2706
  8
0
 10
667.1106901267668263
 20
-17.9999999999999396
 30
0.000000000000004
 11
706.8162096286812357
 21
-17.9999999999999503
 31
0.000000000000004
210
0.0
220
1.0
230
-0.0000000000000002
  0
LINE
  5
2707
  8
0
 10
742.6205609340263436
 20
-17.9999999999999396
 30
0.000000000000004
 11
782.3260804359400709
 21
-18.0
 31
0.000000000000004
210
0.0
220
1.0
230
-0.0000000000000002
  0
LINE
  5
2708
  8
0
  6
VERDECKT
 62
     1
 10
662.0539016944278501
 20
-138.0
 30
0.0000000000000306
 11
660.7413586728877135
 21
-128.3850577368719996
 31
0.0000000000000285
210
0.0
220
1.0
230
-0.0000000000000002
  0
LINE
  5
2709
  8
0
  6
VERDECKT
 62
     1
 10
787.3828688682792745
 20
-138.0
 30
0.0000000000000306
 11
788.6954118898196384
 21
-128.3850577368719996
 31
0.0000000000000285
210
0.0
220
1.0
230
-0.0000000000000002
  0
ARC
  5
270A
  8
0
  6
VERDECKT
 62
     1
 10
-663.2183852813302565
 20
-128.0469169659627084
 30
0.0
 40
2.4999999999765792
210
0.0
220
-0.0000000000000002
230
-1.0
 50
352.2265587845108143
 51
0.0000000000215005
  0
ARC
  5
270B
  8
0
  6
VERDECKT
 62
     1
 10
-786.2183852813770955
 20
-128.0469169659627084
 30
0.0
 40
2.4999999999765801
210
0.0
220
-0.0000000000000002
230
-1.0
 50
179.9999999999785132
 51
187.7734412154889867
  0
LINE
  5
270C
  8
0
  6
VERDECKT
 62
     1
 10
788.7183852813535623
 20
-35.4503119865253922
 30
0.0000000000000079
 11
788.7183852813535623
 21
-128.046916965961799
 31
0.0000000000000284
210
0.0
220
1.0
230
-0.0000000000000002
  0
LINE
  5
270D
  8
0
  6
VERDECKT
 62
     1
 10
660.718385281353676
 20
-35.4503119865253922
 30
0.0000000000000079
 11
660.718385281353676
 21
-128.046916965961799
 31
0.0000000000000284
210
0.0
220
1.0
230
-0.0000000000000002
  0
ARC
  5
270E
  8
0
  6
VERDECKT
 62
     1
 10
-672.7183852813559497
 20
-35.4503119865261098
 30
0.0
 40
12.0000000000022702
210
0.0
220
-0.0000000000000002
230
-1.0
 50
0.0000000000034604
 51
23.0814557397946487
  0
ARC
  5
270F
  8
0
  6
VERDECKT
 62
     1
 10
-776.7183852813514022
 20
-35.4503119865261098
 30
0.0
 40
12.0000000000022702
210
0.0
220
-0.0000000000000002
230
-1.0
 50
156.9185442602052944
 51
179.9999999999965041
  0
LINE
  5
2710
  8
0
  6
VERDECKT
 62
     1
 10
782.3260804359408667
 20
-17.9999999999999609
 30
0.000000000000004
 11
787.7577664694849773
 21
-30.7458393292415799
 31
0.0000000000000068
210
0.0
220
1.0
230
-0.0000000000000002
  0
LINE
  5
2711
  8
0
  6
VERDECKT
 62
     1
 10
667.1106901267663716
 20
-17.9999999999999609
 30
0.000000000000004
 11
661.6790040932221473
 21
-30.7458393292415799
 31
0.0000000000000068
210
0.0
220
1.0
230
-0.0000000000000002
  0
ARC
  5
2712
  8
0
  6
VERDECKT
 62
     1
 10
641.7183852813534486
 20
4.0000000000001137
 30
-0.0000000000000009
 40
4.0
 50
180.0000000000015064
 51
270.0
  0
ARC
  5
2713
  8
0
  6
VERDECKT
 62
     1
 10
807.7183852813534486
 20
4.0000000000001137
 30
-0.0000000000000009
 40
4.0
 50
270.0
 51
359.9999999999984084
  0
LINE
  5
2714
  8
0
  6
VERDECKT
 62
     1
 10
807.7183852813534486
 20
0.0
 30
0.0
 11
641.7183852813534486
 21
0.0000000000000102
 31
0.0
210
0.0
220
1.0
230
-0.0000000000000002
  0
ARC
  5
2715
  8
0
  6
VERDECKT
 62
     1
 10
-652.0995831278362402
 20
-8.0000000000000586
 30
0.0
 40
8.0000000000000568
210
0.0
220
-0.0000000000000002
230
-1.0
 50
90.0
 51
150.0000000000005116
  0
ARC
  5
2716
  8
0
  6
VERDECKT
 62
     1
 10
797.3371874348705433
 20
-8.0000000000000018
 30
0.0000000000000018
 40
8.0
 50
90.0
 51
149.9999999999969873
  0
LINE
  5
2717
  8
0
  6
VERDECKT
 62
     1
 10
663.6465885116283516
 20
-11.9999999999997708
 30
0.0000000000000027
 11
659.0277863581118254
 21
-4.0000000000001137
 31
0.0000000000000009
210
0.0
220
1.0
230
-0.0000000000000002
  0
ARC
  5
2718
  8
0
  6
VERDECKT
 62
     1
 10
667.1106901267663716
 20
-9.9999999999997744
 30
0.0000000000000022
 40
4.0000000000001696
 50
209.9999999999996874
 51
269.9999999999984084
  0
ARC
  5
2719
  8
0
  6
VERDECKT
 62
     1
 10
782.3260804359399572
 20
-10.0
 30
0.0000000000000022
 40
3.9999999999999098
 50
269.99999999999892
 51
329.9999999999993747
  0
LINE
  5
271A
  8
0
  6
VERDECKT
 62
     1
 10
782.3260804359398435
 20
-13.9999999999999503
 30
0.0000000000000031
 11
667.1106901267661442
 21
-13.9999999999999396
 31
0.0000000000000031
210
0.0
220
1.0
230
-0.0000000000000002
  0
LINE
  5
271B
  8
0
  6
VERDECKT
 62
     1
 10
790.4089842045950718
 20
-3.9999999999996589
 30
0.0000000000000009
 11
785.7901820510777497
 21
-12.0
 31
0.0000000000000027
210
0.0
220
1.0
230
-0.0000000000000002
  0
LINE
  5
271C
  8
0
  6
VERDECKT
 62
     1
 10
667.2183852813535623
 20
-18.0
 30
0.000000000000004
 11
667.2183852813535623
 21
-13.9999999999999503
 31
0.0000000000000031
210
0.0
220
1.0
230
-0.0000000000000002
  0
LINE
  5
271D
  8
0
  6
VERDECKT
 62
     1
 10
782.218385281353676
 20
-18.0000000000000284
 30
0.000000000000004
 11
782.218385281353676
 21
-13.9999999999998899
 31
0.0000000000000031
210
0.0
220
1.0
230
-0.0000000000000002
  0
ENDBLK
  5
271F
  8
0
  0
ENDSEC
  0
SECTION
  2
ENTITIES
  0
TEXT
  5
8F
  8
VOLL
 10
78.076754716981128
 20
31.025947764705851
 30
0.0
 40
1.8
  1

  7
GREEKS
  0
INSERT
  5
18C6
  8
ADSK_ASSOC_ENTITY_BACKUPS
  2
*S0
 10
0.0
 20
0.0
 30
0.0
  0
INSERT
  5
26E1
  8
STEMPEL
  2
A$C851273C9
 10
261.5760051311834786
 20
-268.5461250613706738
 30
-70.023708377059279
  0
INSERT
  5
2720
  8
STEMPEL
  2
A$C123A4029
 10
261.5760051311835923
 20
247.7796549822008103
 30
-70.02370837705908
  0
VIEWPORT
  5
18A3
 67
     1
  8
0
 10
-81.1184717860826936
 20
26.1117087346529786
 30
0.0
 40
533.9969448798291296
 41
299.1239570917758783
 68
     1
 69
     1
1001
ACAD
1000
MVIEW
1002
{
1070
    16
1010
0.0
1020
0.0
1030
0.0
1010
0.0
1020
0.0
1030
1.0
1040
0.0
1040
299.1239570917758783
1040
-81.1184717860826936
1040
26.1117087346529786
1040
50.0
1040
0.0
1040
0.0
1070
     0
1070
  1500
1070
     1
1070
     1
1070
     0
1070
     0
1070
     0
1070
     0
1040
0.0
1040
0.0
1040
0.0
1040
10.0
1040
10.0
1040
10.0
1040
10.0
1070
     0
1002
{
1002
}
1002
}
  0
TEXT
  5
1B7C
 67
     1
  8
VOLL
 10
521.8085518409868655
 20
106.5838535065310992
 30
0.0
 40
3.6000000000000001
  1

  7
GREEKS
  0
ENDSEC
  0
EOF
