  0
SECTION
  2
HEADER
  9
$ACADVER
  1
AC1009
  9
$INSBASE
 10
0.0
 20
0.0
 30
0.0
  9
$EXTMIN
 10
-105.5
 20
-255.5
 30
-0.0000000000000666
  9
$EXTMAX
 10
105.5000000000000995
 20
300.0
 30
0.0000000000000012
  9
$LIMMIN
 10
0.0
 20
0.0
  9
$LIMMAX
 10
594.0
 20
840.0
  9
$ORTHOMODE
 70
     1
  9
$REGENMODE
 70
     1
  9
$FILLMODE
 70
     1
  9
$QTEXTMODE
 70
     0
  9
$MIRRTEXT
 70
     1
  9
$DRAGMODE
 70
     2
  9
$LTSCALE
 40
10.0
  9
$OSMODE
 70
   511
  9
$ATTMODE
 70
     1
  9
$TEXTSIZE
 40
3.5
  9
$TRACEWID
 40
1.0
  9
$TEXTSTYLE
  7
STANDARD
  9
$CLAYER
  8
STEMPEL
  9
$CELTYPE
  6
BYLAYER
  9
$CECOLOR
 62
   256
  9
$DIMSCALE
 40
1.0
  9
$DIMASZ
 40
3.5
  9
$DIMEXO
 40
1.0
  9
$DIMDLI
 40
0.38
  9
$DIMRND
 40
0.0
  9
$DIMDLE
 40
0.0
  9
$DIMEXE
 40
1.0
  9
$DIMTP
 40
0.0
  9
$DIMTM
 40
0.000000001
  9
$DIMTXT
 40
3.5
  9
$DIMCEN
 40
0.09
  9
$DIMTSZ
 40
0.0
  9
$DIMTOL
 70
     0
  9
$DIMLIM
 70
     0
  9
$DIMTIH
 70
     0
  9
$DIMTOH
 70
     0
  9
$DIMSE1
 70
     0
  9
$DIMSE2
 70
     0
  9
$DIMTAD
 70
     1
  9
$DIMZIN
 70
     8
  9
$DIMBLK
  1

  9
$DIMASO
 70
     1
  9
$DIMSHO
 70
     0
  9
$DIMPOST
  1

  9
$DIMAPOST
  1

  9
$DIMALT
 70
     0
  9
$DIMALTD
 70
     2
  9
$DIMALTF
 40
25.3999999999999986
  9
$DIMLFAC
 40
2.0
  9
$DIMTOFL
 70
     1
  9
$DIMTVP
 40
0.0
  9
$DIMTIX
 70
     0
  9
$DIMSOXD
 70
     0
  9
$DIMSAH
 70
     0
  9
$DIMBLK1
  1

  9
$DIMBLK2
  1

  9
$DIMSTYLE
  2
LORO
  9
$DIMCLRD
 70
     0
  9
$DIMCLRE
 70
     0
  9
$DIMCLRT
 70
     1
  9
$DIMTFAC
 40
0.5
  9
$DIMGAP
 40
1.5
  9
$LUNITS
 70
     2
  9
$LUPREC
 70
     2
  9
$SKETCHINC
 40
1.0
  9
$FILLETRAD
 40
3.0
  9
$AUNITS
 70
     0
  9
$AUPREC
 70
     0
  9
$MENU
  1
ACAD
  9
$ELEVATION
 40
0.0
  9
$PELEVATION
 40
0.0
  9
$THICKNESS
 40
0.0
  9
$LIMCHECK
 70
     0
  9
$BLIPMODE
 70
     0
  9
$CHAMFERA
 40
0.0
  9
$CHAMFERB
 40
0.0
  9
$SKPOLY
 70
     0
  9
$TDCREATE
 40
2455397.867048610933125
  9
$TDUPDATE
 40
2460728.5690162042155862
  9
$TDINDWG
 40
2.8686173842999998
  9
$TDUSRTIMER
 40
2.8686173842999998
  9
$USRTIMER
 70
     1
  9
$ANGBASE
 50
0.0
  9
$ANGDIR
 70
     0
  9
$PDMODE
 70
     0
  9
$PDSIZE
 40
0.0
  9
$PLINEWID
 40
0.0
  9
$COORDS
 70
     1
  9
$SPLFRAME
 70
     0
  9
$SPLINETYPE
 70
     6
  9
$SPLINESEGS
 70
     8
  9
$ATTDIA
 70
     1
  9
$ATTREQ
 70
     1
  9
$HANDLING
 70
     1
  9
$HANDSEED
  5
27A39
  9
$SURFTAB1
 70
     6
  9
$SURFTAB2
 70
     6
  9
$SURFTYPE
 70
     6
  9
$SURFU
 70
     6
  9
$SURFV
 70
     6
  9
$UCSNAME
  2

  9
$UCSORG
 10
0.0
 20
0.0
 30
0.0
  9
$UCSXDIR
 10
1.0
 20
0.0
 30
0.0
  9
$UCSYDIR
 10
0.0
 20
1.0
 30
0.0
  9
$PUCSNAME
  2

  9
$PUCSORG
 10
0.0
 20
0.0
 30
0.0
  9
$PUCSXDIR
 10
1.0
 20
0.0
 30
0.0
  9
$PUCSYDIR
 10
0.0
 20
1.0
 30
0.0
  9
$USERI1
 70
     0
  9
$USERI2
 70
     0
  9
$USERI3
 70
     0
  9
$USERI4
 70
     0
  9
$USERI5
 70
     0
  9
$USERR1
 40
0.0
  9
$USERR2
 40
0.0
  9
$USERR3
 40
0.0
  9
$USERR4
 40
0.0
  9
$USERR5
 40
0.0
  9
$WORLDVIEW
 70
     1
  9
$SHADEDGE
 70
     3
  9
$SHADEDIF
 70
    70
  9
$TILEMODE
 70
     1
  9
$MAXACTVP
 70
    16
  9
$PLIMCHECK
 70
     0
  9
$PEXTMIN
 10
-0.0000000000001705
 20
-0.0000000000000943
 30
-0.0000000000001227
  9
$PEXTMAX
 10
296.5
 20
419.5000000000001137
 30
0.0000000000000568
  9
$PLIMMIN
 10
-0.2396407465832908
 20
-0.2655563985319986
  9
$PLIMMAX
 10
296.7603592534167092
 20
419.7344436014678877
  9
$UNITMODE
 70
     0
  9
$VISRETAIN
 70
     0
  9
$PLINEGEN
 70
     0
  9
$PSLTSCALE
 70
     0
  0
ENDSEC
  0
SECTION
  2
TABLES
  0
TABLE
  2
VPORT
 70
     1
  0
VPORT
  2
*ACTIVE
 70
     0
 10
0.0
 20
0.0
 11
1.0
 21
1.0
 12
0.0000000000001137
 22
-75.0036773681640625
 13
0.0
 23
0.0
 14
1.0
 24
1.0
 15
10.0
 25
10.0
 16
-0.0000000000002724
 26
0.0
 36
1226.6966334433670909
 17
0.0
 27
97.2536773681640767
 37
-0.0000000000000328
 40
558.3634020618557088
 41
1.8847807394668961
 42
50.0
 43
0.0
 44
0.0
 50
0.0
 51
0.0
 71
     0
 72
  1500
 73
     1
 74
     0
 75
     0
 76
     0
 77
     0
 78
     0
  0
ENDTAB
  0
TABLE
  2
LTYPE
 70
     3
  0
LTYPE
  2
CONTINUOUS
 70
     0
  3
Solid line
 72
    65
 73
     0
 40
0.0
  0
LTYPE
  2
STRICHPUNKT
 70
     0
  3
__ . __ . __ . __ . __ . __ . __ . __ . __ . __
 72
    65
 73
     4
 40
1.0
 49
0.5
 49
-0.25
 49
0.0
 49
-0.25
  0
LTYPE
  2
VERDECKT
 70
     0
  3
Verdeckt __ __ __ __ __ __ __ __ __ __ __ __ __
 72
    65
 73
     2
 40
0.375
 49
0.25
 49
-0.125
  0
ENDTAB
  0
TABLE
  2
LAYER
 70
     5
  0
LAYER
  2
0
 70
     0
 62
     7
  6
CONTINUOUS
  0
LAYER
  2
STEMPEL
 70
     0
 62
     3
  6
CONTINUOUS
  0
LAYER
  2
ADSK_ASSOC_ENTITY_BACKUPS
 70
     1
 62
    -7
  6
CONTINUOUS
  0
ENDTAB
  0
TABLE
  2
STYLE
 70
     2
  0
STYLE
  2
STANDARD
 70
     0
 40
0.0
 41
0.8
 50
0.0
 71
     0
 42
3.5
  3
simplex.shx
  4

  0
ENDTAB
  0
TABLE
  2
VIEW
 70
     0
  0
ENDTAB
  0
TABLE
  2
UCS
 70
     0
  0
ENDTAB
  0
TABLE
  2
APPID
 70
    31
  0
APPID
  2
ACAD
 70
     0
  0
APPID
  2
ACAECLAYERSTANDARD
 70
     0
  0
APPID
  2
ACCMTRANSPARENCY
 70
     0
  0
APPID
  2
ACAD_NAV_VCDISPLAY
 70
     0
  0
APPID
  2
ACAD_PSEXT
 70
     0
  0
APPID
  2
ACAD_STEPID
 70
     0
  0
APPID
  2
ACAD_EXEMPT_FROM_CAD_STANDARDS
 70
     0
  0
APPID
  2
ACSYNERGY
 70
     0
  0
APPID
  2
SYNERGY_BODY_TBR_ID
 70
     0
  0
APPID
  2
ACAD_VIEW_EDGE_ID
 70
     0
  0
APPID
  2
GRADIENTCOLOR1ACI
 70
     0
  0
APPID
  2
GRADIENTCOLOR2ACI
 70
     0
  0
APPID
  2
ACAD_DSTYLE_DIMRADIAL_EXTENSION
 70
     0
  0
APPID
  2
ACADANNOMONITORALERTICONDI
 70
     0
  0
APPID
  2
ACAD_MLEADERVER
 70
     0
  0
APPID
  2
ACSYNERGYSKETCH
 70
     0
  0
APPID
  2
ACAD_MODELDOC_XFORM
 70
     0
  0
APPID
  2
ACDBDYNAMICBLOCKGUID
 70
     0
  0
APPID
  2
ACAD_DSTYLE_DIMJAG
 70
     0
  0
APPID
  2
ACAD_DSTYLE_DIMBREAK
 70
     0
  0
APPID
  2
ACAD_DSTYLE_DIMTALN
 70
     0
  0
APPID
  2
ACADANNOPO
 70
     0
  0
APPID
  2
PLOTTRANSPARENCY
 70
     0
  0
APPID
  2
ACADANNOTATIVE
 70
     0
  0
APPID
  2
ACAD_DIMASSOC_CALC_DIMLFAC
 70
     0
  0
APPID
  2
ACAD_DIMASSOC_DIMLFAC
 70
     0
  0
APPID
  2
ACAD_DIMASSOC_OVERRIDDEN_D
 70
     0
  0
APPID
  2
ACADANNOAV
 70
     0
  0
APPID
  2
ACAUTHENVIRON
 70
     0
  0
APPID
  2
ACDBDYNAMICBLOCKTRUENAME
 70
     0
  0
APPID
  2
SYNERGY_EXCLUDED_FROM_SNAPSHOT
 70
     0
  0
ENDTAB
  0
TABLE
  2
DIMSTYLE
 70
     1
  0
DIMSTYLE
  2
LORO
 70
     0
  3

  4

  5

  6

  7

 40
1.0
 41
3.5
 42
1.0
 43
0.38
 44
1.0
 45
0.0
 46
0.0
 47
0.0
 48
0.000000001
140
3.5
141
0.09
142
0.0
143
25.3999999999999986
144
2.0
145
0.0
146
0.5
147
1.5
 71
     0
 72
     0
 73
     0
 74
     0
 75
     0
 76
     0
 77
     1
 78
     8
170
     0
171
     2
172
     1
173
     0
174
     0
175
     0
176
     0
177
     0
178
     1
  0
ENDTAB
  0
ENDSEC
  0
SECTION
  2
BLOCKS
  0
BLOCK
  8
0
  2
$MODEL_SPACE
 70
     0
 10
0.0
 20
0.0
 30
0.0
  3
$MODEL_SPACE
  1

  0
ENDBLK
  5
38
  8
0
  0
BLOCK
 67
     1
  8
0
  2
$PAPER_SPACE
 70
     0
 10
0.0
 20
0.0
 30
0.0
  3
$PAPER_SPACE
  1

  0
ENDBLK
  5
36
 67
     1
  8
0
  0
BLOCK
  8
0
  2
*S0
 70
     1
 10
0.0
 20
0.0
 30
0.0
  3
*S0
  1

  0
ENDBLK
  5
7128
  8
0
  0
BLOCK
  8
0
  2
A$C0C5E91FE
 70
     0
 10
0.0
 20
0.0
 30
0.0
  3
A$C0C5E91FE
  1

  0
POLYLINE
  8
0
  5
270D5
  62
3
  66
     1
 10
0.000000
 20
0.000000
 30
0.000000
  70
     8
  0
VERTEX
  8
0
  5
270D6
 10
-5.00000
 20
54.7723
 30
-1.10000e-15
  70
    32
  0
VERTEX
  8
0
  5
270D7
 10
-5.00000
 20
54.7723
 30
-1.10000e-15
  70
    32
  0
VERTEX
  8
0
  5
270D8
 10
-5.00000
 20
54.7724
 30
-1.10000e-15
  70
    32
  0
VERTEX
  8
0
  5
270D9
 10
-5.00000
 20
54.7725
 30
-1.10000e-15
  70
    32
  0
VERTEX
  8
0
  5
270DA
 10
-5.00000
 20
54.7728
 30
-1.10000e-15
  70
    32
  0
VERTEX
  8
0
  5
270DB
 10
-5.00000
 20
54.7731
 30
-1.10000e-15
  70
    32
  0
VERTEX
  8
0
  5
270DC
 10
-5.00000
 20
54.7734
 30
-1.10000e-15
  70
    32
  0
VERTEX
  8
0
  5
270DD
 10
-5.00000
 20
54.7738
 30
-1.10000e-15
  70
    32
  0
VERTEX
  8
0
  5
270DE
 10
-5.00000
 20
54.7743
 30
-1.10000e-15
  70
    32
  0
VERTEX
  8
0
  5
270DF
 10
-5.00000
 20
54.7749
 30
-1.10000e-15
  70
    32
  0
VERTEX
  8
0
  5
270E0
 10
-5.00000
 20
54.7755
 30
-1.10000e-15
  70
    32
  0
VERTEX
  8
0
  5
270E1
 10
-5.00000
 20
54.7762
 30
-1.10000e-15
  70
    32
  0
VERTEX
  8
0
  5
270E2
 10
-5.00000
 20
54.7769
 30
-1.10000e-15
  70
    32
  0
VERTEX
  8
0
  5
270E3
 10
-5.00000
 20
54.7777
 30
-1.10000e-15
  70
    32
  0
VERTEX
  8
0
  5
270E4
 10
-5.00000
 20
54.7786
 30
-1.10000e-15
  70
    32
  0
VERTEX
  8
0
  5
270E5
 10
-5.00000
 20
54.7796
 30
-1.10000e-15
  70
    32
  0
VERTEX
  8
0
  5
270E6
 10
-5.00000
 20
54.7806
 30
-1.10000e-15
  70
    32
  0
VERTEX
  8
0
  5
270E7
 10
-5.00000
 20
54.7816
 30
-1.10000e-15
  70
    32
  0
VERTEX
  8
0
  5
270E8
 10
-5.00000
 20
54.7828
 30
-1.10000e-15
  70
    32
  0
VERTEX
  8
0
  5
270E9
 10
-5.00000
 20
54.7840
 30
-1.10000e-15
  70
    32
  0
VERTEX
  8
0
  5
270EA
 10
-5.00000
 20
54.7853
 30
-1.10000e-15
  70
    32
  0
VERTEX
  8
0
  5
270EB
 10
-5.00000
 20
54.7866
 30
-1.10000e-15
  70
    32
  0
VERTEX
  8
0
  5
270EC
 10
-5.00000
 20
54.7880
 30
-1.10000e-15
  70
    32
  0
VERTEX
  8
0
  5
270ED
 10
-5.00000
 20
54.7895
 30
-1.10000e-15
  70
    32
  0
VERTEX
  8
0
  5
270EE
 10
-5.00000
 20
54.7910
 30
-1.10000e-15
  70
    32
  0
VERTEX
  8
0
  5
270EF
 10
-5.00000
 20
54.7926
 30
-1.10000e-15
  70
    32
  0
VERTEX
  8
0
  5
270F0
 10
-5.00000
 20
54.7943
 30
-1.10000e-15
  70
    32
  0
VERTEX
  8
0
  5
270F1
 10
-5.00000
 20
54.7961
 30
-1.10000e-15
  70
    32
  0
VERTEX
  8
0
  5
270F2
 10
-5.00000
 20
54.7979
 30
-1.10000e-15
  70
    32
  0
VERTEX
  8
0
  5
270F3
 10
-5.00000
 20
54.7998
 30
-1.10000e-15
  70
    32
  0
VERTEX
  8
0
  5
270F4
 10
-5.00000
 20
54.8017
 30
-1.10000e-15
  70
    32
  0
VERTEX
  8
0
  5
270F5
 10
-5.00000
 20
54.8037
 30
-1.10000e-15
  70
    32
  0
VERTEX
  8
0
  5
270F6
 10
-5.00000
 20
54.8058
 30
-1.10000e-15
  70
    32
  0
VERTEX
  8
0
  5
270F7
 10
-5.00000
 20
54.8079
 30
-1.10000e-15
  70
    32
  0
VERTEX
  8
0
  5
270F8
 10
-5.00000
 20
54.8102
 30
-1.10000e-15
  70
    32
  0
VERTEX
  8
0
  5
270F9
 10
-5.00000
 20
54.8124
 30
-1.10000e-15
  70
    32
  0
VERTEX
  8
0
  5
270FA
 10
-5.00000
 20
54.8148
 30
-1.10000e-15
  70
    32
  0
VERTEX
  8
0
  5
270FB
 10
-5.00000
 20
54.8172
 30
-1.10000e-15
  70
    32
  0
VERTEX
  8
0
  5
270FC
 10
-5.00000
 20
54.8197
 30
-1.10000e-15
  70
    32
  0
VERTEX
  8
0
  5
270FD
 10
-5.00000
 20
54.8223
 30
-1.10000e-15
  70
    32
  0
VERTEX
  8
0
  5
270FE
 10
-5.00000
 20
54.8249
 30
-1.10000e-15
  70
    32
  0
VERTEX
  8
0
  5
270FF
 10
-5.00000
 20
54.8276
 30
-1.10000e-15
  70
    32
  0
VERTEX
  8
0
  5
27100
 10
-5.00000
 20
54.8304
 30
-1.10000e-15
  70
    32
  0
VERTEX
  8
0
  5
27101
 10
-5.00000
 20
54.8332
 30
-1.10000e-15
  70
    32
  0
VERTEX
  8
0
  5
27102
 10
-5.00000
 20
54.8361
 30
-1.10000e-15
  70
    32
  0
VERTEX
  8
0
  5
27103
 10
-5.00000
 20
54.8391
 30
-1.10000e-15
  70
    32
  0
VERTEX
  8
0
  5
27104
 10
-5.00000
 20
54.8421
 30
-1.10000e-15
  70
    32
  0
VERTEX
  8
0
  5
27105
 10
-5.00000
 20
54.8452
 30
-1.10000e-15
  70
    32
  0
VERTEX
  8
0
  5
27106
 10
-5.00000
 20
54.8484
 30
-1.10000e-15
  70
    32
  0
VERTEX
  8
0
  5
27107
 10
-5.00000
 20
54.8517
 30
-1.10000e-15
  70
    32
  0
VERTEX
  8
0
  5
27108
 10
-5.00000
 20
54.8550
 30
-1.10000e-15
  70
    32
  0
VERTEX
  8
0
  5
27109
 10
-5.00000
 20
54.8584
 30
-1.10000e-15
  70
    32
  0
VERTEX
  8
0
  5
2710A
 10
-5.00000
 20
54.8619
 30
-1.10000e-15
  70
    32
  0
VERTEX
  8
0
  5
2710B
 10
-5.00000
 20
54.8654
 30
-1.10000e-15
  70
    32
  0
VERTEX
  8
0
  5
2710C
 10
-5.00000
 20
54.8690
 30
-1.10000e-15
  70
    32
  0
VERTEX
  8
0
  5
2710D
 10
-5.00000
 20
54.8727
 30
-1.10000e-15
  70
    32
  0
VERTEX
  8
0
  5
2710E
 10
-5.00000
 20
54.8764
 30
-1.10000e-15
  70
    32
  0
VERTEX
  8
0
  5
2710F
 10
-5.00000
 20
54.8802
 30
-1.10000e-15
  70
    32
  0
VERTEX
  8
0
  5
27110
 10
-5.00000
 20
54.8841
 30
-1.10000e-15
  70
    32
  0
VERTEX
  8
0
  5
27111
 10
-5.00000
 20
54.8881
 30
-1.10000e-15
  70
    32
  0
VERTEX
  8
0
  5
27112
 10
-5.00000
 20
54.8921
 30
-1.10000e-15
  70
    32
  0
VERTEX
  8
0
  5
27113
 10
-5.00000
 20
54.8962
 30
-1.10000e-15
  70
    32
  0
VERTEX
  8
0
  5
27114
 10
-5.00000
 20
54.9004
 30
-1.10000e-15
  70
    32
  0
VERTEX
  8
0
  5
27115
 10
-5.00000
 20
54.9046
 30
-1.10000e-15
  70
    32
  0
VERTEX
  8
0
  5
27116
 10
-5.00000
 20
54.9089
 30
-1.10000e-15
  70
    32
  0
VERTEX
  8
0
  5
27117
 10
-5.00000
 20
54.9133
 30
-1.10000e-15
  70
    32
  0
VERTEX
  8
0
  5
27118
 10
-5.00000
 20
54.9178
 30
-1.10000e-15
  70
    32
  0
VERTEX
  8
0
  5
27119
 10
-5.00000
 20
54.9223
 30
-1.10000e-15
  70
    32
  0
VERTEX
  8
0
  5
2711A
 10
-5.00000
 20
54.9269
 30
-1.10000e-15
  70
    32
  0
VERTEX
  8
0
  5
2711B
 10
-5.00000
 20
54.9316
 30
-1.10000e-15
  70
    32
  0
VERTEX
  8
0
  5
2711C
 10
-5.00000
 20
54.9363
 30
-1.10000e-15
  70
    32
  0
VERTEX
  8
0
  5
2711D
 10
-5.00000
 20
54.9411
 30
-1.10000e-15
  70
    32
  0
VERTEX
  8
0
  5
2711E
 10
-5.00000
 20
54.9460
 30
-1.10000e-15
  70
    32
  0
VERTEX
  8
0
  5
2711F
 10
-5.00000
 20
54.9510
 30
-1.10000e-15
  70
    32
  0
VERTEX
  8
0
  5
27120
 10
-5.00000
 20
54.9560
 30
-1.10000e-15
  70
    32
  0
VERTEX
  8
0
  5
27121
 10
-5.00000
 20
54.9612
 30
-1.10000e-15
  70
    32
  0
VERTEX
  8
0
  5
27122
 10
-5.00000
 20
54.9663
 30
-1.10000e-15
  70
    32
  0
VERTEX
  8
0
  5
27123
 10
-5.00000
 20
54.9716
 30
-1.10000e-15
  70
    32
  0
VERTEX
  8
0
  5
27124
 10
-5.00000
 20
54.9769
 30
-1.10000e-15
  70
    32
  0
VERTEX
  8
0
  5
27125
 10
-5.00000
 20
54.9823
 30
-1.10000e-15
  70
    32
  0
VERTEX
  8
0
  5
27126
 10
-5.00000
 20
54.9878
 30
-1.10000e-15
  70
    32
  0
VERTEX
  8
0
  5
27127
 10
-5.00000
 20
54.9933
 30
-1.10000e-15
  70
    32
  0
VERTEX
  8
0
  5
27128
 10
-5.00000
 20
54.9990
 30
-1.10000e-15
  70
    32
  0
VERTEX
  8
0
  5
27129
 10
-5.00000
 20
55.0047
 30
-1.10000e-15
  70
    32
  0
VERTEX
  8
0
  5
2712A
 10
-5.00000
 20
55.0104
 30
-1.10000e-15
  70
    32
  0
VERTEX
  8
0
  5
2712B
 10
-5.00000
 20
55.0163
 30
-1.10000e-15
  70
    32
  0
VERTEX
  8
0
  5
2712C
 10
-5.00000
 20
55.0222
 30
-1.10000e-15
  70
    32
  0
VERTEX
  8
0
  5
2712D
 10
-5.00000
 20
55.0282
 30
-1.10000e-15
  70
    32
  0
VERTEX
  8
0
  5
2712E
 10
-5.00000
 20
55.0343
 30
-1.10000e-15
  70
    32
  0
VERTEX
  8
0
  5
2712F
 10
-5.00000
 20
55.0404
 30
-1.10000e-15
  70
    32
  0
VERTEX
  8
0
  5
27130
 10
-5.00000
 20
55.0466
 30
-1.10000e-15
  70
    32
  0
VERTEX
  8
0
  5
27131
 10
-5.00000
 20
55.0529
 30
-1.10000e-15
  70
    32
  0
VERTEX
  8
0
  5
27132
 10
-5.00000
 20
55.0592
 30
-1.10000e-15
  70
    32
  0
VERTEX
  8
0
  5
27133
 10
-5.00000
 20
55.0657
 30
-1.10000e-15
  70
    32
  0
VERTEX
  8
0
  5
27134
 10
-5.00000
 20
55.0722
 30
-1.10000e-15
  70
    32
  0
VERTEX
  8
0
  5
27135
 10
-5.00000
 20
55.0787
 30
-1.10000e-15
  70
    32
  0
VERTEX
  8
0
  5
27136
 10
-5.00000
 20
55.0854
 30
-1.10000e-15
  70
    32
  0
VERTEX
  8
0
  5
27137
 10
-5.00000
 20
55.0921
 30
-1.10000e-15
  70
    32
  0
VERTEX
  8
0
  5
27138
 10
-5.00000
 20
55.0989
 30
-1.10000e-15
  70
    32
  0
VERTEX
  8
0
  5
27139
 10
-5.00000
 20
55.1057
 30
-1.10000e-15
  70
    32
  0
VERTEX
  8
0
  5
2713A
 10
-5.00000
 20
55.1126
 30
-1.10000e-15
  70
    32
  0
VERTEX
  8
0
  5
2713B
 10
-5.00000
 20
55.1196
 30
-1.10000e-15
  70
    32
  0
VERTEX
  8
0
  5
2713C
 10
-5.00000
 20
55.1267
 30
-1.10000e-15
  70
    32
  0
VERTEX
  8
0
  5
2713D
 10
-5.00000
 20
55.1338
 30
-1.10000e-15
  70
    32
  0
VERTEX
  8
0
  5
2713E
 10
-5.00000
 20
55.1410
 30
-1.10000e-15
  70
    32
  0
VERTEX
  8
0
  5
2713F
 10
-5.00000
 20
55.1482
 30
-1.10000e-15
  70
    32
  0
VERTEX
  8
0
  5
27140
 10
-5.00000
 20
55.1556
 30
-1.10000e-15
  70
    32
  0
VERTEX
  8
0
  5
27141
 10
-5.00000
 20
55.1630
 30
-1.10000e-15
  70
    32
  0
VERTEX
  8
0
  5
27142
 10
-5.00000
 20
55.1704
 30
-1.10000e-15
  70
    32
  0
VERTEX
  8
0
  5
27143
 10
-5.00000
 20
55.1779
 30
-1.10000e-15
  70
    32
  0
VERTEX
  8
0
  5
27144
 10
-5.00000
 20
55.1855
 30
-1.10000e-15
  70
    32
  0
VERTEX
  8
0
  5
27145
 10
-5.00000
 20
55.1931
 30
-1.10000e-15
  70
    32
  0
VERTEX
  8
0
  5
27146
 10
-5.00000
 20
55.2008
 30
-1.10000e-15
  70
    32
  0
VERTEX
  8
0
  5
27147
 10
-5.00000
 20
55.2086
 30
-1.10000e-15
  70
    32
  0
VERTEX
  8
0
  5
27148
 10
-5.00000
 20
55.2164
 30
-1.10000e-15
  70
    32
  0
VERTEX
  8
0
  5
27149
 10
-5.00000
 20
55.2243
 30
-1.10000e-15
  70
    32
  0
VERTEX
  8
0
  5
2714A
 10
-5.00000
 20
55.2323
 30
-1.10000e-15
  70
    32
  0
VERTEX
  8
0
  5
2714B
 10
-5.00000
 20
55.2403
 30
-1.10000e-15
  70
    32
  0
VERTEX
  8
0
  5
2714C
 10
-5.00000
 20
55.2484
 30
-1.10000e-15
  70
    32
  0
VERTEX
  8
0
  5
2714D
 10
-5.00000
 20
55.2565
 30
-1.10000e-15
  70
    32
  0
VERTEX
  8
0
  5
2714E
 10
-5.00000
 20
55.2647
 30
-1.10000e-15
  70
    32
  0
VERTEX
  8
0
  5
2714F
 10
-5.00000
 20
55.2730
 30
-1.10000e-15
  70
    32
  0
VERTEX
  8
0
  5
27150
 10
-5.00000
 20
55.2813
 30
-1.10000e-15
  70
    32
  0
VERTEX
  8
0
  5
27151
 10
-5.00000
 20
55.2897
 30
-1.10000e-15
  70
    32
  0
VERTEX
  8
0
  5
27152
 10
-5.00000
 20
55.2981
 30
-1.10000e-15
  70
    32
  0
VERTEX
  8
0
  5
27153
 10
-5.00000
 20
55.3066
 30
-1.10000e-15
  70
    32
  0
VERTEX
  8
0
  5
27154
 10
-5.00000
 20
55.3151
 30
-1.10000e-15
  70
    32
  0
VERTEX
  8
0
  5
27155
 10
-5.00000
 20
55.3237
 30
-1.10000e-15
  70
    32
  0
VERTEX
  8
0
  5
27156
 10
-5.00000
 20
55.3324
 30
-1.10000e-15
  70
    32
  0
VERTEX
  8
0
  5
27157
 10
-5.00000
 20
55.3411
 30
-1.10000e-15
  70
    32
  0
VERTEX
  8
0
  5
27158
 10
-5.00000
 20
55.3499
 30
-1.10000e-15
  70
    32
  0
VERTEX
  8
0
  5
27159
 10
-5.00000
 20
55.3587
 30
-1.10000e-15
  70
    32
  0
VERTEX
  8
0
  5
2715A
 10
-5.00000
 20
55.3676
 30
-1.10000e-15
  70
    32
  0
VERTEX
  8
0
  5
2715B
 10
-5.00000
 20
55.3765
 30
-1.10000e-15
  70
    32
  0
VERTEX
  8
0
  5
2715C
 10
-5.00000
 20
55.3855
 30
-1.10000e-15
  70
    32
  0
VERTEX
  8
0
  5
2715D
 10
-5.00000
 20
55.3945
 30
-1.10000e-15
  70
    32
  0
VERTEX
  8
0
  5
2715E
 10
-5.00000
 20
55.4036
 30
-1.10000e-15
  70
    32
  0
VERTEX
  8
0
  5
2715F
 10
-5.00000
 20
55.4127
 30
-1.10000e-15
  70
    32
  0
VERTEX
  8
0
  5
27160
 10
-5.00000
 20
55.4219
 30
-1.10000e-15
  70
    32
  0
VERTEX
  8
0
  5
27161
 10
-5.00000
 20
55.4312
 30
-1.10000e-15
  70
    32
  0
VERTEX
  8
0
  5
27162
 10
-5.00000
 20
55.4405
 30
-1.10000e-15
  70
    32
  0
VERTEX
  8
0
  5
27163
 10
-5.00000
 20
55.4498
 30
-1.10000e-15
  70
    32
  0
VERTEX
  8
0
  5
27164
 10
-5.00000
 20
55.4592
 30
-1.10000e-15
  70
    32
  0
VERTEX
  8
0
  5
27165
 10
-5.00000
 20
55.4687
 30
-1.10000e-15
  70
    32
  0
VERTEX
  8
0
  5
27166
 10
-5.00000
 20
55.4782
 30
-1.10000e-15
  70
    32
  0
VERTEX
  8
0
  5
27167
 10
-5.00000
 20
55.4877
 30
-1.10000e-15
  70
    32
  0
VERTEX
  8
0
  5
27168
 10
-5.00000
 20
55.4973
 30
-1.10000e-15
  70
    32
  0
VERTEX
  8
0
  5
27169
 10
-5.00000
 20
55.5069
 30
-1.10000e-15
  70
    32
  0
VERTEX
  8
0
  5
2716A
 10
-5.00000
 20
55.5166
 30
-1.10000e-15
  70
    32
  0
VERTEX
  8
0
  5
2716B
 10
-5.00000
 20
55.5264
 30
-1.10000e-15
  70
    32
  0
VERTEX
  8
0
  5
2716C
 10
-5.00000
 20
55.5361
 30
-1.10000e-15
  70
    32
  0
VERTEX
  8
0
  5
2716D
 10
-5.00000
 20
55.5460
 30
-1.10000e-15
  70
    32
  0
VERTEX
  8
0
  5
2716E
 10
-5.00000
 20
55.5558
 30
-1.10000e-15
  70
    32
  0
VERTEX
  8
0
  5
2716F
 10
-5.00000
 20
55.5658
 30
-1.10000e-15
  70
    32
  0
VERTEX
  8
0
  5
27170
 10
-5.00000
 20
55.5757
 30
-1.10000e-15
  70
    32
  0
VERTEX
  8
0
  5
27171
 10
-5.00000
 20
55.5857
 30
-1.10000e-15
  70
    32
  0
VERTEX
  8
0
  5
27172
 10
-5.00000
 20
55.5958
 30
-1.10000e-15
  70
    32
  0
VERTEX
  8
0
  5
27173
 10
-5.00000
 20
55.6059
 30
-1.10000e-15
  70
    32
  0
VERTEX
  8
0
  5
27174
 10
-5.00000
 20
55.6160
 30
-1.10000e-15
  70
    32
  0
VERTEX
  8
0
  5
27175
 10
-5.00000
 20
55.6262
 30
-1.10000e-15
  70
    32
  0
VERTEX
  8
0
  5
27176
 10
-5.00000
 20
55.6364
 30
-1.10000e-15
  70
    32
  0
VERTEX
  8
0
  5
27177
 10
-5.00000
 20
55.6467
 30
-1.10000e-15
  70
    32
  0
VERTEX
  8
0
  5
27178
 10
-5.00000
 20
55.6570
 30
-1.10000e-15
  70
    32
  0
VERTEX
  8
0
  5
27179
 10
-5.00000
 20
55.6673
 30
-1.10000e-15
  70
    32
  0
VERTEX
  8
0
  5
2717A
 10
-5.00000
 20
55.6777
 30
-1.10000e-15
  70
    32
  0
VERTEX
  8
0
  5
2717B
 10
-5.00000
 20
55.6881
 30
-1.10000e-15
  70
    32
  0
VERTEX
  8
0
  5
2717C
 10
-5.00000
 20
55.6986
 30
-1.10000e-15
  70
    32
  0
VERTEX
  8
0
  5
2717D
 10
-5.00000
 20
55.7091
 30
-1.10000e-15
  70
    32
  0
VERTEX
  8
0
  5
2717E
 10
-5.00000
 20
55.7196
 30
-1.10000e-15
  70
    32
  0
VERTEX
  8
0
  5
2717F
 10
-5.00000
 20
55.7302
 30
-1.10000e-15
  70
    32
  0
VERTEX
  8
0
  5
27180
 10
-5.00000
 20
55.7408
 30
-1.10000e-15
  70
    32
  0
VERTEX
  8
0
  5
27181
 10
-5.00000
 20
55.7515
 30
-1.10000e-15
  70
    32
  0
VERTEX
  8
0
  5
27182
 10
-5.00000
 20
55.7622
 30
-1.10000e-15
  70
    32
  0
VERTEX
  8
0
  5
27183
 10
-5.00000
 20
55.7729
 30
-1.10000e-15
  70
    32
  0
VERTEX
  8
0
  5
27184
 10
-5.00000
 20
55.7838
 30
-1.10000e-15
  70
    32
  0
VERTEX
  8
0
  5
27185
 10
-5.00000
 20
55.7947
 30
-1.10000e-15
  70
    32
  0
VERTEX
  8
0
  5
27186
 10
-5.00000
 20
55.8057
 30
-1.10000e-15
  70
    32
  0
VERTEX
  8
0
  5
27187
 10
-5.00000
 20
55.8167
 30
-1.10000e-15
  70
    32
  0
VERTEX
  8
0
  5
27188
 10
-5.00000
 20
55.8279
 30
-1.10000e-15
  70
    32
  0
VERTEX
  8
0
  5
27189
 10
-5.00000
 20
55.8391
 30
-1.10000e-15
  70
    32
  0
VERTEX
  8
0
  5
2718A
 10
-5.00000
 20
55.8504
 30
-1.10000e-15
  70
    32
  0
VERTEX
  8
0
  5
2718B
 10
-5.00000
 20
55.8618
 30
-1.10000e-15
  70
    32
  0
VERTEX
  8
0
  5
2718C
 10
-5.00000
 20
55.8733
 30
-1.10000e-15
  70
    32
  0
VERTEX
  8
0
  5
2718D
 10
-5.00000
 20
55.8849
 30
-1.10000e-15
  70
    32
  0
VERTEX
  8
0
  5
2718E
 10
-5.00000
 20
55.8965
 30
-1.10000e-15
  70
    32
  0
VERTEX
  8
0
  5
2718F
 10
-5.00000
 20
55.9082
 30
-1.10000e-15
  70
    32
  0
VERTEX
  8
0
  5
27190
 10
-5.00000
 20
55.9200
 30
-1.10000e-15
  70
    32
  0
VERTEX
  8
0
  5
27191
 10
-5.00000
 20
55.9319
 30
-1.10000e-15
  70
    32
  0
VERTEX
  8
0
  5
27192
 10
-5.00000
 20
55.9438
 30
-1.10000e-15
  70
    32
  0
VERTEX
  8
0
  5
27193
 10
-5.00000
 20
55.9558
 30
-1.10000e-15
  70
    32
  0
VERTEX
  8
0
  5
27194
 10
-5.00000
 20
55.9680
 30
-1.10000e-15
  70
    32
  0
VERTEX
  8
0
  5
27195
 10
-5.00000
 20
55.9801
 30
-1.10000e-15
  70
    32
  0
VERTEX
  8
0
  5
27196
 10
-5.00000
 20
55.9924
 30
-1.10000e-15
  70
    32
  0
VERTEX
  8
0
  5
27197
 10
-5.00000
 20
56.0047
 30
-1.10000e-15
  70
    32
  0
VERTEX
  8
0
  5
27198
 10
-5.00000
 20
56.0172
 30
-1.10000e-15
  70
    32
  0
VERTEX
  8
0
  5
27199
 10
-5.00000
 20
56.0296
 30
-1.10000e-15
  70
    32
  0
VERTEX
  8
0
  5
2719A
 10
-5.00000
 20
56.0422
 30
-1.10000e-15
  70
    32
  0
VERTEX
  8
0
  5
2719B
 10
-5.00000
 20
56.0549
 30
-1.10000e-15
  70
    32
  0
VERTEX
  8
0
  5
2719C
 10
-5.00000
 20
56.0676
 30
-1.10000e-15
  70
    32
  0
VERTEX
  8
0
  5
2719D
 10
-5.00000
 20
56.0804
 30
-1.10000e-15
  70
    32
  0
VERTEX
  8
0
  5
2719E
 10
-5.00000
 20
56.0933
 30
-1.10000e-15
  70
    32
  0
VERTEX
  8
0
  5
2719F
 10
-5.00000
 20
56.1062
 30
-1.10000e-15
  70
    32
  0
VERTEX
  8
0
  5
271A0
 10
-5.00000
 20
56.1192
 30
-1.10000e-15
  70
    32
  0
VERTEX
  8
0
  5
271A1
 10
-5.00000
 20
56.1323
 30
-1.10000e-15
  70
    32
  0
VERTEX
  8
0
  5
271A2
 10
-5.00000
 20
56.1455
 30
-1.10000e-15
  70
    32
  0
VERTEX
  8
0
  5
271A3
 10
-5.00000
 20
56.1588
 30
-1.10000e-15
  70
    32
  0
VERTEX
  8
0
  5
271A4
 10
-5.00000
 20
56.1721
 30
-1.10000e-15
  70
    32
  0
VERTEX
  8
0
  5
271A5
 10
-5.00000
 20
56.1855
 30
-1.10000e-15
  70
    32
  0
VERTEX
  8
0
  5
271A6
 10
-5.00000
 20
56.1990
 30
-1.10000e-15
  70
    32
  0
VERTEX
  8
0
  5
271A7
 10
-5.00000
 20
56.2125
 30
-1.10000e-15
  70
    32
  0
VERTEX
  8
0
  5
271A8
 10
-5.00000
 20
56.2261
 30
-1.10000e-15
  70
    32
  0
VERTEX
  8
0
  5
271A9
 10
-5.00000
 20
56.2398
 30
-1.10000e-15
  70
    32
  0
VERTEX
  8
0
  5
271AA
 10
-5.00000
 20
56.2536
 30
-1.10000e-15
  70
    32
  0
VERTEX
  8
0
  5
271AB
 10
-5.00000
 20
56.2675
 30
-1.10000e-15
  70
    32
  0
VERTEX
  8
0
  5
271AC
 10
-5.00000
 20
56.2814
 30
-1.10000e-15
  70
    32
  0
VERTEX
  8
0
  5
271AD
 10
-5.00000
 20
56.2954
 30
-1.10000e-15
  70
    32
  0
VERTEX
  8
0
  5
271AE
 10
-5.00000
 20
56.3094
 30
-1.10000e-15
  70
    32
  0
VERTEX
  8
0
  5
271AF
 10
-5.00000
 20
56.3236
 30
-1.10000e-15
  70
    32
  0
VERTEX
  8
0
  5
271B0
 10
-5.00000
 20
56.3378
 30
-1.10000e-15
  70
    32
  0
VERTEX
  8
0
  5
271B1
 10
-5.00000
 20
56.3521
 30
-1.10000e-15
  70
    32
  0
VERTEX
  8
0
  5
271B2
 10
-5.00000
 20
56.3664
 30
-1.10000e-15
  70
    32
  0
VERTEX
  8
0
  5
271B3
 10
-5.00000
 20
56.3808
 30
-1.10000e-15
  70
    32
  0
VERTEX
  8
0
  5
271B4
 10
-5.00000
 20
56.3953
 30
-1.10000e-15
  70
    32
  0
VERTEX
  8
0
  5
271B5
 10
-5.00000
 20
56.4099
 30
-1.10000e-15
  70
    32
  0
VERTEX
  8
0
  5
271B6
 10
-5.00000
 20
56.4245
 30
-1.10000e-15
  70
    32
  0
VERTEX
  8
0
  5
271B7
 10
-5.00000
 20
56.4392
 30
-1.10000e-15
  70
    32
  0
VERTEX
  8
0
  5
271B8
 10
-5.00000
 20
56.4540
 30
-1.10000e-15
  70
    32
  0
VERTEX
  8
0
  5
271B9
 10
-5.00000
 20
56.4688
 30
-1.10000e-15
  70
    32
  0
VERTEX
  8
0
  5
271BA
 10
-5.00000
 20
56.4838
 30
-1.10000e-15
  70
    32
  0
VERTEX
  8
0
  5
271BB
 10
-5.00000
 20
56.4987
 30
-1.10000e-15
  70
    32
  0
VERTEX
  8
0
  5
271BC
 10
-5.00000
 20
56.5138
 30
-1.10000e-15
  70
    32
  0
VERTEX
  8
0
  5
271BD
 10
-5.00000
 20
56.5289
 30
-1.10000e-15
  70
    32
  0
VERTEX
  8
0
  5
271BE
 10
-5.00000
 20
56.5441
 30
-1.10000e-15
  70
    32
  0
VERTEX
  8
0
  5
271BF
 10
-5.00000
 20
56.5594
 30
-1.10000e-15
  70
    32
  0
VERTEX
  8
0
  5
271C0
 10
-5.00000
 20
56.5747
 30
-1.10000e-15
  70
    32
  0
VERTEX
  8
0
  5
271C1
 10
-5.00000
 20
56.5901
 30
-1.10000e-15
  70
    32
  0
VERTEX
  8
0
  5
271C2
 10
-5.00000
 20
56.6056
 30
-1.10000e-15
  70
    32
  0
VERTEX
  8
0
  5
271C3
 10
-5.00000
 20
56.6211
 30
-1.10000e-15
  70
    32
  0
VERTEX
  8
0
  5
271C4
 10
-5.00000
 20
56.6367
 30
-1.10000e-15
  70
    32
  0
VERTEX
  8
0
  5
271C5
 10
-5.00000
 20
56.6524
 30
-1.10000e-15
  70
    32
  0
VERTEX
  8
0
  5
271C6
 10
-5.00000
 20
56.6681
 30
-1.10000e-15
  70
    32
  0
VERTEX
  8
0
  5
271C7
 10
-5.00000
 20
56.6839
 30
-1.10000e-15
  70
    32
  0
VERTEX
  8
0
  5
271C8
 10
-5.00000
 20
56.6998
 30
-1.10000e-15
  70
    32
  0
VERTEX
  8
0
  5
271C9
 10
-5.00000
 20
56.7158
 30
-1.10000e-15
  70
    32
  0
VERTEX
  8
0
  5
271CA
 10
-5.00000
 20
56.7318
 30
-1.10000e-15
  70
    32
  0
VERTEX
  8
0
  5
271CB
 10
-5.00000
 20
56.7478
 30
-1.10000e-15
  70
    32
  0
VERTEX
  8
0
  5
271CC
 10
-5.00000
 20
56.7640
 30
-1.10000e-15
  70
    32
  0
VERTEX
  8
0
  5
271CD
 10
-5.00000
 20
56.7802
 30
-1.10000e-15
  70
    32
  0
VERTEX
  8
0
  5
271CE
 10
-5.00000
 20
56.7965
 30
-1.10000e-15
  70
    32
  0
VERTEX
  8
0
  5
271CF
 10
-5.00000
 20
56.8128
 30
-1.10000e-15
  70
    32
  0
VERTEX
  8
0
  5
271D0
 10
-5.00000
 20
56.8292
 30
-1.10000e-15
  70
    32
  0
VERTEX
  8
0
  5
271D1
 10
-5.00000
 20
56.8457
 30
-1.10000e-15
  70
    32
  0
VERTEX
  8
0
  5
271D2
 10
-5.00000
 20
56.8622
 30
-1.10000e-15
  70
    32
  0
VERTEX
  8
0
  5
271D3
 10
-5.00000
 20
56.8788
 30
-1.10000e-15
  70
    32
  0
VERTEX
  8
0
  5
271D4
 10
-5.00000
 20
56.8954
 30
-1.10000e-15
  70
    32
  0
VERTEX
  8
0
  5
271D5
 10
-5.00000
 20
56.9122
 30
-1.10000e-15
  70
    32
  0
SEQEND
  8
0
  5
271D6
  0
POLYLINE
  8
0
  5
271D7
  62
3
  66
     1
 10
0.000000
 20
0.000000
 30
0.000000
  70
     8
  0
VERTEX
  8
0
  5
271D8
 10
5.00000
 20
56.9122
 30
1.10000e-15
  70
    32
  0
VERTEX
  8
0
  5
271D9
 10
5.00000
 20
56.8954
 30
1.10000e-15
  70
    32
  0
VERTEX
  8
0
  5
271DA
 10
5.00000
 20
56.8788
 30
1.10000e-15
  70
    32
  0
VERTEX
  8
0
  5
271DB
 10
5.00000
 20
56.8622
 30
1.10000e-15
  70
    32
  0
VERTEX
  8
0
  5
271DC
 10
5.00000
 20
56.8457
 30
1.10000e-15
  70
    32
  0
VERTEX
  8
0
  5
271DD
 10
5.00000
 20
56.8292
 30
1.10000e-15
  70
    32
  0
VERTEX
  8
0
  5
271DE
 10
5.00000
 20
56.8128
 30
1.10000e-15
  70
    32
  0
VERTEX
  8
0
  5
271DF
 10
5.00000
 20
56.7965
 30
1.10000e-15
  70
    32
  0
VERTEX
  8
0
  5
271E0
 10
5.00000
 20
56.7802
 30
1.10000e-15
  70
    32
  0
VERTEX
  8
0
  5
271E1
 10
5.00000
 20
56.7640
 30
1.10000e-15
  70
    32
  0
VERTEX
  8
0
  5
271E2
 10
5.00000
 20
56.7478
 30
1.10000e-15
  70
    32
  0
VERTEX
  8
0
  5
271E3
 10
5.00000
 20
56.7318
 30
1.10000e-15
  70
    32
  0
VERTEX
  8
0
  5
271E4
 10
5.00000
 20
56.7158
 30
1.10000e-15
  70
    32
  0
VERTEX
  8
0
  5
271E5
 10
5.00000
 20
56.6998
 30
1.10000e-15
  70
    32
  0
VERTEX
  8
0
  5
271E6
 10
5.00000
 20
56.6839
 30
1.10000e-15
  70
    32
  0
VERTEX
  8
0
  5
271E7
 10
5.00000
 20
56.6681
 30
1.10000e-15
  70
    32
  0
VERTEX
  8
0
  5
271E8
 10
5.00000
 20
56.6524
 30
1.10000e-15
  70
    32
  0
VERTEX
  8
0
  5
271E9
 10
5.00000
 20
56.6367
 30
1.10000e-15
  70
    32
  0
VERTEX
  8
0
  5
271EA
 10
5.00000
 20
56.6211
 30
1.10000e-15
  70
    32
  0
VERTEX
  8
0
  5
271EB
 10
5.00000
 20
56.6056
 30
1.10000e-15
  70
    32
  0
VERTEX
  8
0
  5
271EC
 10
5.00000
 20
56.5901
 30
1.10000e-15
  70
    32
  0
VERTEX
  8
0
  5
271ED
 10
5.00000
 20
56.5747
 30
1.10000e-15
  70
    32
  0
VERTEX
  8
0
  5
271EE
 10
5.00000
 20
56.5594
 30
1.10000e-15
  70
    32
  0
VERTEX
  8
0
  5
271EF
 10
5.00000
 20
56.5441
 30
1.10000e-15
  70
    32
  0
VERTEX
  8
0
  5
271F0
 10
5.00000
 20
56.5289
 30
1.10000e-15
  70
    32
  0
VERTEX
  8
0
  5
271F1
 10
5.00000
 20
56.5138
 30
1.10000e-15
  70
    32
  0
VERTEX
  8
0
  5
271F2
 10
5.00000
 20
56.4987
 30
1.10000e-15
  70
    32
  0
VERTEX
  8
0
  5
271F3
 10
5.00000
 20
56.4838
 30
1.10000e-15
  70
    32
  0
VERTEX
  8
0
  5
271F4
 10
5.00000
 20
56.4688
 30
1.10000e-15
  70
    32
  0
VERTEX
  8
0
  5
271F5
 10
5.00000
 20
56.4540
 30
1.10000e-15
  70
    32
  0
VERTEX
  8
0
  5
271F6
 10
5.00000
 20
56.4392
 30
1.10000e-15
  70
    32
  0
VERTEX
  8
0
  5
271F7
 10
5.00000
 20
56.4245
 30
1.10000e-15
  70
    32
  0
VERTEX
  8
0
  5
271F8
 10
5.00000
 20
56.4099
 30
1.10000e-15
  70
    32
  0
VERTEX
  8
0
  5
271F9
 10
5.00000
 20
56.3953
 30
1.10000e-15
  70
    32
  0
VERTEX
  8
0
  5
271FA
 10
5.00000
 20
56.3808
 30
1.10000e-15
  70
    32
  0
VERTEX
  8
0
  5
271FB
 10
5.00000
 20
56.3664
 30
1.10000e-15
  70
    32
  0
VERTEX
  8
0
  5
271FC
 10
5.00000
 20
56.3521
 30
1.10000e-15
  70
    32
  0
VERTEX
  8
0
  5
271FD
 10
5.00000
 20
56.3378
 30
1.10000e-15
  70
    32
  0
VERTEX
  8
0
  5
271FE
 10
5.00000
 20
56.3236
 30
1.10000e-15
  70
    32
  0
VERTEX
  8
0
  5
271FF
 10
5.00000
 20
56.3094
 30
1.10000e-15
  70
    32
  0
VERTEX
  8
0
  5
27200
 10
5.00000
 20
56.2954
 30
1.10000e-15
  70
    32
  0
VERTEX
  8
0
  5
27201
 10
5.00000
 20
56.2814
 30
1.10000e-15
  70
    32
  0
VERTEX
  8
0
  5
27202
 10
5.00000
 20
56.2675
 30
1.10000e-15
  70
    32
  0
VERTEX
  8
0
  5
27203
 10
5.00000
 20
56.2536
 30
1.10000e-15
  70
    32
  0
VERTEX
  8
0
  5
27204
 10
5.00000
 20
56.2398
 30
1.10000e-15
  70
    32
  0
VERTEX
  8
0
  5
27205
 10
5.00000
 20
56.2261
 30
1.10000e-15
  70
    32
  0
VERTEX
  8
0
  5
27206
 10
5.00000
 20
56.2125
 30
1.10000e-15
  70
    32
  0
VERTEX
  8
0
  5
27207
 10
5.00000
 20
56.1990
 30
1.10000e-15
  70
    32
  0
VERTEX
  8
0
  5
27208
 10
5.00000
 20
56.1855
 30
1.10000e-15
  70
    32
  0
VERTEX
  8
0
  5
27209
 10
5.00000
 20
56.1721
 30
1.10000e-15
  70
    32
  0
VERTEX
  8
0
  5
2720A
 10
5.00000
 20
56.1588
 30
1.10000e-15
  70
    32
  0
VERTEX
  8
0
  5
2720B
 10
5.00000
 20
56.1455
 30
1.10000e-15
  70
    32
  0
VERTEX
  8
0
  5
2720C
 10
5.00000
 20
56.1323
 30
1.10000e-15
  70
    32
  0
VERTEX
  8
0
  5
2720D
 10
5.00000
 20
56.1192
 30
1.10000e-15
  70
    32
  0
VERTEX
  8
0
  5
2720E
 10
5.00000
 20
56.1062
 30
1.10000e-15
  70
    32
  0
VERTEX
  8
0
  5
2720F
 10
5.00000
 20
56.0933
 30
1.10000e-15
  70
    32
  0
VERTEX
  8
0
  5
27210
 10
5.00000
 20
56.0804
 30
1.10000e-15
  70
    32
  0
VERTEX
  8
0
  5
27211
 10
5.00000
 20
56.0676
 30
1.10000e-15
  70
    32
  0
VERTEX
  8
0
  5
27212
 10
5.00000
 20
56.0549
 30
1.10000e-15
  70
    32
  0
VERTEX
  8
0
  5
27213
 10
5.00000
 20
56.0422
 30
1.10000e-15
  70
    32
  0
VERTEX
  8
0
  5
27214
 10
5.00000
 20
56.0296
 30
1.10000e-15
  70
    32
  0
VERTEX
  8
0
  5
27215
 10
5.00000
 20
56.0172
 30
1.10000e-15
  70
    32
  0
VERTEX
  8
0
  5
27216
 10
5.00000
 20
56.0047
 30
1.10000e-15
  70
    32
  0
VERTEX
  8
0
  5
27217
 10
5.00000
 20
55.9924
 30
1.10000e-15
  70
    32
  0
VERTEX
  8
0
  5
27218
 10
5.00000
 20
55.9801
 30
1.10000e-15
  70
    32
  0
VERTEX
  8
0
  5
27219
 10
5.00000
 20
55.9680
 30
1.10000e-15
  70
    32
  0
VERTEX
  8
0
  5
2721A
 10
5.00000
 20
55.9558
 30
1.10000e-15
  70
    32
  0
VERTEX
  8
0
  5
2721B
 10
5.00000
 20
55.9438
 30
1.10000e-15
  70
    32
  0
VERTEX
  8
0
  5
2721C
 10
5.00000
 20
55.9319
 30
1.10000e-15
  70
    32
  0
VERTEX
  8
0
  5
2721D
 10
5.00000
 20
55.9200
 30
1.10000e-15
  70
    32
  0
VERTEX
  8
0
  5
2721E
 10
5.00000
 20
55.9082
 30
1.10000e-15
  70
    32
  0
VERTEX
  8
0
  5
2721F
 10
5.00000
 20
55.8965
 30
1.10000e-15
  70
    32
  0
VERTEX
  8
0
  5
27220
 10
5.00000
 20
55.8849
 30
1.10000e-15
  70
    32
  0
VERTEX
  8
0
  5
27221
 10
5.00000
 20
55.8733
 30
1.10000e-15
  70
    32
  0
VERTEX
  8
0
  5
27222
 10
5.00000
 20
55.8618
 30
1.10000e-15
  70
    32
  0
VERTEX
  8
0
  5
27223
 10
5.00000
 20
55.8504
 30
1.10000e-15
  70
    32
  0
VERTEX
  8
0
  5
27224
 10
5.00000
 20
55.8391
 30
1.10000e-15
  70
    32
  0
VERTEX
  8
0
  5
27225
 10
5.00000
 20
55.8279
 30
1.10000e-15
  70
    32
  0
VERTEX
  8
0
  5
27226
 10
5.00000
 20
55.8167
 30
1.10000e-15
  70
    32
  0
VERTEX
  8
0
  5
27227
 10
5.00000
 20
55.8057
 30
1.10000e-15
  70
    32
  0
VERTEX
  8
0
  5
27228
 10
5.00000
 20
55.7947
 30
1.10000e-15
  70
    32
  0
VERTEX
  8
0
  5
27229
 10
5.00000
 20
55.7838
 30
1.10000e-15
  70
    32
  0
VERTEX
  8
0
  5
2722A
 10
5.00000
 20
55.7729
 30
1.10000e-15
  70
    32
  0
VERTEX
  8
0
  5
2722B
 10
5.00000
 20
55.7622
 30
1.10000e-15
  70
    32
  0
VERTEX
  8
0
  5
2722C
 10
5.00000
 20
55.7515
 30
1.10000e-15
  70
    32
  0
VERTEX
  8
0
  5
2722D
 10
5.00000
 20
55.7408
 30
1.10000e-15
  70
    32
  0
VERTEX
  8
0
  5
2722E
 10
5.00000
 20
55.7302
 30
1.10000e-15
  70
    32
  0
VERTEX
  8
0
  5
2722F
 10
5.00000
 20
55.7196
 30
1.10000e-15
  70
    32
  0
VERTEX
  8
0
  5
27230
 10
5.00000
 20
55.7091
 30
1.10000e-15
  70
    32
  0
VERTEX
  8
0
  5
27231
 10
5.00000
 20
55.6986
 30
1.10000e-15
  70
    32
  0
VERTEX
  8
0
  5
27232
 10
5.00000
 20
55.6881
 30
1.10000e-15
  70
    32
  0
VERTEX
  8
0
  5
27233
 10
5.00000
 20
55.6777
 30
1.10000e-15
  70
    32
  0
VERTEX
  8
0
  5
27234
 10
5.00000
 20
55.6673
 30
1.10000e-15
  70
    32
  0
VERTEX
  8
0
  5
27235
 10
5.00000
 20
55.6570
 30
1.10000e-15
  70
    32
  0
VERTEX
  8
0
  5
27236
 10
5.00000
 20
55.6467
 30
1.10000e-15
  70
    32
  0
VERTEX
  8
0
  5
27237
 10
5.00000
 20
55.6364
 30
1.10000e-15
  70
    32
  0
VERTEX
  8
0
  5
27238
 10
5.00000
 20
55.6262
 30
1.10000e-15
  70
    32
  0
VERTEX
  8
0
  5
27239
 10
5.00000
 20
55.6160
 30
1.10000e-15
  70
    32
  0
VERTEX
  8
0
  5
2723A
 10
5.00000
 20
55.6059
 30
1.10000e-15
  70
    32
  0
VERTEX
  8
0
  5
2723B
 10
5.00000
 20
55.5958
 30
1.10000e-15
  70
    32
  0
VERTEX
  8
0
  5
2723C
 10
5.00000
 20
55.5857
 30
1.10000e-15
  70
    32
  0
VERTEX
  8
0
  5
2723D
 10
5.00000
 20
55.5757
 30
1.10000e-15
  70
    32
  0
VERTEX
  8
0
  5
2723E
 10
5.00000
 20
55.5658
 30
1.10000e-15
  70
    32
  0
VERTEX
  8
0
  5
2723F
 10
5.00000
 20
55.5558
 30
1.10000e-15
  70
    32
  0
VERTEX
  8
0
  5
27240
 10
5.00000
 20
55.5460
 30
1.10000e-15
  70
    32
  0
VERTEX
  8
0
  5
27241
 10
5.00000
 20
55.5361
 30
1.10000e-15
  70
    32
  0
VERTEX
  8
0
  5
27242
 10
5.00000
 20
55.5264
 30
1.10000e-15
  70
    32
  0
VERTEX
  8
0
  5
27243
 10
5.00000
 20
55.5166
 30
1.10000e-15
  70
    32
  0
VERTEX
  8
0
  5
27244
 10
5.00000
 20
55.5069
 30
1.10000e-15
  70
    32
  0
VERTEX
  8
0
  5
27245
 10
5.00000
 20
55.4973
 30
1.10000e-15
  70
    32
  0
VERTEX
  8
0
  5
27246
 10
5.00000
 20
55.4877
 30
1.10000e-15
  70
    32
  0
VERTEX
  8
0
  5
27247
 10
5.00000
 20
55.4782
 30
1.10000e-15
  70
    32
  0
VERTEX
  8
0
  5
27248
 10
5.00000
 20
55.4687
 30
1.10000e-15
  70
    32
  0
VERTEX
  8
0
  5
27249
 10
5.00000
 20
55.4592
 30
1.10000e-15
  70
    32
  0
VERTEX
  8
0
  5
2724A
 10
5.00000
 20
55.4498
 30
1.10000e-15
  70
    32
  0
VERTEX
  8
0
  5
2724B
 10
5.00000
 20
55.4405
 30
1.10000e-15
  70
    32
  0
VERTEX
  8
0
  5
2724C
 10
5.00000
 20
55.4312
 30
1.10000e-15
  70
    32
  0
VERTEX
  8
0
  5
2724D
 10
5.00000
 20
55.4219
 30
1.10000e-15
  70
    32
  0
VERTEX
  8
0
  5
2724E
 10
5.00000
 20
55.4127
 30
1.10000e-15
  70
    32
  0
VERTEX
  8
0
  5
2724F
 10
5.00000
 20
55.4036
 30
1.10000e-15
  70
    32
  0
VERTEX
  8
0
  5
27250
 10
5.00000
 20
55.3945
 30
1.10000e-15
  70
    32
  0
VERTEX
  8
0
  5
27251
 10
5.00000
 20
55.3855
 30
1.10000e-15
  70
    32
  0
VERTEX
  8
0
  5
27252
 10
5.00000
 20
55.3765
 30
1.10000e-15
  70
    32
  0
VERTEX
  8
0
  5
27253
 10
5.00000
 20
55.3676
 30
1.10000e-15
  70
    32
  0
VERTEX
  8
0
  5
27254
 10
5.00000
 20
55.3587
 30
1.10000e-15
  70
    32
  0
VERTEX
  8
0
  5
27255
 10
5.00000
 20
55.3499
 30
1.10000e-15
  70
    32
  0
VERTEX
  8
0
  5
27256
 10
5.00000
 20
55.3411
 30
1.10000e-15
  70
    32
  0
VERTEX
  8
0
  5
27257
 10
5.00000
 20
55.3324
 30
1.10000e-15
  70
    32
  0
VERTEX
  8
0
  5
27258
 10
5.00000
 20
55.3237
 30
1.10000e-15
  70
    32
  0
VERTEX
  8
0
  5
27259
 10
5.00000
 20
55.3151
 30
1.10000e-15
  70
    32
  0
VERTEX
  8
0
  5
2725A
 10
5.00000
 20
55.3066
 30
1.10000e-15
  70
    32
  0
VERTEX
  8
0
  5
2725B
 10
5.00000
 20
55.2981
 30
1.10000e-15
  70
    32
  0
VERTEX
  8
0
  5
2725C
 10
5.00000
 20
55.2897
 30
1.10000e-15
  70
    32
  0
VERTEX
  8
0
  5
2725D
 10
5.00000
 20
55.2813
 30
1.10000e-15
  70
    32
  0
VERTEX
  8
0
  5
2725E
 10
5.00000
 20
55.2730
 30
1.10000e-15
  70
    32
  0
VERTEX
  8
0
  5
2725F
 10
5.00000
 20
55.2647
 30
1.10000e-15
  70
    32
  0
VERTEX
  8
0
  5
27260
 10
5.00000
 20
55.2565
 30
1.10000e-15
  70
    32
  0
VERTEX
  8
0
  5
27261
 10
5.00000
 20
55.2484
 30
1.10000e-15
  70
    32
  0
VERTEX
  8
0
  5
27262
 10
5.00000
 20
55.2403
 30
1.10000e-15
  70
    32
  0
VERTEX
  8
0
  5
27263
 10
5.00000
 20
55.2323
 30
1.10000e-15
  70
    32
  0
VERTEX
  8
0
  5
27264
 10
5.00000
 20
55.2243
 30
1.10000e-15
  70
    32
  0
VERTEX
  8
0
  5
27265
 10
5.00000
 20
55.2164
 30
1.10000e-15
  70
    32
  0
VERTEX
  8
0
  5
27266
 10
5.00000
 20
55.2086
 30
1.10000e-15
  70
    32
  0
VERTEX
  8
0
  5
27267
 10
5.00000
 20
55.2008
 30
1.10000e-15
  70
    32
  0
VERTEX
  8
0
  5
27268
 10
5.00000
 20
55.1931
 30
1.10000e-15
  70
    32
  0
VERTEX
  8
0
  5
27269
 10
5.00000
 20
55.1855
 30
1.10000e-15
  70
    32
  0
VERTEX
  8
0
  5
2726A
 10
5.00000
 20
55.1779
 30
1.10000e-15
  70
    32
  0
VERTEX
  8
0
  5
2726B
 10
5.00000
 20
55.1704
 30
1.10000e-15
  70
    32
  0
VERTEX
  8
0
  5
2726C
 10
5.00000
 20
55.1630
 30
1.10000e-15
  70
    32
  0
VERTEX
  8
0
  5
2726D
 10
5.00000
 20
55.1556
 30
1.10000e-15
  70
    32
  0
VERTEX
  8
0
  5
2726E
 10
5.00000
 20
55.1482
 30
1.10000e-15
  70
    32
  0
VERTEX
  8
0
  5
2726F
 10
5.00000
 20
55.1410
 30
1.10000e-15
  70
    32
  0
VERTEX
  8
0
  5
27270
 10
5.00000
 20
55.1338
 30
1.10000e-15
  70
    32
  0
VERTEX
  8
0
  5
27271
 10
5.00000
 20
55.1267
 30
1.10000e-15
  70
    32
  0
VERTEX
  8
0
  5
27272
 10
5.00000
 20
55.1196
 30
1.10000e-15
  70
    32
  0
VERTEX
  8
0
  5
27273
 10
5.00000
 20
55.1126
 30
1.10000e-15
  70
    32
  0
VERTEX
  8
0
  5
27274
 10
5.00000
 20
55.1057
 30
1.10000e-15
  70
    32
  0
VERTEX
  8
0
  5
27275
 10
5.00000
 20
55.0989
 30
1.10000e-15
  70
    32
  0
VERTEX
  8
0
  5
27276
 10
5.00000
 20
55.0921
 30
1.10000e-15
  70
    32
  0
VERTEX
  8
0
  5
27277
 10
5.00000
 20
55.0854
 30
1.10000e-15
  70
    32
  0
VERTEX
  8
0
  5
27278
 10
5.00000
 20
55.0787
 30
1.10000e-15
  70
    32
  0
VERTEX
  8
0
  5
27279
 10
5.00000
 20
55.0722
 30
1.10000e-15
  70
    32
  0
VERTEX
  8
0
  5
2727A
 10
5.00000
 20
55.0657
 30
1.10000e-15
  70
    32
  0
VERTEX
  8
0
  5
2727B
 10
5.00000
 20
55.0592
 30
1.10000e-15
  70
    32
  0
VERTEX
  8
0
  5
2727C
 10
5.00000
 20
55.0529
 30
1.10000e-15
  70
    32
  0
VERTEX
  8
0
  5
2727D
 10
5.00000
 20
55.0466
 30
1.10000e-15
  70
    32
  0
VERTEX
  8
0
  5
2727E
 10
5.00000
 20
55.0404
 30
1.10000e-15
  70
    32
  0
VERTEX
  8
0
  5
2727F
 10
5.00000
 20
55.0343
 30
1.10000e-15
  70
    32
  0
VERTEX
  8
0
  5
27280
 10
5.00000
 20
55.0282
 30
1.10000e-15
  70
    32
  0
VERTEX
  8
0
  5
27281
 10
5.00000
 20
55.0222
 30
1.10000e-15
  70
    32
  0
VERTEX
  8
0
  5
27282
 10
5.00000
 20
55.0163
 30
1.10000e-15
  70
    32
  0
VERTEX
  8
0
  5
27283
 10
5.00000
 20
55.0104
 30
1.10000e-15
  70
    32
  0
VERTEX
  8
0
  5
27284
 10
5.00000
 20
55.0047
 30
1.10000e-15
  70
    32
  0
VERTEX
  8
0
  5
27285
 10
5.00000
 20
54.9990
 30
1.10000e-15
  70
    32
  0
VERTEX
  8
0
  5
27286
 10
5.00000
 20
54.9933
 30
1.10000e-15
  70
    32
  0
VERTEX
  8
0
  5
27287
 10
5.00000
 20
54.9878
 30
1.10000e-15
  70
    32
  0
VERTEX
  8
0
  5
27288
 10
5.00000
 20
54.9823
 30
1.10000e-15
  70
    32
  0
VERTEX
  8
0
  5
27289
 10
5.00000
 20
54.9769
 30
1.10000e-15
  70
    32
  0
VERTEX
  8
0
  5
2728A
 10
5.00000
 20
54.9716
 30
1.10000e-15
  70
    32
  0
VERTEX
  8
0
  5
2728B
 10
5.00000
 20
54.9663
 30
1.10000e-15
  70
    32
  0
VERTEX
  8
0
  5
2728C
 10
5.00000
 20
54.9612
 30
1.10000e-15
  70
    32
  0
VERTEX
  8
0
  5
2728D
 10
5.00000
 20
54.9560
 30
1.10000e-15
  70
    32
  0
VERTEX
  8
0
  5
2728E
 10
5.00000
 20
54.9510
 30
1.10000e-15
  70
    32
  0
VERTEX
  8
0
  5
2728F
 10
5.00000
 20
54.9460
 30
1.10000e-15
  70
    32
  0
VERTEX
  8
0
  5
27290
 10
5.00000
 20
54.9411
 30
1.10000e-15
  70
    32
  0
VERTEX
  8
0
  5
27291
 10
5.00000
 20
54.9363
 30
1.10000e-15
  70
    32
  0
VERTEX
  8
0
  5
27292
 10
5.00000
 20
54.9316
 30
1.10000e-15
  70
    32
  0
VERTEX
  8
0
  5
27293
 10
5.00000
 20
54.9269
 30
1.10000e-15
  70
    32
  0
VERTEX
  8
0
  5
27294
 10
5.00000
 20
54.9223
 30
1.10000e-15
  70
    32
  0
VERTEX
  8
0
  5
27295
 10
5.00000
 20
54.9178
 30
1.10000e-15
  70
    32
  0
VERTEX
  8
0
  5
27296
 10
5.00000
 20
54.9133
 30
1.10000e-15
  70
    32
  0
VERTEX
  8
0
  5
27297
 10
5.00000
 20
54.9089
 30
1.10000e-15
  70
    32
  0
VERTEX
  8
0
  5
27298
 10
5.00000
 20
54.9046
 30
1.10000e-15
  70
    32
  0
VERTEX
  8
0
  5
27299
 10
5.00000
 20
54.9004
 30
1.10000e-15
  70
    32
  0
VERTEX
  8
0
  5
2729A
 10
5.00000
 20
54.8962
 30
1.10000e-15
  70
    32
  0
VERTEX
  8
0
  5
2729B
 10
5.00000
 20
54.8921
 30
1.10000e-15
  70
    32
  0
VERTEX
  8
0
  5
2729C
 10
5.00000
 20
54.8881
 30
1.10000e-15
  70
    32
  0
VERTEX
  8
0
  5
2729D
 10
5.00000
 20
54.8841
 30
1.10000e-15
  70
    32
  0
VERTEX
  8
0
  5
2729E
 10
5.00000
 20
54.8802
 30
1.10000e-15
  70
    32
  0
VERTEX
  8
0
  5
2729F
 10
5.00000
 20
54.8764
 30
1.10000e-15
  70
    32
  0
VERTEX
  8
0
  5
272A0
 10
5.00000
 20
54.8727
 30
1.10000e-15
  70
    32
  0
VERTEX
  8
0
  5
272A1
 10
5.00000
 20
54.8690
 30
1.10000e-15
  70
    32
  0
VERTEX
  8
0
  5
272A2
 10
5.00000
 20
54.8654
 30
1.10000e-15
  70
    32
  0
VERTEX
  8
0
  5
272A3
 10
5.00000
 20
54.8619
 30
1.10000e-15
  70
    32
  0
VERTEX
  8
0
  5
272A4
 10
5.00000
 20
54.8584
 30
1.10000e-15
  70
    32
  0
VERTEX
  8
0
  5
272A5
 10
5.00000
 20
54.8550
 30
1.10000e-15
  70
    32
  0
VERTEX
  8
0
  5
272A6
 10
5.00000
 20
54.8517
 30
1.10000e-15
  70
    32
  0
VERTEX
  8
0
  5
272A7
 10
5.00000
 20
54.8484
 30
1.10000e-15
  70
    32
  0
VERTEX
  8
0
  5
272A8
 10
5.00000
 20
54.8452
 30
1.10000e-15
  70
    32
  0
VERTEX
  8
0
  5
272A9
 10
5.00000
 20
54.8421
 30
1.10000e-15
  70
    32
  0
VERTEX
  8
0
  5
272AA
 10
5.00000
 20
54.8391
 30
1.10000e-15
  70
    32
  0
VERTEX
  8
0
  5
272AB
 10
5.00000
 20
54.8361
 30
1.10000e-15
  70
    32
  0
VERTEX
  8
0
  5
272AC
 10
5.00000
 20
54.8332
 30
1.10000e-15
  70
    32
  0
VERTEX
  8
0
  5
272AD
 10
5.00000
 20
54.8304
 30
1.10000e-15
  70
    32
  0
VERTEX
  8
0
  5
272AE
 10
5.00000
 20
54.8276
 30
1.10000e-15
  70
    32
  0
VERTEX
  8
0
  5
272AF
 10
5.00000
 20
54.8249
 30
1.10000e-15
  70
    32
  0
VERTEX
  8
0
  5
272B0
 10
5.00000
 20
54.8223
 30
1.10000e-15
  70
    32
  0
VERTEX
  8
0
  5
272B1
 10
5.00000
 20
54.8197
 30
1.10000e-15
  70
    32
  0
VERTEX
  8
0
  5
272B2
 10
5.00000
 20
54.8172
 30
1.10000e-15
  70
    32
  0
VERTEX
  8
0
  5
272B3
 10
5.00000
 20
54.8148
 30
1.10000e-15
  70
    32
  0
VERTEX
  8
0
  5
272B4
 10
5.00000
 20
54.8124
 30
1.10000e-15
  70
    32
  0
VERTEX
  8
0
  5
272B5
 10
5.00000
 20
54.8102
 30
1.10000e-15
  70
    32
  0
VERTEX
  8
0
  5
272B6
 10
5.00000
 20
54.8079
 30
1.10000e-15
  70
    32
  0
VERTEX
  8
0
  5
272B7
 10
5.00000
 20
54.8058
 30
1.10000e-15
  70
    32
  0
VERTEX
  8
0
  5
272B8
 10
5.00000
 20
54.8037
 30
1.10000e-15
  70
    32
  0
VERTEX
  8
0
  5
272B9
 10
5.00000
 20
54.8017
 30
1.10000e-15
  70
    32
  0
VERTEX
  8
0
  5
272BA
 10
5.00000
 20
54.7998
 30
1.10000e-15
  70
    32
  0
VERTEX
  8
0
  5
272BB
 10
5.00000
 20
54.7979
 30
1.10000e-15
  70
    32
  0
VERTEX
  8
0
  5
272BC
 10
5.00000
 20
54.7961
 30
1.10000e-15
  70
    32
  0
VERTEX
  8
0
  5
272BD
 10
5.00000
 20
54.7943
 30
1.10000e-15
  70
    32
  0
VERTEX
  8
0
  5
272BE
 10
5.00000
 20
54.7926
 30
1.10000e-15
  70
    32
  0
VERTEX
  8
0
  5
272BF
 10
5.00000
 20
54.7910
 30
1.10000e-15
  70
    32
  0
VERTEX
  8
0
  5
272C0
 10
5.00000
 20
54.7895
 30
1.10000e-15
  70
    32
  0
VERTEX
  8
0
  5
272C1
 10
5.00000
 20
54.7880
 30
1.10000e-15
  70
    32
  0
VERTEX
  8
0
  5
272C2
 10
5.00000
 20
54.7866
 30
1.10000e-15
  70
    32
  0
VERTEX
  8
0
  5
272C3
 10
5.00000
 20
54.7853
 30
1.10000e-15
  70
    32
  0
VERTEX
  8
0
  5
272C4
 10
5.00000
 20
54.7840
 30
1.10000e-15
  70
    32
  0
VERTEX
  8
0
  5
272C5
 10
5.00000
 20
54.7828
 30
1.10000e-15
  70
    32
  0
VERTEX
  8
0
  5
272C6
 10
5.00000
 20
54.7816
 30
1.10000e-15
  70
    32
  0
VERTEX
  8
0
  5
272C7
 10
5.00000
 20
54.7806
 30
1.10000e-15
  70
    32
  0
VERTEX
  8
0
  5
272C8
 10
5.00000
 20
54.7796
 30
1.10000e-15
  70
    32
  0
VERTEX
  8
0
  5
272C9
 10
5.00000
 20
54.7786
 30
1.10000e-15
  70
    32
  0
VERTEX
  8
0
  5
272CA
 10
5.00000
 20
54.7777
 30
1.10000e-15
  70
    32
  0
VERTEX
  8
0
  5
272CB
 10
5.00000
 20
54.7769
 30
1.10000e-15
  70
    32
  0
VERTEX
  8
0
  5
272CC
 10
5.00000
 20
54.7762
 30
1.10000e-15
  70
    32
  0
VERTEX
  8
0
  5
272CD
 10
5.00000
 20
54.7755
 30
1.10000e-15
  70
    32
  0
VERTEX
  8
0
  5
272CE
 10
5.00000
 20
54.7749
 30
1.10000e-15
  70
    32
  0
VERTEX
  8
0
  5
272CF
 10
5.00000
 20
54.7743
 30
1.10000e-15
  70
    32
  0
VERTEX
  8
0
  5
272D0
 10
5.00000
 20
54.7738
 30
1.10000e-15
  70
    32
  0
VERTEX
  8
0
  5
272D1
 10
5.00000
 20
54.7734
 30
1.10000e-15
  70
    32
  0
VERTEX
  8
0
  5
272D2
 10
5.00000
 20
54.7731
 30
1.10000e-15
  70
    32
  0
VERTEX
  8
0
  5
272D3
 10
5.00000
 20
54.7728
 30
1.10000e-15
  70
    32
  0
VERTEX
  8
0
  5
272D4
 10
5.00000
 20
54.7725
 30
1.10000e-15
  70
    32
  0
VERTEX
  8
0
  5
272D5
 10
5.00000
 20
54.7724
 30
1.10000e-15
  70
    32
  0
VERTEX
  8
0
  5
272D6
 10
5.00000
 20
54.7723
 30
1.10000e-15
  70
    32
  0
VERTEX
  8
0
  5
272D7
 10
5.00000
 20
54.7723
 30
1.10000e-15
  70
    32
  0
SEQEND
  8
0
  5
272D8
  0
ARC
  5
26FFA
  8
0
  6
CONTINUOUS
 62
     3
 10
-0.0000000000000295
 20
0.0000000000000012
 30
0.0
 40
55.0000000000000071
 50
95.2159085704539763
 51
84.7840914295457821
  0
POLYLINE
  8
0
  5
272D9
  62
3
  66
     1
 10
0.000000
 20
0.000000
 30
0.000000
  70
     8
  0
VERTEX
  8
0
  5
272DA
 10
5.00000
 20
65.0000
 30
1.10000e-15
  70
    32
  0
VERTEX
  8
0
  5
272DB
 10
5.00000
 20
64.9093
 30
1.10000e-15
  70
    32
  0
VERTEX
  8
0
  5
272DC
 10
5.00000
 20
64.8187
 30
1.10000e-15
  70
    32
  0
VERTEX
  8
0
  5
272DD
 10
5.00000
 20
64.7283
 30
1.10000e-15
  70
    32
  0
VERTEX
  8
0
  5
272DE
 10
5.00000
 20
64.6379
 30
1.10000e-15
  70
    32
  0
VERTEX
  8
0
  5
272DF
 10
5.00000
 20
64.5477
 30
1.10000e-15
  70
    32
  0
VERTEX
  8
0
  5
272E0
 10
5.00000
 20
64.4576
 30
1.10000e-15
  70
    32
  0
VERTEX
  8
0
  5
272E1
 10
5.00000
 20
64.3677
 30
1.10000e-15
  70
    32
  0
VERTEX
  8
0
  5
272E2
 10
5.00000
 20
64.2779
 30
1.10000e-15
  70
    32
  0
VERTEX
  8
0
  5
272E3
 10
5.00000
 20
64.1882
 30
1.10000e-15
  70
    32
  0
VERTEX
  8
0
  5
272E4
 10
5.00000
 20
64.0986
 30
1.10000e-15
  70
    32
  0
VERTEX
  8
0
  5
272E5
 10
5.00000
 20
64.0091
 30
1.10000e-15
  70
    32
  0
VERTEX
  8
0
  5
272E6
 10
5.00000
 20
63.9198
 30
1.10000e-15
  70
    32
  0
VERTEX
  8
0
  5
272E7
 10
5.00000
 20
63.8306
 30
1.10000e-15
  70
    32
  0
VERTEX
  8
0
  5
272E8
 10
5.00000
 20
63.7415
 30
1.10000e-15
  70
    32
  0
VERTEX
  8
0
  5
272E9
 10
5.00000
 20
63.6525
 30
1.10000e-15
  70
    32
  0
VERTEX
  8
0
  5
272EA
 10
5.00000
 20
63.5637
 30
1.10000e-15
  70
    32
  0
VERTEX
  8
0
  5
272EB
 10
5.00000
 20
63.4750
 30
1.10000e-15
  70
    32
  0
VERTEX
  8
0
  5
272EC
 10
5.00000
 20
63.3864
 30
1.10000e-15
  70
    32
  0
VERTEX
  8
0
  5
272ED
 10
5.00000
 20
63.2979
 30
1.10000e-15
  70
    32
  0
VERTEX
  8
0
  5
272EE
 10
5.00000
 20
63.2095
 30
1.10000e-15
  70
    32
  0
VERTEX
  8
0
  5
272EF
 10
5.00000
 20
63.1213
 30
1.10000e-15
  70
    32
  0
VERTEX
  8
0
  5
272F0
 10
5.00000
 20
63.0332
 30
1.10000e-15
  70
    32
  0
VERTEX
  8
0
  5
272F1
 10
5.00000
 20
62.9452
 30
1.10000e-15
  70
    32
  0
VERTEX
  8
0
  5
272F2
 10
5.00000
 20
62.8574
 30
1.10000e-15
  70
    32
  0
VERTEX
  8
0
  5
272F3
 10
5.00000
 20
62.7696
 30
1.10000e-15
  70
    32
  0
VERTEX
  8
0
  5
272F4
 10
5.00000
 20
62.6820
 30
1.10000e-15
  70
    32
  0
VERTEX
  8
0
  5
272F5
 10
5.00000
 20
62.5945
 30
1.10000e-15
  70
    32
  0
VERTEX
  8
0
  5
272F6
 10
5.00000
 20
62.5071
 30
1.10000e-15
  70
    32
  0
VERTEX
  8
0
  5
272F7
 10
5.00000
 20
62.4198
 30
1.10000e-15
  70
    32
  0
VERTEX
  8
0
  5
272F8
 10
5.00000
 20
62.3327
 30
1.10000e-15
  70
    32
  0
VERTEX
  8
0
  5
272F9
 10
5.00000
 20
62.2456
 30
1.10000e-15
  70
    32
  0
VERTEX
  8
0
  5
272FA
 10
5.00000
 20
62.1587
 30
1.10000e-15
  70
    32
  0
VERTEX
  8
0
  5
272FB
 10
5.00000
 20
62.0719
 30
1.10000e-15
  70
    32
  0
VERTEX
  8
0
  5
272FC
 10
5.00000
 20
61.9852
 30
1.10000e-15
  70
    32
  0
VERTEX
  8
0
  5
272FD
 10
5.00000
 20
61.8987
 30
1.10000e-15
  70
    32
  0
VERTEX
  8
0
  5
272FE
 10
5.00000
 20
61.8122
 30
1.10000e-15
  70
    32
  0
VERTEX
  8
0
  5
272FF
 10
5.00000
 20
61.7259
 30
1.10000e-15
  70
    32
  0
VERTEX
  8
0
  5
27300
 10
5.00000
 20
61.6397
 30
1.10000e-15
  70
    32
  0
VERTEX
  8
0
  5
27301
 10
5.00000
 20
61.5536
 30
1.10000e-15
  70
    32
  0
VERTEX
  8
0
  5
27302
 10
5.00000
 20
61.4677
 30
1.10000e-15
  70
    32
  0
VERTEX
  8
0
  5
27303
 10
5.00000
 20
61.3818
 30
1.10000e-15
  70
    32
  0
VERTEX
  8
0
  5
27304
 10
5.00000
 20
61.2961
 30
1.10000e-15
  70
    32
  0
VERTEX
  8
0
  5
27305
 10
5.00000
 20
61.2104
 30
1.10000e-15
  70
    32
  0
VERTEX
  8
0
  5
27306
 10
5.00000
 20
61.1249
 30
1.10000e-15
  70
    32
  0
VERTEX
  8
0
  5
27307
 10
5.00000
 20
61.0395
 30
1.10000e-15
  70
    32
  0
VERTEX
  8
0
  5
27308
 10
5.00000
 20
60.9543
 30
1.10000e-15
  70
    32
  0
VERTEX
  8
0
  5
27309
 10
5.00000
 20
60.8691
 30
1.10000e-15
  70
    32
  0
VERTEX
  8
0
  5
2730A
 10
5.00000
 20
60.7840
 30
1.10000e-15
  70
    32
  0
VERTEX
  8
0
  5
2730B
 10
5.00000
 20
60.6991
 30
1.10000e-15
  70
    32
  0
VERTEX
  8
0
  5
2730C
 10
5.00000
 20
60.6143
 30
1.10000e-15
  70
    32
  0
VERTEX
  8
0
  5
2730D
 10
5.00000
 20
60.5296
 30
1.10000e-15
  70
    32
  0
VERTEX
  8
0
  5
2730E
 10
5.00000
 20
60.4450
 30
1.10000e-15
  70
    32
  0
VERTEX
  8
0
  5
2730F
 10
5.00000
 20
60.3605
 30
1.10000e-15
  70
    32
  0
VERTEX
  8
0
  5
27310
 10
5.00000
 20
60.2762
 30
1.10000e-15
  70
    32
  0
VERTEX
  8
0
  5
27311
 10
5.00000
 20
60.1919
 30
1.10000e-15
  70
    32
  0
VERTEX
  8
0
  5
27312
 10
5.00000
 20
60.1078
 30
1.10000e-15
  70
    32
  0
VERTEX
  8
0
  5
27313
 10
5.00000
 20
60.0238
 30
1.10000e-15
  70
    32
  0
VERTEX
  8
0
  5
27314
 10
5.00000
 20
59.9398
 30
1.10000e-15
  70
    32
  0
VERTEX
  8
0
  5
27315
 10
5.00000
 20
59.8560
 30
1.10000e-15
  70
    32
  0
VERTEX
  8
0
  5
27316
 10
5.00000
 20
59.7724
 30
1.10000e-15
  70
    32
  0
VERTEX
  8
0
  5
27317
 10
5.00000
 20
59.6888
 30
1.10000e-15
  70
    32
  0
VERTEX
  8
0
  5
27318
 10
5.00000
 20
59.6053
 30
1.10000e-15
  70
    32
  0
VERTEX
  8
0
  5
27319
 10
5.00000
 20
59.5220
 30
1.10000e-15
  70
    32
  0
VERTEX
  8
0
  5
2731A
 10
5.00000
 20
59.4387
 30
1.10000e-15
  70
    32
  0
VERTEX
  8
0
  5
2731B
 10
5.00000
 20
59.3556
 30
1.10000e-15
  70
    32
  0
VERTEX
  8
0
  5
2731C
 10
5.00000
 20
59.2726
 30
1.10000e-15
  70
    32
  0
VERTEX
  8
0
  5
2731D
 10
5.00000
 20
59.1897
 30
1.10000e-15
  70
    32
  0
VERTEX
  8
0
  5
2731E
 10
5.00000
 20
59.1069
 30
1.10000e-15
  70
    32
  0
VERTEX
  8
0
  5
2731F
 10
5.00000
 20
59.0242
 30
1.10000e-15
  70
    32
  0
VERTEX
  8
0
  5
27320
 10
5.00000
 20
58.9416
 30
1.10000e-15
  70
    32
  0
VERTEX
  8
0
  5
27321
 10
5.00000
 20
58.8591
 30
1.10000e-15
  70
    32
  0
VERTEX
  8
0
  5
27322
 10
5.00000
 20
58.7768
 30
1.10000e-15
  70
    32
  0
VERTEX
  8
0
  5
27323
 10
5.00000
 20
58.6945
 30
1.10000e-15
  70
    32
  0
VERTEX
  8
0
  5
27324
 10
5.00000
 20
58.6124
 30
1.10000e-15
  70
    32
  0
VERTEX
  8
0
  5
27325
 10
5.00000
 20
58.5303
 30
1.10000e-15
  70
    32
  0
VERTEX
  8
0
  5
27326
 10
5.00000
 20
58.4484
 30
1.10000e-15
  70
    32
  0
VERTEX
  8
0
  5
27327
 10
5.00000
 20
58.3666
 30
1.10000e-15
  70
    32
  0
VERTEX
  8
0
  5
27328
 10
5.00000
 20
58.2849
 30
1.10000e-15
  70
    32
  0
VERTEX
  8
0
  5
27329
 10
5.00000
 20
58.2033
 30
1.10000e-15
  70
    32
  0
VERTEX
  8
0
  5
2732A
 10
5.00000
 20
58.1218
 30
1.10000e-15
  70
    32
  0
VERTEX
  8
0
  5
2732B
 10
5.00000
 20
58.0404
 30
1.10000e-15
  70
    32
  0
VERTEX
  8
0
  5
2732C
 10
5.00000
 20
57.9591
 30
1.10000e-15
  70
    32
  0
VERTEX
  8
0
  5
2732D
 10
5.00000
 20
57.8780
 30
1.10000e-15
  70
    32
  0
VERTEX
  8
0
  5
2732E
 10
5.00000
 20
57.7969
 30
1.10000e-15
  70
    32
  0
VERTEX
  8
0
  5
2732F
 10
5.00000
 20
57.7159
 30
1.10000e-15
  70
    32
  0
VERTEX
  8
0
  5
27330
 10
5.00000
 20
57.6351
 30
1.10000e-15
  70
    32
  0
VERTEX
  8
0
  5
27331
 10
5.00000
 20
57.5543
 30
1.10000e-15
  70
    32
  0
VERTEX
  8
0
  5
27332
 10
5.00000
 20
57.4737
 30
1.10000e-15
  70
    32
  0
VERTEX
  8
0
  5
27333
 10
5.00000
 20
57.3932
 30
1.10000e-15
  70
    32
  0
VERTEX
  8
0
  5
27334
 10
5.00000
 20
57.3127
 30
1.10000e-15
  70
    32
  0
VERTEX
  8
0
  5
27335
 10
5.00000
 20
57.2324
 30
1.10000e-15
  70
    32
  0
VERTEX
  8
0
  5
27336
 10
5.00000
 20
57.1522
 30
1.10000e-15
  70
    32
  0
VERTEX
  8
0
  5
27337
 10
5.00000
 20
57.0721
 30
1.10000e-15
  70
    32
  0
VERTEX
  8
0
  5
27338
 10
5.00000
 20
56.9921
 30
1.10000e-15
  70
    32
  0
VERTEX
  8
0
  5
27339
 10
5.00000
 20
56.9122
 30
1.10000e-15
  70
    32
  0
SEQEND
  8
0
  5
2733A
  0
POLYLINE
  8
0
  5
2733B
  62
3
  66
     1
 10
0.000000
 20
0.000000
 30
0.000000
  70
     8
  0
VERTEX
  8
0
  5
2733C
 10
5.00000
 20
54.7723
 30
1.10000e-15
  70
    32
  0
VERTEX
  8
0
  5
2733D
 10
5.00000
 20
54.7284
 30
1.10000e-15
  70
    32
  0
VERTEX
  8
0
  5
2733E
 10
5.00000
 20
54.6845
 30
1.10000e-15
  70
    32
  0
VERTEX
  8
0
  5
2733F
 10
5.00000
 20
54.6407
 30
1.10000e-15
  70
    32
  0
VERTEX
  8
0
  5
27340
 10
5.00000
 20
54.5969
 30
1.10000e-15
  70
    32
  0
VERTEX
  8
0
  5
27341
 10
5.00000
 20
54.5531
 30
1.10000e-15
  70
    32
  0
VERTEX
  8
0
  5
27342
 10
5.00000
 20
54.5094
 30
1.10000e-15
  70
    32
  0
VERTEX
  8
0
  5
27343
 10
5.00000
 20
54.4657
 30
1.10000e-15
  70
    32
  0
VERTEX
  8
0
  5
27344
 10
5.00000
 20
54.4220
 30
1.10000e-15
  70
    32
  0
VERTEX
  8
0
  5
27345
 10
5.00000
 20
54.3784
 30
1.10000e-15
  70
    32
  0
VERTEX
  8
0
  5
27346
 10
5.00000
 20
54.3348
 30
1.10000e-15
  70
    32
  0
VERTEX
  8
0
  5
27347
 10
5.00000
 20
54.2913
 30
1.10000e-15
  70
    32
  0
VERTEX
  8
0
  5
27348
 10
5.00000
 20
54.2477
 30
1.10000e-15
  70
    32
  0
VERTEX
  8
0
  5
27349
 10
5.00000
 20
54.2043
 30
1.10000e-15
  70
    32
  0
VERTEX
  8
0
  5
2734A
 10
5.00000
 20
54.1608
 30
1.10000e-15
  70
    32
  0
VERTEX
  8
0
  5
2734B
 10
5.00000
 20
54.1174
 30
1.10000e-15
  70
    32
  0
VERTEX
  8
0
  5
2734C
 10
5.00000
 20
54.0740
 30
1.10000e-15
  70
    32
  0
VERTEX
  8
0
  5
2734D
 10
5.00000
 20
54.0307
 30
1.10000e-15
  70
    32
  0
VERTEX
  8
0
  5
2734E
 10
5.00000
 20
53.9874
 30
1.10000e-15
  70
    32
  0
VERTEX
  8
0
  5
2734F
 10
5.00000
 20
53.9441
 30
1.10000e-15
  70
    32
  0
VERTEX
  8
0
  5
27350
 10
5.00000
 20
53.9009
 30
1.10000e-15
  70
    32
  0
VERTEX
  8
0
  5
27351
 10
5.00000
 20
53.8577
 30
1.10000e-15
  70
    32
  0
VERTEX
  8
0
  5
27352
 10
5.00000
 20
53.8145
 30
1.10000e-15
  70
    32
  0
VERTEX
  8
0
  5
27353
 10
5.00000
 20
53.7714
 30
1.10000e-15
  70
    32
  0
VERTEX
  8
0
  5
27354
 10
5.00000
 20
53.7283
 30
1.10000e-15
  70
    32
  0
VERTEX
  8
0
  5
27355
 10
5.00000
 20
53.6852
 30
1.10000e-15
  70
    32
  0
VERTEX
  8
0
  5
27356
 10
5.00000
 20
53.6422
 30
1.10000e-15
  70
    32
  0
VERTEX
  8
0
  5
27357
 10
5.00000
 20
53.5992
 30
1.10000e-15
  70
    32
  0
VERTEX
  8
0
  5
27358
 10
5.00000
 20
53.5562
 30
1.10000e-15
  70
    32
  0
VERTEX
  8
0
  5
27359
 10
5.00000
 20
53.5133
 30
1.10000e-15
  70
    32
  0
VERTEX
  8
0
  5
2735A
 10
5.00000
 20
53.4704
 30
1.10000e-15
  70
    32
  0
VERTEX
  8
0
  5
2735B
 10
5.00000
 20
53.4276
 30
1.10000e-15
  70
    32
  0
VERTEX
  8
0
  5
2735C
 10
5.00000
 20
53.3847
 30
1.10000e-15
  70
    32
  0
VERTEX
  8
0
  5
2735D
 10
5.00000
 20
53.3420
 30
1.10000e-15
  70
    32
  0
VERTEX
  8
0
  5
2735E
 10
5.00000
 20
53.2992
 30
1.10000e-15
  70
    32
  0
VERTEX
  8
0
  5
2735F
 10
5.00000
 20
53.2565
 30
1.10000e-15
  70
    32
  0
VERTEX
  8
0
  5
27360
 10
5.00000
 20
53.2138
 30
1.10000e-15
  70
    32
  0
VERTEX
  8
0
  5
27361
 10
5.00000
 20
53.1712
 30
1.10000e-15
  70
    32
  0
VERTEX
  8
0
  5
27362
 10
5.00000
 20
53.1285
 30
1.10000e-15
  70
    32
  0
VERTEX
  8
0
  5
27363
 10
5.00000
 20
53.0860
 30
1.10000e-15
  70
    32
  0
VERTEX
  8
0
  5
27364
 10
5.00000
 20
53.0434
 30
1.10000e-15
  70
    32
  0
VERTEX
  8
0
  5
27365
 10
5.00000
 20
53.0009
 30
1.10000e-15
  70
    32
  0
VERTEX
  8
0
  5
27366
 10
5.00000
 20
52.9584
 30
1.10000e-15
  70
    32
  0
VERTEX
  8
0
  5
27367
 10
5.00000
 20
52.9160
 30
1.10000e-15
  70
    32
  0
VERTEX
  8
0
  5
27368
 10
5.00000
 20
52.8735
 30
1.10000e-15
  70
    32
  0
VERTEX
  8
0
  5
27369
 10
5.00000
 20
52.8312
 30
1.10000e-15
  70
    32
  0
VERTEX
  8
0
  5
2736A
 10
5.00000
 20
52.7888
 30
1.10000e-15
  70
    32
  0
VERTEX
  8
0
  5
2736B
 10
5.00000
 20
52.7465
 30
1.10000e-15
  70
    32
  0
VERTEX
  8
0
  5
2736C
 10
5.00000
 20
52.7042
 30
1.10000e-15
  70
    32
  0
VERTEX
  8
0
  5
2736D
 10
5.00000
 20
52.6620
 30
1.10000e-15
  70
    32
  0
VERTEX
  8
0
  5
2736E
 10
5.00000
 20
52.6198
 30
1.10000e-15
  70
    32
  0
VERTEX
  8
0
  5
2736F
 10
5.00000
 20
52.5776
 30
1.10000e-15
  70
    32
  0
VERTEX
  8
0
  5
27370
 10
5.00000
 20
52.5354
 30
1.10000e-15
  70
    32
  0
VERTEX
  8
0
  5
27371
 10
5.00000
 20
52.4933
 30
1.10000e-15
  70
    32
  0
VERTEX
  8
0
  5
27372
 10
5.00000
 20
52.4513
 30
1.10000e-15
  70
    32
  0
VERTEX
  8
0
  5
27373
 10
5.00000
 20
52.4092
 30
1.10000e-15
  70
    32
  0
VERTEX
  8
0
  5
27374
 10
5.00000
 20
52.3672
 30
1.10000e-15
  70
    32
  0
VERTEX
  8
0
  5
27375
 10
5.00000
 20
52.3252
 30
1.10000e-15
  70
    32
  0
VERTEX
  8
0
  5
27376
 10
5.00000
 20
52.2833
 30
1.10000e-15
  70
    32
  0
VERTEX
  8
0
  5
27377
 10
5.00000
 20
52.2414
 30
1.10000e-15
  70
    32
  0
VERTEX
  8
0
  5
27378
 10
5.00000
 20
52.1995
 30
1.10000e-15
  70
    32
  0
VERTEX
  8
0
  5
27379
 10
5.00000
 20
52.1576
 30
1.10000e-15
  70
    32
  0
VERTEX
  8
0
  5
2737A
 10
5.00000
 20
52.1158
 30
1.10000e-15
  70
    32
  0
VERTEX
  8
0
  5
2737B
 10
5.00000
 20
52.0741
 30
1.10000e-15
  70
    32
  0
VERTEX
  8
0
  5
2737C
 10
5.00000
 20
52.0323
 30
1.10000e-15
  70
    32
  0
VERTEX
  8
0
  5
2737D
 10
5.00000
 20
51.9906
 30
1.10000e-15
  70
    32
  0
VERTEX
  8
0
  5
2737E
 10
5.00000
 20
51.9489
 30
1.10000e-15
  70
    32
  0
VERTEX
  8
0
  5
2737F
 10
5.00000
 20
51.9073
 30
1.10000e-15
  70
    32
  0
VERTEX
  8
0
  5
27380
 10
5.00000
 20
51.8656
 30
1.10000e-15
  70
    32
  0
VERTEX
  8
0
  5
27381
 10
5.00000
 20
51.8241
 30
1.10000e-15
  70
    32
  0
VERTEX
  8
0
  5
27382
 10
5.00000
 20
51.7825
 30
1.10000e-15
  70
    32
  0
VERTEX
  8
0
  5
27383
 10
5.00000
 20
51.7410
 30
1.10000e-15
  70
    32
  0
VERTEX
  8
0
  5
27384
 10
5.00000
 20
51.6995
 30
1.10000e-15
  70
    32
  0
VERTEX
  8
0
  5
27385
 10
5.00000
 20
51.6581
 30
1.10000e-15
  70
    32
  0
VERTEX
  8
0
  5
27386
 10
5.00000
 20
51.6166
 30
1.10000e-15
  70
    32
  0
VERTEX
  8
0
  5
27387
 10
5.00000
 20
51.5753
 30
1.10000e-15
  70
    32
  0
VERTEX
  8
0
  5
27388
 10
5.00000
 20
51.5339
 30
1.10000e-15
  70
    32
  0
VERTEX
  8
0
  5
27389
 10
5.00000
 20
51.4926
 30
1.10000e-15
  70
    32
  0
VERTEX
  8
0
  5
2738A
 10
5.00000
 20
51.4513
 30
1.10000e-15
  70
    32
  0
VERTEX
  8
0
  5
2738B
 10
5.00000
 20
51.4100
 30
1.10000e-15
  70
    32
  0
VERTEX
  8
0
  5
2738C
 10
5.00000
 20
51.3688
 30
1.10000e-15
  70
    32
  0
VERTEX
  8
0
  5
2738D
 10
5.00000
 20
51.3276
 30
1.10000e-15
  70
    32
  0
VERTEX
  8
0
  5
2738E
 10
5.00000
 20
51.2865
 30
1.10000e-15
  70
    32
  0
VERTEX
  8
0
  5
2738F
 10
5.00000
 20
51.2453
 30
1.10000e-15
  70
    32
  0
VERTEX
  8
0
  5
27390
 10
5.00000
 20
51.2042
 30
1.10000e-15
  70
    32
  0
VERTEX
  8
0
  5
27391
 10
5.00000
 20
51.1632
 30
1.10000e-15
  70
    32
  0
VERTEX
  8
0
  5
27392
 10
5.00000
 20
51.1221
 30
1.10000e-15
  70
    32
  0
VERTEX
  8
0
  5
27393
 10
5.00000
 20
51.0811
 30
1.10000e-15
  70
    32
  0
VERTEX
  8
0
  5
27394
 10
5.00000
 20
51.0402
 30
1.10000e-15
  70
    32
  0
VERTEX
  8
0
  5
27395
 10
5.00000
 20
50.9992
 30
1.10000e-15
  70
    32
  0
VERTEX
  8
0
  5
27396
 10
5.00000
 20
50.9583
 30
1.10000e-15
  70
    32
  0
VERTEX
  8
0
  5
27397
 10
5.00000
 20
50.9175
 30
1.10000e-15
  70
    32
  0
VERTEX
  8
0
  5
27398
 10
5.00000
 20
50.8766
 30
1.10000e-15
  70
    32
  0
VERTEX
  8
0
  5
27399
 10
5.00000
 20
50.8358
 30
1.10000e-15
  70
    32
  0
VERTEX
  8
0
  5
2739A
 10
5.00000
 20
50.7951
 30
1.10000e-15
  70
    32
  0
VERTEX
  8
0
  5
2739B
 10
5.00000
 20
50.7543
 30
1.10000e-15
  70
    32
  0
SEQEND
  8
0
  5
2739C
  0
POLYLINE
  8
0
  5
2739D
  62
3
  66
     1
 10
0.000000
 20
0.000000
 30
0.000000
  70
     8
  0
VERTEX
  8
0
  5
2739E
 10
-5.00000
 20
56.9122
 30
-1.10000e-15
  70
    32
  0
VERTEX
  8
0
  5
2739F
 10
-5.00000
 20
56.9921
 30
-1.10000e-15
  70
    32
  0
VERTEX
  8
0
  5
273A0
 10
-5.00000
 20
57.0721
 30
-1.10000e-15
  70
    32
  0
VERTEX
  8
0
  5
273A1
 10
-5.00000
 20
57.1522
 30
-1.10000e-15
  70
    32
  0
VERTEX
  8
0
  5
273A2
 10
-5.00000
 20
57.2324
 30
-1.10000e-15
  70
    32
  0
VERTEX
  8
0
  5
273A3
 10
-5.00000
 20
57.3127
 30
-1.10000e-15
  70
    32
  0
VERTEX
  8
0
  5
273A4
 10
-5.00000
 20
57.3932
 30
-1.10000e-15
  70
    32
  0
VERTEX
  8
0
  5
273A5
 10
-5.00000
 20
57.4737
 30
-1.10000e-15
  70
    32
  0
VERTEX
  8
0
  5
273A6
 10
-5.00000
 20
57.5543
 30
-1.10000e-15
  70
    32
  0
VERTEX
  8
0
  5
273A7
 10
-5.00000
 20
57.6351
 30
-1.10000e-15
  70
    32
  0
VERTEX
  8
0
  5
273A8
 10
-5.00000
 20
57.7159
 30
-1.10000e-15
  70
    32
  0
VERTEX
  8
0
  5
273A9
 10
-5.00000
 20
57.7969
 30
-1.10000e-15
  70
    32
  0
VERTEX
  8
0
  5
273AA
 10
-5.00000
 20
57.8780
 30
-1.10000e-15
  70
    32
  0
VERTEX
  8
0
  5
273AB
 10
-5.00000
 20
57.9591
 30
-1.10000e-15
  70
    32
  0
VERTEX
  8
0
  5
273AC
 10
-5.00000
 20
58.0404
 30
-1.10000e-15
  70
    32
  0
VERTEX
  8
0
  5
273AD
 10
-5.00000
 20
58.1218
 30
-1.10000e-15
  70
    32
  0
VERTEX
  8
0
  5
273AE
 10
-5.00000
 20
58.2033
 30
-1.10000e-15
  70
    32
  0
VERTEX
  8
0
  5
273AF
 10
-5.00000
 20
58.2849
 30
-1.10000e-15
  70
    32
  0
VERTEX
  8
0
  5
273B0
 10
-5.00000
 20
58.3666
 30
-1.10000e-15
  70
    32
  0
VERTEX
  8
0
  5
273B1
 10
-5.00000
 20
58.4484
 30
-1.10000e-15
  70
    32
  0
VERTEX
  8
0
  5
273B2
 10
-5.00000
 20
58.5303
 30
-1.10000e-15
  70
    32
  0
VERTEX
  8
0
  5
273B3
 10
-5.00000
 20
58.6124
 30
-1.10000e-15
  70
    32
  0
VERTEX
  8
0
  5
273B4
 10
-5.00000
 20
58.6945
 30
-1.10000e-15
  70
    32
  0
VERTEX
  8
0
  5
273B5
 10
-5.00000
 20
58.7768
 30
-1.10000e-15
  70
    32
  0
VERTEX
  8
0
  5
273B6
 10
-5.00000
 20
58.8591
 30
-1.10000e-15
  70
    32
  0
VERTEX
  8
0
  5
273B7
 10
-5.00000
 20
58.9416
 30
-1.10000e-15
  70
    32
  0
VERTEX
  8
0
  5
273B8
 10
-5.00000
 20
59.0242
 30
-1.10000e-15
  70
    32
  0
VERTEX
  8
0
  5
273B9
 10
-5.00000
 20
59.1069
 30
-1.10000e-15
  70
    32
  0
VERTEX
  8
0
  5
273BA
 10
-5.00000
 20
59.1897
 30
-1.10000e-15
  70
    32
  0
VERTEX
  8
0
  5
273BB
 10
-5.00000
 20
59.2726
 30
-1.10000e-15
  70
    32
  0
VERTEX
  8
0
  5
273BC
 10
-5.00000
 20
59.3556
 30
-1.10000e-15
  70
    32
  0
VERTEX
  8
0
  5
273BD
 10
-5.00000
 20
59.4387
 30
-1.10000e-15
  70
    32
  0
VERTEX
  8
0
  5
273BE
 10
-5.00000
 20
59.5220
 30
-1.10000e-15
  70
    32
  0
VERTEX
  8
0
  5
273BF
 10
-5.00000
 20
59.6053
 30
-1.10000e-15
  70
    32
  0
VERTEX
  8
0
  5
273C0
 10
-5.00000
 20
59.6888
 30
-1.10000e-15
  70
    32
  0
VERTEX
  8
0
  5
273C1
 10
-5.00000
 20
59.7724
 30
-1.10000e-15
  70
    32
  0
VERTEX
  8
0
  5
273C2
 10
-5.00000
 20
59.8560
 30
-1.10000e-15
  70
    32
  0
VERTEX
  8
0
  5
273C3
 10
-5.00000
 20
59.9398
 30
-1.10000e-15
  70
    32
  0
VERTEX
  8
0
  5
273C4
 10
-5.00000
 20
60.0238
 30
-1.10000e-15
  70
    32
  0
VERTEX
  8
0
  5
273C5
 10
-5.00000
 20
60.1078
 30
-1.10000e-15
  70
    32
  0
VERTEX
  8
0
  5
273C6
 10
-5.00000
 20
60.1919
 30
-1.10000e-15
  70
    32
  0
VERTEX
  8
0
  5
273C7
 10
-5.00000
 20
60.2762
 30
-1.10000e-15
  70
    32
  0
VERTEX
  8
0
  5
273C8
 10
-5.00000
 20
60.3605
 30
-1.10000e-15
  70
    32
  0
VERTEX
  8
0
  5
273C9
 10
-5.00000
 20
60.4450
 30
-1.10000e-15
  70
    32
  0
VERTEX
  8
0
  5
273CA
 10
-5.00000
 20
60.5296
 30
-1.10000e-15
  70
    32
  0
VERTEX
  8
0
  5
273CB
 10
-5.00000
 20
60.6143
 30
-1.10000e-15
  70
    32
  0
VERTEX
  8
0
  5
273CC
 10
-5.00000
 20
60.6991
 30
-1.10000e-15
  70
    32
  0
VERTEX
  8
0
  5
273CD
 10
-5.00000
 20
60.7840
 30
-1.10000e-15
  70
    32
  0
VERTEX
  8
0
  5
273CE
 10
-5.00000
 20
60.8691
 30
-1.10000e-15
  70
    32
  0
VERTEX
  8
0
  5
273CF
 10
-5.00000
 20
60.9543
 30
-1.10000e-15
  70
    32
  0
VERTEX
  8
0
  5
273D0
 10
-5.00000
 20
61.0395
 30
-1.10000e-15
  70
    32
  0
VERTEX
  8
0
  5
273D1
 10
-5.00000
 20
61.1249
 30
-1.10000e-15
  70
    32
  0
VERTEX
  8
0
  5
273D2
 10
-5.00000
 20
61.2104
 30
-1.10000e-15
  70
    32
  0
VERTEX
  8
0
  5
273D3
 10
-5.00000
 20
61.2961
 30
-1.10000e-15
  70
    32
  0
VERTEX
  8
0
  5
273D4
 10
-5.00000
 20
61.3818
 30
-1.10000e-15
  70
    32
  0
VERTEX
  8
0
  5
273D5
 10
-5.00000
 20
61.4677
 30
-1.10000e-15
  70
    32
  0
VERTEX
  8
0
  5
273D6
 10
-5.00000
 20
61.5536
 30
-1.10000e-15
  70
    32
  0
VERTEX
  8
0
  5
273D7
 10
-5.00000
 20
61.6397
 30
-1.10000e-15
  70
    32
  0
VERTEX
  8
0
  5
273D8
 10
-5.00000
 20
61.7259
 30
-1.10000e-15
  70
    32
  0
VERTEX
  8
0
  5
273D9
 10
-5.00000
 20
61.8122
 30
-1.10000e-15
  70
    32
  0
VERTEX
  8
0
  5
273DA
 10
-5.00000
 20
61.8987
 30
-1.10000e-15
  70
    32
  0
VERTEX
  8
0
  5
273DB
 10
-5.00000
 20
61.9852
 30
-1.10000e-15
  70
    32
  0
VERTEX
  8
0
  5
273DC
 10
-5.00000
 20
62.0719
 30
-1.10000e-15
  70
    32
  0
VERTEX
  8
0
  5
273DD
 10
-5.00000
 20
62.1587
 30
-1.10000e-15
  70
    32
  0
VERTEX
  8
0
  5
273DE
 10
-5.00000
 20
62.2456
 30
-1.10000e-15
  70
    32
  0
VERTEX
  8
0
  5
273DF
 10
-5.00000
 20
62.3327
 30
-1.10000e-15
  70
    32
  0
VERTEX
  8
0
  5
273E0
 10
-5.00000
 20
62.4198
 30
-1.10000e-15
  70
    32
  0
VERTEX
  8
0
  5
273E1
 10
-5.00000
 20
62.5071
 30
-1.10000e-15
  70
    32
  0
VERTEX
  8
0
  5
273E2
 10
-5.00000
 20
62.5945
 30
-1.10000e-15
  70
    32
  0
VERTEX
  8
0
  5
273E3
 10
-5.00000
 20
62.6820
 30
-1.10000e-15
  70
    32
  0
VERTEX
  8
0
  5
273E4
 10
-5.00000
 20
62.7696
 30
-1.10000e-15
  70
    32
  0
VERTEX
  8
0
  5
273E5
 10
-5.00000
 20
62.8574
 30
-1.10000e-15
  70
    32
  0
VERTEX
  8
0
  5
273E6
 10
-5.00000
 20
62.9452
 30
-1.10000e-15
  70
    32
  0
VERTEX
  8
0
  5
273E7
 10
-5.00000
 20
63.0332
 30
-1.10000e-15
  70
    32
  0
VERTEX
  8
0
  5
273E8
 10
-5.00000
 20
63.1213
 30
-1.10000e-15
  70
    32
  0
VERTEX
  8
0
  5
273E9
 10
-5.00000
 20
63.2095
 30
-1.10000e-15
  70
    32
  0
VERTEX
  8
0
  5
273EA
 10
-5.00000
 20
63.2979
 30
-1.10000e-15
  70
    32
  0
VERTEX
  8
0
  5
273EB
 10
-5.00000
 20
63.3864
 30
-1.10000e-15
  70
    32
  0
VERTEX
  8
0
  5
273EC
 10
-5.00000
 20
63.4750
 30
-1.10000e-15
  70
    32
  0
VERTEX
  8
0
  5
273ED
 10
-5.00000
 20
63.5637
 30
-1.10000e-15
  70
    32
  0
VERTEX
  8
0
  5
273EE
 10
-5.00000
 20
63.6525
 30
-1.10000e-15
  70
    32
  0
VERTEX
  8
0
  5
273EF
 10
-5.00000
 20
63.7415
 30
-1.10000e-15
  70
    32
  0
VERTEX
  8
0
  5
273F0
 10
-5.00000
 20
63.8306
 30
-1.10000e-15
  70
    32
  0
VERTEX
  8
0
  5
273F1
 10
-5.00000
 20
63.9198
 30
-1.10000e-15
  70
    32
  0
VERTEX
  8
0
  5
273F2
 10
-5.00000
 20
64.0091
 30
-1.10000e-15
  70
    32
  0
VERTEX
  8
0
  5
273F3
 10
-5.00000
 20
64.0986
 30
-1.10000e-15
  70
    32
  0
VERTEX
  8
0
  5
273F4
 10
-5.00000
 20
64.1882
 30
-1.10000e-15
  70
    32
  0
VERTEX
  8
0
  5
273F5
 10
-5.00000
 20
64.2779
 30
-1.10000e-15
  70
    32
  0
VERTEX
  8
0
  5
273F6
 10
-5.00000
 20
64.3677
 30
-1.10000e-15
  70
    32
  0
VERTEX
  8
0
  5
273F7
 10
-5.00000
 20
64.4576
 30
-1.10000e-15
  70
    32
  0
VERTEX
  8
0
  5
273F8
 10
-5.00000
 20
64.5477
 30
-1.10000e-15
  70
    32
  0
VERTEX
  8
0
  5
273F9
 10
-5.00000
 20
64.6379
 30
-1.10000e-15
  70
    32
  0
VERTEX
  8
0
  5
273FA
 10
-5.00000
 20
64.7283
 30
-1.10000e-15
  70
    32
  0
VERTEX
  8
0
  5
273FB
 10
-5.00000
 20
64.8187
 30
-1.10000e-15
  70
    32
  0
VERTEX
  8
0
  5
273FC
 10
-5.00000
 20
64.9093
 30
-1.10000e-15
  70
    32
  0
VERTEX
  8
0
  5
273FD
 10
-5.00000
 20
65.0000
 30
-1.10000e-15
  70
    32
  0
SEQEND
  8
0
  5
273FE
  0
POLYLINE
  8
0
  5
273FF
  62
3
  66
     1
 10
0.000000
 20
0.000000
 30
0.000000
  70
     8
  0
VERTEX
  8
0
  5
27400
 10
-5.00000
 20
65.0000
 30
-1.10000e-15
  70
    32
  0
VERTEX
  8
0
  5
27401
 10
-4.89444
 20
65.0000
 30
-1.07678e-15
  70
    32
  0
VERTEX
  8
0
  5
27402
 10
-4.78889
 20
65.0000
 30
-1.05356e-15
  70
    32
  0
VERTEX
  8
0
  5
27403
 10
-4.68336
 20
65.0000
 30
-1.03034e-15
  70
    32
  0
VERTEX
  8
0
  5
27404
 10
-4.57786
 20
65.0000
 30
-1.00713e-15
  70
    32
  0
VERTEX
  8
0
  5
27405
 10
-4.47237
 20
65.0000
 30
-9.83921e-16
  70
    32
  0
VERTEX
  8
0
  5
27406
 10
-4.36689
 20
65.0000
 30
-9.60717e-16
  70
    32
  0
VERTEX
  8
0
  5
27407
 10
-4.26144
 20
65.0000
 30
-9.37517e-16
  70
    32
  0
VERTEX
  8
0
  5
27408
 10
-4.15600
 20
65.0000
 30
-9.14320e-16
  70
    32
  0
VERTEX
  8
0
  5
27409
 10
-4.05058
 20
65.0000
 30
-8.91127e-16
  70
    32
  0
VERTEX
  8
0
  5
2740A
 10
-3.94517
 20
65.0000
 30
-8.67938e-16
  70
    32
  0
VERTEX
  8
0
  5
2740B
 10
-3.83978
 20
65.0000
 30
-8.44752e-16
  70
    32
  0
VERTEX
  8
0
  5
2740C
 10
-3.73441
 20
65.0000
 30
-8.21570e-16
  70
    32
  0
VERTEX
  8
0
  5
2740D
 10
-3.62905
 20
65.0000
 30
-7.98390e-16
  70
    32
  0
VERTEX
  8
0
  5
2740E
 10
-3.52370
 20
65.0000
 30
-7.75214e-16
  70
    32
  0
VERTEX
  8
0
  5
2740F
 10
-3.41837
 20
65.0000
 30
-7.52041e-16
  70
    32
  0
VERTEX
  8
0
  5
27410
 10
-3.31305
 20
65.0000
 30
-7.28871e-16
  70
    32
  0
VERTEX
  8
0
  5
27411
 10
-3.20774
 20
65.0000
 30
-7.05703e-16
  70
    32
  0
VERTEX
  8
0
  5
27412
 10
-3.10245
 20
65.0000
 30
-6.82539e-16
  70
    32
  0
VERTEX
  8
0
  5
27413
 10
-2.99717
 20
65.0000
 30
-6.59377e-16
  70
    32
  0
VERTEX
  8
0
  5
27414
 10
-2.89190
 20
65.0000
 30
-6.36217e-16
  70
    32
  0
VERTEX
  8
0
  5
27415
 10
-2.78664
 20
65.0000
 30
-6.13061e-16
  70
    32
  0
VERTEX
  8
0
  5
27416
 10
-2.68139
 20
65.0000
 30
-5.89906e-16
  70
    32
  0
VERTEX
  8
0
  5
27417
 10
-2.57615
 20
65.0000
 30
-5.66754e-16
  70
    32
  0
VERTEX
  8
0
  5
27418
 10
-2.47093
 20
65.0000
 30
-5.43604e-16
  70
    32
  0
VERTEX
  8
0
  5
27419
 10
-2.36571
 20
65.0000
 30
-5.20456e-16
  70
    32
  0
VERTEX
  8
0
  5
2741A
 10
-2.26050
 20
65.0000
 30
-4.97311e-16
  70
    32
  0
VERTEX
  8
0
  5
2741B
 10
-2.15530
 20
65.0000
 30
-4.74167e-16
  70
    32
  0
VERTEX
  8
0
  5
2741C
 10
-2.05011
 20
65.0000
 30
-4.51025e-16
  70
    32
  0
VERTEX
  8
0
  5
2741D
 10
-1.94493
 20
65.0000
 30
-4.27885e-16
  70
    32
  0
VERTEX
  8
0
  5
2741E
 10
-1.83976
 20
65.0000
 30
-4.04746e-16
  70
    32
  0
VERTEX
  8
0
  5
2741F
 10
-1.73459
 20
65.0000
 30
-3.81610e-16
  70
    32
  0
VERTEX
  8
0
  5
27420
 10
-1.62943
 20
65.0000
 30
-3.58474e-16
  70
    32
  0
VERTEX
  8
0
  5
27421
 10
-1.52427
 20
65.0000
 30
-3.35340e-16
  70
    32
  0
VERTEX
  8
0
  5
27422
 10
-1.41913
 20
65.0000
 30
-3.12208e-16
  70
    32
  0
VERTEX
  8
0
  5
27423
 10
-1.31398
 20
65.0000
 30
-2.89076e-16
  70
    32
  0
VERTEX
  8
0
  5
27424
 10
-1.20885
 20
65.0000
 30
-2.65946e-16
  70
    32
  0
VERTEX
  8
0
  5
27425
 10
-1.10371
 20
65.0000
 30
-2.42817e-16
  70
    32
  0
VERTEX
  8
0
  5
27426
 10
-0.998584
 20
65.0000
 30
-2.19688e-16
  70
    32
  0
VERTEX
  8
0
  5
27427
 10
-0.893459
 20
65.0000
 30
-1.96561e-16
  70
    32
  0
VERTEX
  8
0
  5
27428
 10
-0.788338
 20
65.0000
 30
-1.73434e-16
  70
    32
  0
VERTEX
  8
0
  5
27429
 10
-0.683220
 20
65.0000
 30
-1.50308e-16
  70
    32
  0
VERTEX
  8
0
  5
2742A
 10
-0.578105
 20
65.0000
 30
-1.27183e-16
  70
    32
  0
VERTEX
  8
0
  5
2742B
 10
-0.472992
 20
65.0000
 30
-1.04058e-16
  70
    32
  0
VERTEX
  8
0
  5
2742C
 10
-0.367881
 20
65.0000
 30
-8.09337e-17
  70
    32
  0
VERTEX
  8
0
  5
2742D
 10
-0.262771
 20
65.0000
 30
-5.78096e-17
  70
    32
  0
VERTEX
  8
0
  5
2742E
 10
-0.157662
 20
65.0000
 30
-3.46857e-17
  70
    32
  0
VERTEX
  8
0
  5
2742F
 10
-0.0525540
 20
65.0000
 30
-1.15619e-17
  70
    32
  0
VERTEX
  8
0
  5
27430
 10
0.0525540
 20
65.0000
 30
1.15619e-17
  70
    32
  0
VERTEX
  8
0
  5
27431
 10
0.157662
 20
65.0000
 30
3.46857e-17
  70
    32
  0
VERTEX
  8
0
  5
27432
 10
0.262771
 20
65.0000
 30
5.78096e-17
  70
    32
  0
VERTEX
  8
0
  5
27433
 10
0.367881
 20
65.0000
 30
8.09337e-17
  70
    32
  0
VERTEX
  8
0
  5
27434
 10
0.472992
 20
65.0000
 30
1.04058e-16
  70
    32
  0
VERTEX
  8
0
  5
27435
 10
0.578105
 20
65.0000
 30
1.27183e-16
  70
    32
  0
VERTEX
  8
0
  5
27436
 10
0.683220
 20
65.0000
 30
1.50308e-16
  70
    32
  0
VERTEX
  8
0
  5
27437
 10
0.788338
 20
65.0000
 30
1.73434e-16
  70
    32
  0
VERTEX
  8
0
  5
27438
 10
0.893459
 20
65.0000
 30
1.96561e-16
  70
    32
  0
VERTEX
  8
0
  5
27439
 10
0.998584
 20
65.0000
 30
2.19688e-16
  70
    32
  0
VERTEX
  8
0
  5
2743A
 10
1.10371
 20
65.0000
 30
2.42817e-16
  70
    32
  0
VERTEX
  8
0
  5
2743B
 10
1.20885
 20
65.0000
 30
2.65946e-16
  70
    32
  0
VERTEX
  8
0
  5
2743C
 10
1.31398
 20
65.0000
 30
2.89076e-16
  70
    32
  0
VERTEX
  8
0
  5
2743D
 10
1.41913
 20
65.0000
 30
3.12208e-16
  70
    32
  0
VERTEX
  8
0
  5
2743E
 10
1.52427
 20
65.0000
 30
3.35340e-16
  70
    32
  0
VERTEX
  8
0
  5
2743F
 10
1.62943
 20
65.0000
 30
3.58474e-16
  70
    32
  0
VERTEX
  8
0
  5
27440
 10
1.73459
 20
65.0000
 30
3.81610e-16
  70
    32
  0
VERTEX
  8
0
  5
27441
 10
1.83976
 20
65.0000
 30
4.04746e-16
  70
    32
  0
VERTEX
  8
0
  5
27442
 10
1.94493
 20
65.0000
 30
4.27885e-16
  70
    32
  0
VERTEX
  8
0
  5
27443
 10
2.05011
 20
65.0000
 30
4.51025e-16
  70
    32
  0
VERTEX
  8
0
  5
27444
 10
2.15530
 20
65.0000
 30
4.74167e-16
  70
    32
  0
VERTEX
  8
0
  5
27445
 10
2.26050
 20
65.0000
 30
4.97311e-16
  70
    32
  0
VERTEX
  8
0
  5
27446
 10
2.36571
 20
65.0000
 30
5.20456e-16
  70
    32
  0
VERTEX
  8
0
  5
27447
 10
2.47093
 20
65.0000
 30
5.43604e-16
  70
    32
  0
VERTEX
  8
0
  5
27448
 10
2.57615
 20
65.0000
 30
5.66754e-16
  70
    32
  0
VERTEX
  8
0
  5
27449
 10
2.68139
 20
65.0000
 30
5.89906e-16
  70
    32
  0
VERTEX
  8
0
  5
2744A
 10
2.78664
 20
65.0000
 30
6.13061e-16
  70
    32
  0
VERTEX
  8
0
  5
2744B
 10
2.89190
 20
65.0000
 30
6.36217e-16
  70
    32
  0
VERTEX
  8
0
  5
2744C
 10
2.99717
 20
65.0000
 30
6.59377e-16
  70
    32
  0
VERTEX
  8
0
  5
2744D
 10
3.10245
 20
65.0000
 30
6.82539e-16
  70
    32
  0
VERTEX
  8
0
  5
2744E
 10
3.20774
 20
65.0000
 30
7.05703e-16
  70
    32
  0
VERTEX
  8
0
  5
2744F
 10
3.31305
 20
65.0000
 30
7.28871e-16
  70
    32
  0
VERTEX
  8
0
  5
27450
 10
3.41837
 20
65.0000
 30
7.52041e-16
  70
    32
  0
VERTEX
  8
0
  5
27451
 10
3.52370
 20
65.0000
 30
7.75214e-16
  70
    32
  0
VERTEX
  8
0
  5
27452
 10
3.62905
 20
65.0000
 30
7.98390e-16
  70
    32
  0
VERTEX
  8
0
  5
27453
 10
3.73441
 20
65.0000
 30
8.21570e-16
  70
    32
  0
VERTEX
  8
0
  5
27454
 10
3.83978
 20
65.0000
 30
8.44752e-16
  70
    32
  0
VERTEX
  8
0
  5
27455
 10
3.94517
 20
65.0000
 30
8.67938e-16
  70
    32
  0
VERTEX
  8
0
  5
27456
 10
4.05058
 20
65.0000
 30
8.91127e-16
  70
    32
  0
VERTEX
  8
0
  5
27457
 10
4.15600
 20
65.0000
 30
9.14320e-16
  70
    32
  0
VERTEX
  8
0
  5
27458
 10
4.26144
 20
65.0000
 30
9.37517e-16
  70
    32
  0
VERTEX
  8
0
  5
27459
 10
4.36689
 20
65.0000
 30
9.60717e-16
  70
    32
  0
VERTEX
  8
0
  5
2745A
 10
4.47237
 20
65.0000
 30
9.83921e-16
  70
    32
  0
VERTEX
  8
0
  5
2745B
 10
4.57786
 20
65.0000
 30
1.00713e-15
  70
    32
  0
VERTEX
  8
0
  5
2745C
 10
4.68336
 20
65.0000
 30
1.03034e-15
  70
    32
  0
VERTEX
  8
0
  5
2745D
 10
4.78889
 20
65.0000
 30
1.05356e-15
  70
    32
  0
VERTEX
  8
0
  5
2745E
 10
4.89444
 20
65.0000
 30
1.07678e-15
  70
    32
  0
VERTEX
  8
0
  5
2745F
 10
5.00000
 20
65.0000
 30
1.10000e-15
  70
    32
  0
SEQEND
  8
0
  5
27460
  0
CIRCLE
  5
26FFF
  8
0
  6
CONTINUOUS
 62
     3
 10
0.0000000000000648
 20
0.0
 30
0.0
 40
76.0000000000000142
  0
POLYLINE
  8
0
  5
27461
  62
3
  66
     1
 10
0.000000
 20
0.000000
 30
0.000000
  70
     8
  0
VERTEX
  8
0
  5
27462
 10
-5.00000
 20
50.7543
 30
-1.10000e-15
  70
    32
  0
VERTEX
  8
0
  5
27463
 10
-5.00000
 20
50.7951
 30
-1.10000e-15
  70
    32
  0
VERTEX
  8
0
  5
27464
 10
-5.00000
 20
50.8358
 30
-1.10000e-15
  70
    32
  0
VERTEX
  8
0
  5
27465
 10
-5.00000
 20
50.8766
 30
-1.10000e-15
  70
    32
  0
VERTEX
  8
0
  5
27466
 10
-5.00000
 20
50.9175
 30
-1.10000e-15
  70
    32
  0
VERTEX
  8
0
  5
27467
 10
-5.00000
 20
50.9583
 30
-1.10000e-15
  70
    32
  0
VERTEX
  8
0
  5
27468
 10
-5.00000
 20
50.9992
 30
-1.10000e-15
  70
    32
  0
VERTEX
  8
0
  5
27469
 10
-5.00000
 20
51.0402
 30
-1.10000e-15
  70
    32
  0
VERTEX
  8
0
  5
2746A
 10
-5.00000
 20
51.0811
 30
-1.10000e-15
  70
    32
  0
VERTEX
  8
0
  5
2746B
 10
-5.00000
 20
51.1221
 30
-1.10000e-15
  70
    32
  0
VERTEX
  8
0
  5
2746C
 10
-5.00000
 20
51.1632
 30
-1.10000e-15
  70
    32
  0
VERTEX
  8
0
  5
2746D
 10
-5.00000
 20
51.2042
 30
-1.10000e-15
  70
    32
  0
VERTEX
  8
0
  5
2746E
 10
-5.00000
 20
51.2453
 30
-1.10000e-15
  70
    32
  0
VERTEX
  8
0
  5
2746F
 10
-5.00000
 20
51.2865
 30
-1.10000e-15
  70
    32
  0
VERTEX
  8
0
  5
27470
 10
-5.00000
 20
51.3276
 30
-1.10000e-15
  70
    32
  0
VERTEX
  8
0
  5
27471
 10
-5.00000
 20
51.3688
 30
-1.10000e-15
  70
    32
  0
VERTEX
  8
0
  5
27472
 10
-5.00000
 20
51.4100
 30
-1.10000e-15
  70
    32
  0
VERTEX
  8
0
  5
27473
 10
-5.00000
 20
51.4513
 30
-1.10000e-15
  70
    32
  0
VERTEX
  8
0
  5
27474
 10
-5.00000
 20
51.4926
 30
-1.10000e-15
  70
    32
  0
VERTEX
  8
0
  5
27475
 10
-5.00000
 20
51.5339
 30
-1.10000e-15
  70
    32
  0
VERTEX
  8
0
  5
27476
 10
-5.00000
 20
51.5753
 30
-1.10000e-15
  70
    32
  0
VERTEX
  8
0
  5
27477
 10
-5.00000
 20
51.6166
 30
-1.10000e-15
  70
    32
  0
VERTEX
  8
0
  5
27478
 10
-5.00000
 20
51.6581
 30
-1.10000e-15
  70
    32
  0
VERTEX
  8
0
  5
27479
 10
-5.00000
 20
51.6995
 30
-1.10000e-15
  70
    32
  0
VERTEX
  8
0
  5
2747A
 10
-5.00000
 20
51.7410
 30
-1.10000e-15
  70
    32
  0
VERTEX
  8
0
  5
2747B
 10
-5.00000
 20
51.7825
 30
-1.10000e-15
  70
    32
  0
VERTEX
  8
0
  5
2747C
 10
-5.00000
 20
51.8241
 30
-1.10000e-15
  70
    32
  0
VERTEX
  8
0
  5
2747D
 10
-5.00000
 20
51.8656
 30
-1.10000e-15
  70
    32
  0
VERTEX
  8
0
  5
2747E
 10
-5.00000
 20
51.9073
 30
-1.10000e-15
  70
    32
  0
VERTEX
  8
0
  5
2747F
 10
-5.00000
 20
51.9489
 30
-1.10000e-15
  70
    32
  0
VERTEX
  8
0
  5
27480
 10
-5.00000
 20
51.9906
 30
-1.10000e-15
  70
    32
  0
VERTEX
  8
0
  5
27481
 10
-5.00000
 20
52.0323
 30
-1.10000e-15
  70
    32
  0
VERTEX
  8
0
  5
27482
 10
-5.00000
 20
52.0741
 30
-1.10000e-15
  70
    32
  0
VERTEX
  8
0
  5
27483
 10
-5.00000
 20
52.1158
 30
-1.10000e-15
  70
    32
  0
VERTEX
  8
0
  5
27484
 10
-5.00000
 20
52.1576
 30
-1.10000e-15
  70
    32
  0
VERTEX
  8
0
  5
27485
 10
-5.00000
 20
52.1995
 30
-1.10000e-15
  70
    32
  0
VERTEX
  8
0
  5
27486
 10
-5.00000
 20
52.2414
 30
-1.10000e-15
  70
    32
  0
VERTEX
  8
0
  5
27487
 10
-5.00000
 20
52.2833
 30
-1.10000e-15
  70
    32
  0
VERTEX
  8
0
  5
27488
 10
-5.00000
 20
52.3252
 30
-1.10000e-15
  70
    32
  0
VERTEX
  8
0
  5
27489
 10
-5.00000
 20
52.3672
 30
-1.10000e-15
  70
    32
  0
VERTEX
  8
0
  5
2748A
 10
-5.00000
 20
52.4092
 30
-1.10000e-15
  70
    32
  0
VERTEX
  8
0
  5
2748B
 10
-5.00000
 20
52.4513
 30
-1.10000e-15
  70
    32
  0
VERTEX
  8
0
  5
2748C
 10
-5.00000
 20
52.4933
 30
-1.10000e-15
  70
    32
  0
VERTEX
  8
0
  5
2748D
 10
-5.00000
 20
52.5354
 30
-1.10000e-15
  70
    32
  0
VERTEX
  8
0
  5
2748E
 10
-5.00000
 20
52.5776
 30
-1.10000e-15
  70
    32
  0
VERTEX
  8
0
  5
2748F
 10
-5.00000
 20
52.6198
 30
-1.10000e-15
  70
    32
  0
VERTEX
  8
0
  5
27490
 10
-5.00000
 20
52.6620
 30
-1.10000e-15
  70
    32
  0
VERTEX
  8
0
  5
27491
 10
-5.00000
 20
52.7042
 30
-1.10000e-15
  70
    32
  0
VERTEX
  8
0
  5
27492
 10
-5.00000
 20
52.7465
 30
-1.10000e-15
  70
    32
  0
VERTEX
  8
0
  5
27493
 10
-5.00000
 20
52.7888
 30
-1.10000e-15
  70
    32
  0
VERTEX
  8
0
  5
27494
 10
-5.00000
 20
52.8312
 30
-1.10000e-15
  70
    32
  0
VERTEX
  8
0
  5
27495
 10
-5.00000
 20
52.8735
 30
-1.10000e-15
  70
    32
  0
VERTEX
  8
0
  5
27496
 10
-5.00000
 20
52.9160
 30
-1.10000e-15
  70
    32
  0
VERTEX
  8
0
  5
27497
 10
-5.00000
 20
52.9584
 30
-1.10000e-15
  70
    32
  0
VERTEX
  8
0
  5
27498
 10
-5.00000
 20
53.0009
 30
-1.10000e-15
  70
    32
  0
VERTEX
  8
0
  5
27499
 10
-5.00000
 20
53.0434
 30
-1.10000e-15
  70
    32
  0
VERTEX
  8
0
  5
2749A
 10
-5.00000
 20
53.0860
 30
-1.10000e-15
  70
    32
  0
VERTEX
  8
0
  5
2749B
 10
-5.00000
 20
53.1285
 30
-1.10000e-15
  70
    32
  0
VERTEX
  8
0
  5
2749C
 10
-5.00000
 20
53.1712
 30
-1.10000e-15
  70
    32
  0
VERTEX
  8
0
  5
2749D
 10
-5.00000
 20
53.2138
 30
-1.10000e-15
  70
    32
  0
VERTEX
  8
0
  5
2749E
 10
-5.00000
 20
53.2565
 30
-1.10000e-15
  70
    32
  0
VERTEX
  8
0
  5
2749F
 10
-5.00000
 20
53.2992
 30
-1.10000e-15
  70
    32
  0
VERTEX
  8
0
  5
274A0
 10
-5.00000
 20
53.3420
 30
-1.10000e-15
  70
    32
  0
VERTEX
  8
0
  5
274A1
 10
-5.00000
 20
53.3847
 30
-1.10000e-15
  70
    32
  0
VERTEX
  8
0
  5
274A2
 10
-5.00000
 20
53.4276
 30
-1.10000e-15
  70
    32
  0
VERTEX
  8
0
  5
274A3
 10
-5.00000
 20
53.4704
 30
-1.10000e-15
  70
    32
  0
VERTEX
  8
0
  5
274A4
 10
-5.00000
 20
53.5133
 30
-1.10000e-15
  70
    32
  0
VERTEX
  8
0
  5
274A5
 10
-5.00000
 20
53.5562
 30
-1.10000e-15
  70
    32
  0
VERTEX
  8
0
  5
274A6
 10
-5.00000
 20
53.5992
 30
-1.10000e-15
  70
    32
  0
VERTEX
  8
0
  5
274A7
 10
-5.00000
 20
53.6422
 30
-1.10000e-15
  70
    32
  0
VERTEX
  8
0
  5
274A8
 10
-5.00000
 20
53.6852
 30
-1.10000e-15
  70
    32
  0
VERTEX
  8
0
  5
274A9
 10
-5.00000
 20
53.7283
 30
-1.10000e-15
  70
    32
  0
VERTEX
  8
0
  5
274AA
 10
-5.00000
 20
53.7714
 30
-1.10000e-15
  70
    32
  0
VERTEX
  8
0
  5
274AB
 10
-5.00000
 20
53.8145
 30
-1.10000e-15
  70
    32
  0
VERTEX
  8
0
  5
274AC
 10
-5.00000
 20
53.8577
 30
-1.10000e-15
  70
    32
  0
VERTEX
  8
0
  5
274AD
 10
-5.00000
 20
53.9009
 30
-1.10000e-15
  70
    32
  0
VERTEX
  8
0
  5
274AE
 10
-5.00000
 20
53.9441
 30
-1.10000e-15
  70
    32
  0
VERTEX
  8
0
  5
274AF
 10
-5.00000
 20
53.9874
 30
-1.10000e-15
  70
    32
  0
VERTEX
  8
0
  5
274B0
 10
-5.00000
 20
54.0307
 30
-1.10000e-15
  70
    32
  0
VERTEX
  8
0
  5
274B1
 10
-5.00000
 20
54.0740
 30
-1.10000e-15
  70
    32
  0
VERTEX
  8
0
  5
274B2
 10
-5.00000
 20
54.1174
 30
-1.10000e-15
  70
    32
  0
VERTEX
  8
0
  5
274B3
 10
-5.00000
 20
54.1608
 30
-1.10000e-15
  70
    32
  0
VERTEX
  8
0
  5
274B4
 10
-5.00000
 20
54.2043
 30
-1.10000e-15
  70
    32
  0
VERTEX
  8
0
  5
274B5
 10
-5.00000
 20
54.2477
 30
-1.10000e-15
  70
    32
  0
VERTEX
  8
0
  5
274B6
 10
-5.00000
 20
54.2913
 30
-1.10000e-15
  70
    32
  0
VERTEX
  8
0
  5
274B7
 10
-5.00000
 20
54.3348
 30
-1.10000e-15
  70
    32
  0
VERTEX
  8
0
  5
274B8
 10
-5.00000
 20
54.3784
 30
-1.10000e-15
  70
    32
  0
VERTEX
  8
0
  5
274B9
 10
-5.00000
 20
54.4220
 30
-1.10000e-15
  70
    32
  0
VERTEX
  8
0
  5
274BA
 10
-5.00000
 20
54.4657
 30
-1.10000e-15
  70
    32
  0
VERTEX
  8
0
  5
274BB
 10
-5.00000
 20
54.5094
 30
-1.10000e-15
  70
    32
  0
VERTEX
  8
0
  5
274BC
 10
-5.00000
 20
54.5531
 30
-1.10000e-15
  70
    32
  0
VERTEX
  8
0
  5
274BD
 10
-5.00000
 20
54.5969
 30
-1.10000e-15
  70
    32
  0
VERTEX
  8
0
  5
274BE
 10
-5.00000
 20
54.6407
 30
-1.10000e-15
  70
    32
  0
VERTEX
  8
0
  5
274BF
 10
-5.00000
 20
54.6845
 30
-1.10000e-15
  70
    32
  0
VERTEX
  8
0
  5
274C0
 10
-5.00000
 20
54.7284
 30
-1.10000e-15
  70
    32
  0
VERTEX
  8
0
  5
274C1
 10
-5.00000
 20
54.7723
 30
-1.10000e-15
  70
    32
  0
SEQEND
  8
0
  5
274C2
  0
ARC
  5
27001
  8
0
  6
CONTINUOUS
 62
     3
 10
0.0000000000001071
 20
-0.0000000000000004
 30
0.0
 40
51.0
 50
95.626270946105663
 51
84.3737290538944649
  0
CIRCLE
  5
27002
  8
0
  6
CONTINUOUS
 62
     3
 10
0.0000000000000758
 20
0.0
 30
0.0
 40
105.5
  0
CIRCLE
  5
27003
  8
0
  6
CONTINUOUS
 62
     3
 10
0.0000000000000758
 20
0.0
 30
0.0
 40
93.9999999999999858
  0
CIRCLE
  5
27004
  8
0
  6
VERDECKT
 62
     1
 10
0.0000000000000333
 20
0.0
 30
0.0
 40
104.75
  0
ARC
  5
27005
  8
0
  6
VERDECKT
 62
     1
 10
-0.0000000000000064
 20
0.0000000000000014
 30
0.0
 40
53.763343707698283
 50
95.3362282588320653
 51
84.6637717411679489
  0
ARC
  5
27006
  8
0
  6
VERDECKT
 62
     1
 10
0.0000000000000268
 20
0.0000000000000046
 30
0.0
 40
86.0
 50
94.974087840757818
 51
85.0259121592421394
  0
ARC
  5
27007
  8
0
  6
VERDECKT
 62
     1
 10
0.0000000000000271
 20
0.0000000000000032
 30
0.0
 40
84.0
 50
94.9740878407578322
 51
85.0259121592421678
  0
ARC
  5
27008
  8
0
  6
VERDECKT
 62
     1
 10
-7.4999999999999689
 20
86.174242091242121
 30
0.0
 40
0.5000000000000046
 50
274.9740878407578748
 51
359.9999999999984084
  0
ARC
  5
27009
  8
0
  6
VERDECKT
 62
     1
 10
-7.499999999999944
 20
86.1742420912421068
 30
0.0
 40
2.4999999999999938
 50
274.9740878407574769
 51
0.0
  0
LINE
  5
2700A
  8
0
  6
VERDECKT
 62
     1
 10
-6.9999999999999529
 20
91.1921049214239758
 30
0.0
 11
-6.9999999999999547
 21
86.174242091242121
 31
0.0
  0
LINE
  5
2700B
  8
0
  6
VERDECKT
 62
     1
 10
-4.9999999999999574
 20
86.174242091242121
 30
0.0
 11
-4.9999999999999547
 21
91.1921049214239758
 31
0.0
  0
ARC
  5
2700C
  8
0
  6
VERDECKT
 62
     1
 10
-7.4999999999999396
 20
91.1921049214240043
 30
0.0
 40
0.4999999999999872
 50
359.9999999999984084
 51
94.7016501967497959
  0
ARC
  5
2700D
  8
0
  6
VERDECKT
 62
     1
 10
-7.4999999999999591
 20
91.1921049214239758
 30
0.0
 40
2.5000000000000009
 50
0.0000000000000105
 51
94.7016501967475222
  0
ARC
  5
2700E
  8
0
  6
VERDECKT
 62
     1
 10
0.0000000000000117
 20
-0.000000000000003
 30
0.0
 40
92.0000000000000142
 50
94.7016501967479343
 51
85.2983498032520799
  0
ARC
  5
2700F
  8
0
  6
VERDECKT
 62
     1
 10
7.5000000000000409
 20
91.1921049214240043
 30
0.0
 40
0.4999999999999974
 50
85.2983498032537284
 51
180.0000000000015916
  0
ARC
  5
27010
  8
0
  6
VERDECKT
 62
     1
 10
7.5000000000000417
 20
91.1921049214239758
 30
0.0
 40
2.5
 50
85.2983498032520941
 51
180.0
  0
LINE
  5
27011
  8
0
  6
VERDECKT
 62
     1
 10
7.0000000000000453
 20
86.1742420912421068
 30
0.0
 11
7.0000000000000462
 21
91.1921049214239758
 31
0.0
  0
LINE
  5
27012
  8
0
  6
VERDECKT
 62
     1
 10
5.0000000000000444
 20
91.1921049214239758
 30
0.0
 11
5.0000000000000426
 21
86.1742420912421068
 31
0.0
  0
ARC
  5
27013
  8
0
  6
VERDECKT
 62
     1
 10
7.5000000000000577
 20
86.174242091242121
 30
0.0
 40
0.5000000000000079
 50
180.0000000000015916
 51
265.0259121592421252
  0
ARC
  5
27014
  8
0
  6
VERDECKT
 62
     1
 10
7.5000000000000302
 20
86.1742420912421068
 30
0.0
 40
2.4999999999999858
 50
180.0
 51
265.0259121592425231
  0
ARC
  5
27015
  8
0
  6
VERDECKT
 62
     1
 10
0.000000000000036
 20
0.0000000000000032
 30
0.0
 40
84.0
 50
94.974087840757818
 51
85.0259121592421394
  0
ARC
  5
27016
  8
0
  6
VERDECKT
 62
     1
 10
0.0000000000000388
 20
0.0000000000000046
 30
0.0
 40
85.9999999999999858
 50
94.9740878407578322
 51
85.0259121592421678
  0
ARC
  5
27017
  8
0
  6
VERDECKT
 62
     1
 10
-7.4999999999999369
 20
86.1742420912420926
 30
0.0
 40
2.4999999999999751
 50
274.9740878407575906
 51
0.0
  0
ARC
  5
27018
  8
0
  6
VERDECKT
 62
     1
 10
-7.4999999999999361
 20
86.1742420912420926
 30
0.0
 40
0.4999999999999777
 50
274.9740878407554874
 51
0.0
  0
LINE
  5
27019
  8
0
  6
VERDECKT
 62
     1
 10
-4.999999999999944
 20
91.1921049214239758
 30
0.0
 11
-4.9999999999999449
 21
86.1742420912420926
 31
0.0
  0
LINE
  5
2701A
  8
0
  6
VERDECKT
 62
     1
 10
-6.999999999999944
 20
86.1742420912420926
 30
0.0
 11
-6.999999999999944
 21
91.1921049214239758
 31
0.0
  0
ARC
  5
2701B
  8
0
  6
VERDECKT
 62
     1
 10
-7.4999999999999458
 20
91.1921049214239758
 30
0.0
 40
2.5000000000000151
 50
0.0000000000003053
 51
94.7016501967478916
  0
ARC
  5
2701C
  8
0
  6
VERDECKT
 62
     1
 10
-7.4999999999999307
 20
91.1921049214240043
 30
0.0
 40
0.4999999999999894
 50
359.9999999999984084
 51
94.7016501967497959
  0
ARC
  5
2701D
  8
0
  6
VERDECKT
 62
     1
 10
0.0000000000000539
 20
-0.000000000000003
 30
0.0
 40
92.0000000000000142
 50
94.7016501967478916
 51
85.2983498032520231
  0
ARC
  5
2701E
  8
0
  6
VERDECKT
 62
     1
 10
7.5000000000000506
 20
91.1921049214239758
 30
0.0
 40
2.5000000000000022
 50
85.2983498032520231
 51
179.9999999999996021
  0
ARC
  5
2701F
  8
0
  6
VERDECKT
 62
     1
 10
7.5000000000000524
 20
91.1921049214240043
 30
0.0
 40
0.4999999999999997
 50
85.2983498032527336
 51
180.0000000000015916
  0
LINE
  5
27020
  8
0
  6
VERDECKT
 62
     1
 10
5.0000000000000551
 20
86.1742420912420926
 30
0.0
 11
5.0000000000000551
 21
91.1921049214239758
 31
0.0
  0
LINE
  5
27021
  8
0
  6
VERDECKT
 62
     1
 10
7.0000000000000551
 20
91.1921049214239758
 30
0.0
 11
7.0000000000000551
 21
86.1742420912420926
 31
0.0
  0
ARC
  5
27022
  8
0
  6
VERDECKT
 62
     1
 10
7.50000000000004
 20
86.1742420912420641
 30
0.0
 40
2.4999999999999809
 50
179.9999999999996021
 51
265.0259121592425231
  0
ARC
  5
27023
  8
0
  6
VERDECKT
 62
     1
 10
7.5000000000000684
 20
86.1742420912421068
 30
0.0
 40
0.5000000000000018
 50
180.0000000000015916
 51
265.0259121592417841
  0
CIRCLE
  5
27024
  8
0
  6
VERDECKT
 62
     1
 10
0.0000000000000333
 20
0.0
 30
0.0
 40
104.75
  0
ENDBLK
  5
27026
  8
0
  0
BLOCK
  8
0
  2
A$C886D9F5F
 70
     0
 10
0.0
 20
0.0
 30
0.0
  3
A$C886D9F5F
  1

  0
LINE
  5
2702A
  8
0
  6
CONTINUOUS
 62
     3
 10
-104.75
 20
150.0
 30
-0.0000000000000333
 11
-0.0000000000000284
 21
150.0
 31
-0.0000000000000333
210
0.0
220
1.0
230
-0.0000000000000002
  0
LINE
  5
2702B
  8
0
  6
CONTINUOUS
 62
     3
 10
-0.0000000000000064
 20
150.0
 30
-0.0000000000000333
 11
104.75
 21
150.0
 31
-0.0000000000000333
210
0.0
220
1.0
230
-0.0000000000000002
  0
LINE
  5
2702C
  8
0
  6
CONTINUOUS
 62
     3
 10
99.0249375003905641
 20
-0.0000000000000061
 30
0.0
 11
0.0
 21
0.0
 31
0.0
210
0.0
220
1.0
230
-0.0000000000000002
  0
LINE
  5
2702D
  8
0
  6
CONTINUOUS
 62
     3
 10
-0.0000000000000203
 20
0.0
 30
0.0
 11
-99.0249375003905925
 21
0.0000000000000061
 31
0.0
210
0.0
220
1.0
230
-0.0000000000000002
  0
ARC
  5
2702E
  8
0
  6
CONTINUOUS
 62
     3
 10
99.0249375003906067
 20
5.0000000000000142
 30
0.0
 40
5.0000000000000071
210
0.0
220
-0.0000000000000002
230
-1.0
 50
270.0
 51
359.7135234897227178
  0
ARC
  5
2702F
  8
0
  6
CONTINUOUS
 62
     3
 10
-99.0249375003905783
 20
5.0
 30
0.0
 40
5.0000000000000062
210
0.0
220
-0.0000000000000002
230
-1.0
 50
180.2864765102771969
 51
270.0
  0
LINE
  5
27030
  8
0
  6
CONTINUOUS
 62
     3
 10
-104.0248750015624069
 20
4.9750003124941324
 30
-0.0000000000000011
 11
-104.75
 21
150.0
 31
-0.0000000000000333
210
0.0
220
1.0
230
-0.0000000000000002
  0
LINE
  5
27031
  8
0
  6
CONTINUOUS
 62
     3
 10
104.0248750015624069
 20
4.9750003124941324
 30
-0.0000000000000011
 11
104.75
 21
150.0
 31
-0.0000000000000333
210
0.0
220
1.0
230
-0.0000000000000002
  0
LINE
  5
27032
  8
0
  6
CONTINUOUS
 62
     3
 10
105.5
 20
300.0
 30
-0.0000000000000666
 11
0.0
 21
300.0
 31
-0.0000000000000666
210
0.0
220
1.0
230
-0.0000000000000002
  0
LINE
  5
27033
  8
0
  6
CONTINUOUS
 62
     3
 10
-0.0000000000000252
 20
300.0
 30
-0.0000000000000666
 11
-105.5
 21
300.0
 31
-0.0000000000000666
210
0.0
220
1.0
230
-0.0000000000000002
  0
LINE
  5
27034
  8
0
  6
CONTINUOUS
 62
     3
 10
-104.75
 20
150.0
 30
-0.0000000000000333
 11
-0.0000000000000142
 21
150.0
 31
-0.0000000000000333
210
0.0
220
1.0
230
-0.0000000000000002
  0
LINE
  5
27035
  8
0
  6
CONTINUOUS
 62
     3
 10
0.0000000000000103
 20
150.0
 30
-0.0000000000000333
 11
104.75
 21
150.0
 31
-0.0000000000000333
210
0.0
220
1.0
230
-0.0000000000000002
  0
LINE
  5
27036
  8
0
  6
CONTINUOUS
 62
     3
 10
-104.75
 20
150.0
 30
-0.0000000000000333
 11
-105.5
 21
300.0
 31
-0.0000000000000666
210
0.0
220
1.0
230
-0.0000000000000002
  0
LINE
  5
27037
  8
0
  6
CONTINUOUS
 62
     3
 10
104.75
 20
150.0
 30
-0.0000000000000333
 11
105.5
 21
300.0
 31
-0.0000000000000666
210
0.0
220
1.0
230
-0.0000000000000002
  0
POLYLINE
  8
0
  5
274C3
  62
1
  66
     1
 10
0.000000
 20
0.000000
 30
0.000000
  70
     8
  0
VERTEX
  8
0
  5
274C4
 10
5.00000
 20
150.000
 30
-3.33000e-14
  70
    32
  0
VERTEX
  8
0
  5
274C5
 10
5.00000
 20
148.491
 30
-3.29653e-14
  70
    32
  0
VERTEX
  8
0
  5
274C6
 10
5.00000
 20
146.983
 30
-3.26306e-14
  70
    32
  0
VERTEX
  8
0
  5
274C7
 10
5.00000
 20
145.475
 30
-3.22960e-14
  70
    32
  0
VERTEX
  8
0
  5
274C8
 10
5.00000
 20
143.968
 30
-3.19615e-14
  70
    32
  0
VERTEX
  8
0
  5
274C9
 10
5.00000
 20
142.460
 30
-3.16271e-14
  70
    32
  0
VERTEX
  8
0
  5
274CA
 10
5.00000
 20
140.953
 30
-3.12927e-14
  70
    32
  0
VERTEX
  8
0
  5
274CB
 10
5.00000
 20
139.447
 30
-3.09584e-14
  70
    32
  0
VERTEX
  8
0
  5
274CC
 10
5.00000
 20
137.941
 30
-3.06241e-14
  70
    32
  0
VERTEX
  8
0
  5
274CD
 10
5.00000
 20
136.435
 30
-3.02899e-14
  70
    32
  0
VERTEX
  8
0
  5
274CE
 10
5.00000
 20
134.930
 30
-2.99558e-14
  70
    32
  0
VERTEX
  8
0
  5
274CF
 10
5.00000
 20
133.425
 30
-2.96218e-14
  70
    32
  0
VERTEX
  8
0
  5
274D0
 10
5.00000
 20
131.920
 30
-2.92878e-14
  70
    32
  0
VERTEX
  8
0
  5
274D1
 10
5.00000
 20
130.416
 30
-2.89539e-14
  70
    32
  0
VERTEX
  8
0
  5
274D2
 10
5.00000
 20
128.912
 30
-2.86200e-14
  70
    32
  0
VERTEX
  8
0
  5
274D3
 10
5.00000
 20
127.408
 30
-2.82862e-14
  70
    32
  0
VERTEX
  8
0
  5
274D4
 10
5.00000
 20
125.905
 30
-2.79525e-14
  70
    32
  0
VERTEX
  8
0
  5
274D5
 10
5.00000
 20
124.402
 30
-2.76189e-14
  70
    32
  0
VERTEX
  8
0
  5
274D6
 10
5.00000
 20
122.900
 30
-2.72853e-14
  70
    32
  0
VERTEX
  8
0
  5
274D7
 10
5.00000
 20
121.398
 30
-2.69518e-14
  70
    32
  0
VERTEX
  8
0
  5
274D8
 10
5.00000
 20
119.896
 30
-2.66184e-14
  70
    32
  0
VERTEX
  8
0
  5
274D9
 10
5.00000
 20
118.395
 30
-2.62850e-14
  70
    32
  0
VERTEX
  8
0
  5
274DA
 10
5.00000
 20
116.894
 30
-2.59517e-14
  70
    32
  0
VERTEX
  8
0
  5
274DB
 10
5.00000
 20
115.393
 30
-2.56184e-14
  70
    32
  0
VERTEX
  8
0
  5
274DC
 10
5.00000
 20
113.893
 30
-2.52853e-14
  70
    32
  0
VERTEX
  8
0
  5
274DD
 10
5.00000
 20
112.393
 30
-2.49522e-14
  70
    32
  0
VERTEX
  8
0
  5
274DE
 10
5.00000
 20
110.893
 30
-2.46191e-14
  70
    32
  0
VERTEX
  8
0
  5
274DF
 10
5.00000
 20
109.394
 30
-2.42862e-14
  70
    32
  0
VERTEX
  8
0
  5
274E0
 10
5.00000
 20
107.895
 30
-2.39533e-14
  70
    32
  0
VERTEX
  8
0
  5
274E1
 10
5.00000
 20
106.397
 30
-2.36204e-14
  70
    32
  0
VERTEX
  8
0
  5
274E2
 10
5.00000
 20
104.899
 30
-2.32876e-14
  70
    32
  0
VERTEX
  8
0
  5
274E3
 10
5.00000
 20
103.401
 30
-2.29549e-14
  70
    32
  0
VERTEX
  8
0
  5
274E4
 10
5.00000
 20
101.904
 30
-2.26223e-14
  70
    32
  0
VERTEX
  8
0
  5
274E5
 10
5.00000
 20
100.407
 30
-2.22897e-14
  70
    32
  0
VERTEX
  8
0
  5
274E6
 10
5.00000
 20
98.9098
 30
-2.19572e-14
  70
    32
  0
VERTEX
  8
0
  5
274E7
 10
5.00000
 20
97.4136
 30
-2.16248e-14
  70
    32
  0
VERTEX
  8
0
  5
274E8
 10
5.00000
 20
95.9176
 30
-2.12924e-14
  70
    32
  0
VERTEX
  8
0
  5
274E9
 10
5.00000
 20
94.4221
 30
-2.09601e-14
  70
    32
  0
VERTEX
  8
0
  5
274EA
 10
5.00000
 20
92.9268
 30
-2.06279e-14
  70
    32
  0
VERTEX
  8
0
  5
274EB
 10
5.00000
 20
91.4320
 30
-2.02957e-14
  70
    32
  0
VERTEX
  8
0
  5
274EC
 10
5.00000
 20
89.9375
 30
-1.99636e-14
  70
    32
  0
VERTEX
  8
0
  5
274ED
 10
5.00000
 20
88.4434
 30
-1.96316e-14
  70
    32
  0
VERTEX
  8
0
  5
274EE
 10
5.00000
 20
86.9496
 30
-1.92996e-14
  70
    32
  0
VERTEX
  8
0
  5
274EF
 10
5.00000
 20
85.4562
 30
-1.89677e-14
  70
    32
  0
VERTEX
  8
0
  5
274F0
 10
5.00000
 20
83.9632
 30
-1.86359e-14
  70
    32
  0
VERTEX
  8
0
  5
274F1
 10
5.00000
 20
82.4705
 30
-1.83041e-14
  70
    32
  0
VERTEX
  8
0
  5
274F2
 10
5.00000
 20
80.9782
 30
-1.79724e-14
  70
    32
  0
VERTEX
  8
0
  5
274F3
 10
5.00000
 20
79.4862
 30
-1.76408e-14
  70
    32
  0
VERTEX
  8
0
  5
274F4
 10
5.00000
 20
77.9946
 30
-1.73092e-14
  70
    32
  0
VERTEX
  8
0
  5
274F5
 10
5.00000
 20
76.5034
 30
-1.69777e-14
  70
    32
  0
VERTEX
  8
0
  5
274F6
 10
5.00000
 20
75.0125
 30
-1.66463e-14
  70
    32
  0
VERTEX
  8
0
  5
274F7
 10
5.00000
 20
73.5220
 30
-1.63149e-14
  70
    32
  0
VERTEX
  8
0
  5
274F8
 10
5.00000
 20
72.0318
 30
-1.59836e-14
  70
    32
  0
VERTEX
  8
0
  5
274F9
 10
5.00000
 20
70.5420
 30
-1.56524e-14
  70
    32
  0
VERTEX
  8
0
  5
274FA
 10
5.00000
 20
69.0525
 30
-1.53212e-14
  70
    32
  0
VERTEX
  8
0
  5
274FB
 10
5.00000
 20
67.5635
 30
-1.49901e-14
  70
    32
  0
VERTEX
  8
0
  5
274FC
 10
5.00000
 20
66.0747
 30
-1.46591e-14
  70
    32
  0
VERTEX
  8
0
  5
274FD
 10
5.00000
 20
64.5864
 30
-1.43281e-14
  70
    32
  0
VERTEX
  8
0
  5
274FE
 10
5.00000
 20
63.0984
 30
-1.39972e-14
  70
    32
  0
VERTEX
  8
0
  5
274FF
 10
5.00000
 20
61.6107
 30
-1.36664e-14
  70
    32
  0
VERTEX
  8
0
  5
27500
 10
5.00000
 20
60.1234
 30
-1.33356e-14
  70
    32
  0
VERTEX
  8
0
  5
27501
 10
5.00000
 20
58.6365
 30
-1.30049e-14
  70
    32
  0
VERTEX
  8
0
  5
27502
 10
5.00000
 20
57.1499
 30
-1.26742e-14
  70
    32
  0
VERTEX
  8
0
  5
27503
 10
5.00000
 20
55.6637
 30
-1.23437e-14
  70
    32
  0
VERTEX
  8
0
  5
27504
 10
5.00000
 20
54.1779
 30
-1.20132e-14
  70
    32
  0
VERTEX
  8
0
  5
27505
 10
5.00000
 20
52.6924
 30
-1.16827e-14
  70
    32
  0
VERTEX
  8
0
  5
27506
 10
5.00000
 20
51.2072
 30
-1.13523e-14
  70
    32
  0
VERTEX
  8
0
  5
27507
 10
5.00000
 20
49.7224
 30
-1.10220e-14
  70
    32
  0
VERTEX
  8
0
  5
27508
 10
5.00000
 20
48.2380
 30
-1.06918e-14
  70
    32
  0
VERTEX
  8
0
  5
27509
 10
5.00000
 20
46.7539
 30
-1.03616e-14
  70
    32
  0
VERTEX
  8
0
  5
2750A
 10
5.00000
 20
45.2702
 30
-1.00315e-14
  70
    32
  0
VERTEX
  8
0
  5
2750B
 10
5.00000
 20
43.7869
 30
-9.70144e-15
  70
    32
  0
VERTEX
  8
0
  5
2750C
 10
5.00000
 20
42.3039
 30
-9.37146e-15
  70
    32
  0
VERTEX
  8
0
  5
2750D
 10
5.00000
 20
40.8212
 30
-9.04155e-15
  70
    32
  0
VERTEX
  8
0
  5
2750E
 10
5.00000
 20
39.3390
 30
-8.71170e-15
  70
    32
  0
VERTEX
  8
0
  5
2750F
 10
5.00000
 20
37.8570
 30
-8.38191e-15
  70
    32
  0
VERTEX
  8
0
  5
27510
 10
5.00000
 20
36.3755
 30
-8.05220e-15
  70
    32
  0
VERTEX
  8
0
  5
27511
 10
5.00000
 20
34.8942
 30
-7.72254e-15
  70
    32
  0
VERTEX
  8
0
  5
27512
 10
5.00000
 20
33.4134
 30
-7.39296e-15
  70
    32
  0
VERTEX
  8
0
  5
27513
 10
5.00000
 20
31.9329
 30
-7.06344e-15
  70
    32
  0
VERTEX
  8
0
  5
27514
 10
5.00000
 20
30.4527
 30
-6.73398e-15
  70
    32
  0
VERTEX
  8
0
  5
27515
 10
5.00000
 20
28.9730
 30
-6.40459e-15
  70
    32
  0
VERTEX
  8
0
  5
27516
 10
5.00000
 20
27.4935
 30
-6.07527e-15
  70
    32
  0
VERTEX
  8
0
  5
27517
 10
5.00000
 20
26.0144
 30
-5.74601e-15
  70
    32
  0
VERTEX
  8
0
  5
27518
 10
5.00000
 20
24.5357
 30
-5.41681e-15
  70
    32
  0
VERTEX
  8
0
  5
27519
 10
5.00000
 20
23.0574
 30
-5.08769e-15
  70
    32
  0
VERTEX
  8
0
  5
2751A
 10
5.00000
 20
21.5794
 30
-4.75862e-15
  70
    32
  0
VERTEX
  8
0
  5
2751B
 10
5.00000
 20
20.1017
 30
-4.42963e-15
  70
    32
  0
VERTEX
  8
0
  5
2751C
 10
5.00000
 20
18.6244
 30
-4.10069e-15
  70
    32
  0
VERTEX
  8
0
  5
2751D
 10
5.00000
 20
17.1475
 30
-3.77183e-15
  70
    32
  0
VERTEX
  8
0
  5
2751E
 10
5.00000
 20
15.6709
 30
-3.44303e-15
  70
    32
  0
VERTEX
  8
0
  5
2751F
 10
5.00000
 20
14.1946
 30
-3.11429e-15
  70
    32
  0
VERTEX
  8
0
  5
27520
 10
5.00000
 20
12.7187
 30
-2.78562e-15
  70
    32
  0
VERTEX
  8
0
  5
27521
 10
5.00000
 20
11.2432
 30
-2.45702e-15
  70
    32
  0
VERTEX
  8
0
  5
27522
 10
5.00000
 20
9.76804
 30
-2.12848e-15
  70
    32
  0
VERTEX
  8
0
  5
27523
 10
5.00000
 20
8.29322
 30
-1.80000e-15
  70
    32
  0
SEQEND
  8
0
  5
27524
  0
LINE
  5
27039
  8
0
  6
VERDECKT
 62
     1
 10
5.0
 20
5.0
 30
-0.0000000000000011
 11
5.0
 21
0.0
 31
0.0
210
0.0
220
1.0
230
-0.0000000000000002
  0
POLYLINE
  8
0
  5
27525
  62
1
  66
     1
 10
0.000000
 20
0.000000
 30
0.000000
  70
     8
  0
VERTEX
  8
0
  5
27526
 10
5.00000
 20
8.29322
 30
-1.80000e-15
  70
    32
  0
VERTEX
  8
0
  5
27527
 10
5.00000
 20
8.25763
 30
-1.79367e-15
  70
    32
  0
VERTEX
  8
0
  5
27528
 10
5.00000
 20
8.22206
 30
-1.78732e-15
  70
    32
  0
VERTEX
  8
0
  5
27529
 10
5.00000
 20
8.18651
 30
-1.78095e-15
  70
    32
  0
VERTEX
  8
0
  5
2752A
 10
5.00000
 20
8.15098
 30
-1.77455e-15
  70
    32
  0
VERTEX
  8
0
  5
2752B
 10
5.00000
 20
8.11547
 30
-1.76813e-15
  70
    32
  0
VERTEX
  8
0
  5
2752C
 10
5.00000
 20
8.07998
 30
-1.76170e-15
  70
    32
  0
VERTEX
  8
0
  5
2752D
 10
5.00000
 20
8.04451
 30
-1.75523e-15
  70
    32
  0
VERTEX
  8
0
  5
2752E
 10
5.00000
 20
8.00906
 30
-1.74875e-15
  70
    32
  0
VERTEX
  8
0
  5
2752F
 10
5.00000
 20
7.97363
 30
-1.74225e-15
  70
    32
  0
VERTEX
  8
0
  5
27530
 10
5.00000
 20
7.93822
 30
-1.73572e-15
  70
    32
  0
VERTEX
  8
0
  5
27531
 10
5.00000
 20
7.90284
 30
-1.72917e-15
  70
    32
  0
VERTEX
  8
0
  5
27532
 10
5.00000
 20
7.86747
 30
-1.72260e-15
  70
    32
  0
VERTEX
  8
0
  5
27533
 10
5.00000
 20
7.83212
 30
-1.71600e-15
  70
    32
  0
VERTEX
  8
0
  5
27534
 10
5.00000
 20
7.79679
 30
-1.70939e-15
  70
    32
  0
VERTEX
  8
0
  5
27535
 10
5.00000
 20
7.76148
 30
-1.70275e-15
  70
    32
  0
VERTEX
  8
0
  5
27536
 10
5.00000
 20
7.72619
 30
-1.69609e-15
  70
    32
  0
VERTEX
  8
0
  5
27537
 10
5.00000
 20
7.69092
 30
-1.68941e-15
  70
    32
  0
VERTEX
  8
0
  5
27538
 10
5.00000
 20
7.65567
 30
-1.68271e-15
  70
    32
  0
VERTEX
  8
0
  5
27539
 10
5.00000
 20
7.62044
 30
-1.67598e-15
  70
    32
  0
VERTEX
  8
0
  5
2753A
 10
5.00000
 20
7.58523
 30
-1.66923e-15
  70
    32
  0
VERTEX
  8
0
  5
2753B
 10
5.00000
 20
7.55004
 30
-1.66246e-15
  70
    32
  0
VERTEX
  8
0
  5
2753C
 10
5.00000
 20
7.51487
 30
-1.65567e-15
  70
    32
  0
VERTEX
  8
0
  5
2753D
 10
5.00000
 20
7.47972
 30
-1.64886e-15
  70
    32
  0
VERTEX
  8
0
  5
2753E
 10
5.00000
 20
7.44459
 30
-1.64202e-15
  70
    32
  0
VERTEX
  8
0
  5
2753F
 10
5.00000
 20
7.40948
 30
-1.63516e-15
  70
    32
  0
VERTEX
  8
0
  5
27540
 10
5.00000
 20
7.37439
 30
-1.62828e-15
  70
    32
  0
VERTEX
  8
0
  5
27541
 10
5.00000
 20
7.33932
 30
-1.62138e-15
  70
    32
  0
VERTEX
  8
0
  5
27542
 10
5.00000
 20
7.30427
 30
-1.61445e-15
  70
    32
  0
VERTEX
  8
0
  5
27543
 10
5.00000
 20
7.26923
 30
-1.60751e-15
  70
    32
  0
VERTEX
  8
0
  5
27544
 10
5.00000
 20
7.23422
 30
-1.60054e-15
  70
    32
  0
VERTEX
  8
0
  5
27545
 10
5.00000
 20
7.19923
 30
-1.59355e-15
  70
    32
  0
VERTEX
  8
0
  5
27546
 10
5.00000
 20
7.16426
 30
-1.58653e-15
  70
    32
  0
VERTEX
  8
0
  5
27547
 10
5.00000
 20
7.12930
 30
-1.57950e-15
  70
    32
  0
VERTEX
  8
0
  5
27548
 10
5.00000
 20
7.09437
 30
-1.57244e-15
  70
    32
  0
VERTEX
  8
0
  5
27549
 10
5.00000
 20
7.05946
 30
-1.56536e-15
  70
    32
  0
VERTEX
  8
0
  5
2754A
 10
5.00000
 20
7.02456
 30
-1.55826e-15
  70
    32
  0
VERTEX
  8
0
  5
2754B
 10
5.00000
 20
6.98969
 30
-1.55114e-15
  70
    32
  0
VERTEX
  8
0
  5
2754C
 10
5.00000
 20
6.95484
 30
-1.54399e-15
  70
    32
  0
VERTEX
  8
0
  5
2754D
 10
5.00000
 20
6.92000
 30
-1.53682e-15
  70
    32
  0
VERTEX
  8
0
  5
2754E
 10
5.00000
 20
6.88519
 30
-1.52963e-15
  70
    32
  0
VERTEX
  8
0
  5
2754F
 10
5.00000
 20
6.85039
 30
-1.52242e-15
  70
    32
  0
VERTEX
  8
0
  5
27550
 10
5.00000
 20
6.81561
 30
-1.51519e-15
  70
    32
  0
VERTEX
  8
0
  5
27551
 10
5.00000
 20
6.78086
 30
-1.50793e-15
  70
    32
  0
VERTEX
  8
0
  5
27552
 10
5.00000
 20
6.74612
 30
-1.50065e-15
  70
    32
  0
VERTEX
  8
0
  5
27553
 10
5.00000
 20
6.71140
 30
-1.49335e-15
  70
    32
  0
VERTEX
  8
0
  5
27554
 10
5.00000
 20
6.67670
 30
-1.48603e-15
  70
    32
  0
VERTEX
  8
0
  5
27555
 10
5.00000
 20
6.64202
 30
-1.47869e-15
  70
    32
  0
VERTEX
  8
0
  5
27556
 10
5.00000
 20
6.60737
 30
-1.47132e-15
  70
    32
  0
VERTEX
  8
0
  5
27557
 10
5.00000
 20
6.57273
 30
-1.46393e-15
  70
    32
  0
VERTEX
  8
0
  5
27558
 10
5.00000
 20
6.53810
 30
-1.45652e-15
  70
    32
  0
VERTEX
  8
0
  5
27559
 10
5.00000
 20
6.50350
 30
-1.44908e-15
  70
    32
  0
VERTEX
  8
0
  5
2755A
 10
5.00000
 20
6.46892
 30
-1.44163e-15
  70
    32
  0
VERTEX
  8
0
  5
2755B
 10
5.00000
 20
6.43436
 30
-1.43415e-15
  70
    32
  0
VERTEX
  8
0
  5
2755C
 10
5.00000
 20
6.39982
 30
-1.42665e-15
  70
    32
  0
VERTEX
  8
0
  5
2755D
 10
5.00000
 20
6.36529
 30
-1.41913e-15
  70
    32
  0
VERTEX
  8
0
  5
2755E
 10
5.00000
 20
6.33079
 30
-1.41158e-15
  70
    32
  0
VERTEX
  8
0
  5
2755F
 10
5.00000
 20
6.29630
 30
-1.40402e-15
  70
    32
  0
VERTEX
  8
0
  5
27560
 10
5.00000
 20
6.26184
 30
-1.39643e-15
  70
    32
  0
VERTEX
  8
0
  5
27561
 10
5.00000
 20
6.22739
 30
-1.38882e-15
  70
    32
  0
VERTEX
  8
0
  5
27562
 10
5.00000
 20
6.19296
 30
-1.38118e-15
  70
    32
  0
VERTEX
  8
0
  5
27563
 10
5.00000
 20
6.15855
 30
-1.37353e-15
  70
    32
  0
VERTEX
  8
0
  5
27564
 10
5.00000
 20
6.12416
 30
-1.36585e-15
  70
    32
  0
VERTEX
  8
0
  5
27565
 10
5.00000
 20
6.08979
 30
-1.35815e-15
  70
    32
  0
VERTEX
  8
0
  5
27566
 10
5.00000
 20
6.05544
 30
-1.35043e-15
  70
    32
  0
VERTEX
  8
0
  5
27567
 10
5.00000
 20
6.02111
 30
-1.34268e-15
  70
    32
  0
VERTEX
  8
0
  5
27568
 10
5.00000
 20
5.98680
 30
-1.33492e-15
  70
    32
  0
VERTEX
  8
0
  5
27569
 10
5.00000
 20
5.95251
 30
-1.32713e-15
  70
    32
  0
VERTEX
  8
0
  5
2756A
 10
5.00000
 20
5.91823
 30
-1.31932e-15
  70
    32
  0
VERTEX
  8
0
  5
2756B
 10
5.00000
 20
5.88398
 30
-1.31148e-15
  70
    32
  0
VERTEX
  8
0
  5
2756C
 10
5.00000
 20
5.84974
 30
-1.30363e-15
  70
    32
  0
VERTEX
  8
0
  5
2756D
 10
5.00000
 20
5.81553
 30
-1.29575e-15
  70
    32
  0
VERTEX
  8
0
  5
2756E
 10
5.00000
 20
5.78133
 30
-1.28785e-15
  70
    32
  0
VERTEX
  8
0
  5
2756F
 10
5.00000
 20
5.74715
 30
-1.27993e-15
  70
    32
  0
VERTEX
  8
0
  5
27570
 10
5.00000
 20
5.71299
 30
-1.27198e-15
  70
    32
  0
VERTEX
  8
0
  5
27571
 10
5.00000
 20
5.67885
 30
-1.26402e-15
  70
    32
  0
VERTEX
  8
0
  5
27572
 10
5.00000
 20
5.64473
 30
-1.25603e-15
  70
    32
  0
VERTEX
  8
0
  5
27573
 10
5.00000
 20
5.61062
 30
-1.24802e-15
  70
    32
  0
VERTEX
  8
0
  5
27574
 10
5.00000
 20
5.57654
 30
-1.23998e-15
  70
    32
  0
VERTEX
  8
0
  5
27575
 10
5.00000
 20
5.54247
 30
-1.23193e-15
  70
    32
  0
VERTEX
  8
0
  5
27576
 10
5.00000
 20
5.50843
 30
-1.22385e-15
  70
    32
  0
VERTEX
  8
0
  5
27577
 10
5.00000
 20
5.47440
 30
-1.21575e-15
  70
    32
  0
VERTEX
  8
0
  5
27578
 10
5.00000
 20
5.44039
 30
-1.20763e-15
  70
    32
  0
VERTEX
  8
0
  5
27579
 10
5.00000
 20
5.40640
 30
-1.19948e-15
  70
    32
  0
VERTEX
  8
0
  5
2757A
 10
5.00000
 20
5.37243
 30
-1.19131e-15
  70
    32
  0
VERTEX
  8
0
  5
2757B
 10
5.00000
 20
5.33848
 30
-1.18312e-15
  70
    32
  0
VERTEX
  8
0
  5
2757C
 10
5.00000
 20
5.30455
 30
-1.17491e-15
  70
    32
  0
VERTEX
  8
0
  5
2757D
 10
5.00000
 20
5.27064
 30
-1.16668e-15
  70
    32
  0
VERTEX
  8
0
  5
2757E
 10
5.00000
 20
5.23674
 30
-1.15842e-15
  70
    32
  0
VERTEX
  8
0
  5
2757F
 10
5.00000
 20
5.20286
 30
-1.15014e-15
  70
    32
  0
VERTEX
  8
0
  5
27580
 10
5.00000
 20
5.16901
 30
-1.14184e-15
  70
    32
  0
VERTEX
  8
0
  5
27581
 10
5.00000
 20
5.13517
 30
-1.13352e-15
  70
    32
  0
VERTEX
  8
0
  5
27582
 10
5.00000
 20
5.10135
 30
-1.12517e-15
  70
    32
  0
VERTEX
  8
0
  5
27583
 10
5.00000
 20
5.06755
 30
-1.11680e-15
  70
    32
  0
VERTEX
  8
0
  5
27584
 10
5.00000
 20
5.03376
 30
-1.10841e-15
  70
    32
  0
VERTEX
  8
0
  5
27585
 10
5.00000
 20
5.00000
 30
-1.10000e-15
  70
    32
  0
SEQEND
  8
0
  5
27586
  0
POLYLINE
  8
0
  5
27587
  62
1
  66
     1
 10
0.000000
 20
0.000000
 30
0.000000
  70
     8
  0
VERTEX
  8
0
  5
27588
 10
-5.00000
 20
8.29322
 30
-1.80000e-15
  70
    32
  0
VERTEX
  8
0
  5
27589
 10
-5.00000
 20
9.76804
 30
-2.12848e-15
  70
    32
  0
VERTEX
  8
0
  5
2758A
 10
-5.00000
 20
11.2432
 30
-2.45702e-15
  70
    32
  0
VERTEX
  8
0
  5
2758B
 10
-5.00000
 20
12.7187
 30
-2.78562e-15
  70
    32
  0
VERTEX
  8
0
  5
2758C
 10
-5.00000
 20
14.1946
 30
-3.11429e-15
  70
    32
  0
VERTEX
  8
0
  5
2758D
 10
-5.00000
 20
15.6709
 30
-3.44303e-15
  70
    32
  0
VERTEX
  8
0
  5
2758E
 10
-5.00000
 20
17.1475
 30
-3.77183e-15
  70
    32
  0
VERTEX
  8
0
  5
2758F
 10
-5.00000
 20
18.6244
 30
-4.10069e-15
  70
    32
  0
VERTEX
  8
0
  5
27590
 10
-5.00000
 20
20.1017
 30
-4.42963e-15
  70
    32
  0
VERTEX
  8
0
  5
27591
 10
-5.00000
 20
21.5794
 30
-4.75862e-15
  70
    32
  0
VERTEX
  8
0
  5
27592
 10
-5.00000
 20
23.0574
 30
-5.08769e-15
  70
    32
  0
VERTEX
  8
0
  5
27593
 10
-5.00000
 20
24.5357
 30
-5.41681e-15
  70
    32
  0
VERTEX
  8
0
  5
27594
 10
-5.00000
 20
26.0144
 30
-5.74601e-15
  70
    32
  0
VERTEX
  8
0
  5
27595
 10
-5.00000
 20
27.4935
 30
-6.07527e-15
  70
    32
  0
VERTEX
  8
0
  5
27596
 10
-5.00000
 20
28.9730
 30
-6.40459e-15
  70
    32
  0
VERTEX
  8
0
  5
27597
 10
-5.00000
 20
30.4527
 30
-6.73398e-15
  70
    32
  0
VERTEX
  8
0
  5
27598
 10
-5.00000
 20
31.9329
 30
-7.06344e-15
  70
    32
  0
VERTEX
  8
0
  5
27599
 10
-5.00000
 20
33.4134
 30
-7.39296e-15
  70
    32
  0
VERTEX
  8
0
  5
2759A
 10
-5.00000
 20
34.8942
 30
-7.72254e-15
  70
    32
  0
VERTEX
  8
0
  5
2759B
 10
-5.00000
 20
36.3755
 30
-8.05220e-15
  70
    32
  0
VERTEX
  8
0
  5
2759C
 10
-5.00000
 20
37.8570
 30
-8.38191e-15
  70
    32
  0
VERTEX
  8
0
  5
2759D
 10
-5.00000
 20
39.3390
 30
-8.71170e-15
  70
    32
  0
VERTEX
  8
0
  5
2759E
 10
-5.00000
 20
40.8212
 30
-9.04155e-15
  70
    32
  0
VERTEX
  8
0
  5
2759F
 10
-5.00000
 20
42.3039
 30
-9.37146e-15
  70
    32
  0
VERTEX
  8
0
  5
275A0
 10
-5.00000
 20
43.7869
 30
-9.70144e-15
  70
    32
  0
VERTEX
  8
0
  5
275A1
 10
-5.00000
 20
45.2702
 30
-1.00315e-14
  70
    32
  0
VERTEX
  8
0
  5
275A2
 10
-5.00000
 20
46.7539
 30
-1.03616e-14
  70
    32
  0
VERTEX
  8
0
  5
275A3
 10
-5.00000
 20
48.2380
 30
-1.06918e-14
  70
    32
  0
VERTEX
  8
0
  5
275A4
 10
-5.00000
 20
49.7224
 30
-1.10220e-14
  70
    32
  0
VERTEX
  8
0
  5
275A5
 10
-5.00000
 20
51.2072
 30
-1.13523e-14
  70
    32
  0
VERTEX
  8
0
  5
275A6
 10
-5.00000
 20
52.6924
 30
-1.16827e-14
  70
    32
  0
VERTEX
  8
0
  5
275A7
 10
-5.00000
 20
54.1779
 30
-1.20132e-14
  70
    32
  0
VERTEX
  8
0
  5
275A8
 10
-5.00000
 20
55.6637
 30
-1.23437e-14
  70
    32
  0
VERTEX
  8
0
  5
275A9
 10
-5.00000
 20
57.1499
 30
-1.26742e-14
  70
    32
  0
VERTEX
  8
0
  5
275AA
 10
-5.00000
 20
58.6365
 30
-1.30049e-14
  70
    32
  0
VERTEX
  8
0
  5
275AB
 10
-5.00000
 20
60.1234
 30
-1.33356e-14
  70
    32
  0
VERTEX
  8
0
  5
275AC
 10
-5.00000
 20
61.6107
 30
-1.36664e-14
  70
    32
  0
VERTEX
  8
0
  5
275AD
 10
-5.00000
 20
63.0984
 30
-1.39972e-14
  70
    32
  0
VERTEX
  8
0
  5
275AE
 10
-5.00000
 20
64.5864
 30
-1.43281e-14
  70
    32
  0
VERTEX
  8
0
  5
275AF
 10
-5.00000
 20
66.0747
 30
-1.46591e-14
  70
    32
  0
VERTEX
  8
0
  5
275B0
 10
-5.00000
 20
67.5635
 30
-1.49901e-14
  70
    32
  0
VERTEX
  8
0
  5
275B1
 10
-5.00000
 20
69.0525
 30
-1.53212e-14
  70
    32
  0
VERTEX
  8
0
  5
275B2
 10
-5.00000
 20
70.5420
 30
-1.56524e-14
  70
    32
  0
VERTEX
  8
0
  5
275B3
 10
-5.00000
 20
72.0318
 30
-1.59836e-14
  70
    32
  0
VERTEX
  8
0
  5
275B4
 10
-5.00000
 20
73.5220
 30
-1.63149e-14
  70
    32
  0
VERTEX
  8
0
  5
275B5
 10
-5.00000
 20
75.0125
 30
-1.66463e-14
  70
    32
  0
VERTEX
  8
0
  5
275B6
 10
-5.00000
 20
76.5034
 30
-1.69777e-14
  70
    32
  0
VERTEX
  8
0
  5
275B7
 10
-5.00000
 20
77.9946
 30
-1.73092e-14
  70
    32
  0
VERTEX
  8
0
  5
275B8
 10
-5.00000
 20
79.4862
 30
-1.76408e-14
  70
    32
  0
VERTEX
  8
0
  5
275B9
 10
-5.00000
 20
80.9782
 30
-1.79724e-14
  70
    32
  0
VERTEX
  8
0
  5
275BA
 10
-5.00000
 20
82.4705
 30
-1.83041e-14
  70
    32
  0
VERTEX
  8
0
  5
275BB
 10
-5.00000
 20
83.9632
 30
-1.86359e-14
  70
    32
  0
VERTEX
  8
0
  5
275BC
 10
-5.00000
 20
85.4562
 30
-1.89677e-14
  70
    32
  0
VERTEX
  8
0
  5
275BD
 10
-5.00000
 20
86.9496
 30
-1.92996e-14
  70
    32
  0
VERTEX
  8
0
  5
275BE
 10
-5.00000
 20
88.4434
 30
-1.96316e-14
  70
    32
  0
VERTEX
  8
0
  5
275BF
 10
-5.00000
 20
89.9375
 30
-1.99636e-14
  70
    32
  0
VERTEX
  8
0
  5
275C0
 10
-5.00000
 20
91.4320
 30
-2.02957e-14
  70
    32
  0
VERTEX
  8
0
  5
275C1
 10
-5.00000
 20
92.9268
 30
-2.06279e-14
  70
    32
  0
VERTEX
  8
0
  5
275C2
 10
-5.00000
 20
94.4221
 30
-2.09601e-14
  70
    32
  0
VERTEX
  8
0
  5
275C3
 10
-5.00000
 20
95.9176
 30
-2.12924e-14
  70
    32
  0
VERTEX
  8
0
  5
275C4
 10
-5.00000
 20
97.4136
 30
-2.16248e-14
  70
    32
  0
VERTEX
  8
0
  5
275C5
 10
-5.00000
 20
98.9098
 30
-2.19572e-14
  70
    32
  0
VERTEX
  8
0
  5
275C6
 10
-5.00000
 20
100.407
 30
-2.22897e-14
  70
    32
  0
VERTEX
  8
0
  5
275C7
 10
-5.00000
 20
101.904
 30
-2.26223e-14
  70
    32
  0
VERTEX
  8
0
  5
275C8
 10
-5.00000
 20
103.401
 30
-2.29549e-14
  70
    32
  0
VERTEX
  8
0
  5
275C9
 10
-5.00000
 20
104.899
 30
-2.32876e-14
  70
    32
  0
VERTEX
  8
0
  5
275CA
 10
-5.00000
 20
106.397
 30
-2.36204e-14
  70
    32
  0
VERTEX
  8
0
  5
275CB
 10
-5.00000
 20
107.895
 30
-2.39533e-14
  70
    32
  0
VERTEX
  8
0
  5
275CC
 10
-5.00000
 20
109.394
 30
-2.42862e-14
  70
    32
  0
VERTEX
  8
0
  5
275CD
 10
-5.00000
 20
110.893
 30
-2.46191e-14
  70
    32
  0
VERTEX
  8
0
  5
275CE
 10
-5.00000
 20
112.393
 30
-2.49522e-14
  70
    32
  0
VERTEX
  8
0
  5
275CF
 10
-5.00000
 20
113.893
 30
-2.52853e-14
  70
    32
  0
VERTEX
  8
0
  5
275D0
 10
-5.00000
 20
115.393
 30
-2.56184e-14
  70
    32
  0
VERTEX
  8
0
  5
275D1
 10
-5.00000
 20
116.894
 30
-2.59517e-14
  70
    32
  0
VERTEX
  8
0
  5
275D2
 10
-5.00000
 20
118.395
 30
-2.62850e-14
  70
    32
  0
VERTEX
  8
0
  5
275D3
 10
-5.00000
 20
119.896
 30
-2.66184e-14
  70
    32
  0
VERTEX
  8
0
  5
275D4
 10
-5.00000
 20
121.398
 30
-2.69518e-14
  70
    32
  0
VERTEX
  8
0
  5
275D5
 10
-5.00000
 20
122.900
 30
-2.72853e-14
  70
    32
  0
VERTEX
  8
0
  5
275D6
 10
-5.00000
 20
124.402
 30
-2.76189e-14
  70
    32
  0
VERTEX
  8
0
  5
275D7
 10
-5.00000
 20
125.905
 30
-2.79525e-14
  70
    32
  0
VERTEX
  8
0
  5
275D8
 10
-5.00000
 20
127.408
 30
-2.82862e-14
  70
    32
  0
VERTEX
  8
0
  5
275D9
 10
-5.00000
 20
128.912
 30
-2.86200e-14
  70
    32
  0
VERTEX
  8
0
  5
275DA
 10
-5.00000
 20
130.416
 30
-2.89539e-14
  70
    32
  0
VERTEX
  8
0
  5
275DB
 10
-5.00000
 20
131.920
 30
-2.92878e-14
  70
    32
  0
VERTEX
  8
0
  5
275DC
 10
-5.00000
 20
133.425
 30
-2.96218e-14
  70
    32
  0
VERTEX
  8
0
  5
275DD
 10
-5.00000
 20
134.930
 30
-2.99558e-14
  70
    32
  0
VERTEX
  8
0
  5
275DE
 10
-5.00000
 20
136.435
 30
-3.02899e-14
  70
    32
  0
VERTEX
  8
0
  5
275DF
 10
-5.00000
 20
137.941
 30
-3.06241e-14
  70
    32
  0
VERTEX
  8
0
  5
275E0
 10
-5.00000
 20
139.447
 30
-3.09584e-14
  70
    32
  0
VERTEX
  8
0
  5
275E1
 10
-5.00000
 20
140.953
 30
-3.12927e-14
  70
    32
  0
VERTEX
  8
0
  5
275E2
 10
-5.00000
 20
142.460
 30
-3.16271e-14
  70
    32
  0
VERTEX
  8
0
  5
275E3
 10
-5.00000
 20
143.968
 30
-3.19615e-14
  70
    32
  0
VERTEX
  8
0
  5
275E4
 10
-5.00000
 20
145.475
 30
-3.22960e-14
  70
    32
  0
VERTEX
  8
0
  5
275E5
 10
-5.00000
 20
146.983
 30
-3.26306e-14
  70
    32
  0
VERTEX
  8
0
  5
275E6
 10
-5.00000
 20
148.491
 30
-3.29653e-14
  70
    32
  0
VERTEX
  8
0
  5
275E7
 10
-5.00000
 20
150.000
 30
-3.33000e-14
  70
    32
  0
SEQEND
  8
0
  5
275E8
  0
POLYLINE
  8
0
  5
275E9
  62
1
  66
     1
 10
0.000000
 20
0.000000
 30
0.000000
  70
     8
  0
VERTEX
  8
0
  5
275EA
 10
-5.00000
 20
5.00000
 30
-1.10000e-15
  70
    32
  0
VERTEX
  8
0
  5
275EB
 10
-5.00000
 20
5.03376
 30
-1.10841e-15
  70
    32
  0
VERTEX
  8
0
  5
275EC
 10
-5.00000
 20
5.06755
 30
-1.11680e-15
  70
    32
  0
VERTEX
  8
0
  5
275ED
 10
-5.00000
 20
5.10135
 30
-1.12517e-15
  70
    32
  0
VERTEX
  8
0
  5
275EE
 10
-5.00000
 20
5.13517
 30
-1.13352e-15
  70
    32
  0
VERTEX
  8
0
  5
275EF
 10
-5.00000
 20
5.16901
 30
-1.14184e-15
  70
    32
  0
VERTEX
  8
0
  5
275F0
 10
-5.00000
 20
5.20286
 30
-1.15014e-15
  70
    32
  0
VERTEX
  8
0
  5
275F1
 10
-5.00000
 20
5.23674
 30
-1.15842e-15
  70
    32
  0
VERTEX
  8
0
  5
275F2
 10
-5.00000
 20
5.27064
 30
-1.16668e-15
  70
    32
  0
VERTEX
  8
0
  5
275F3
 10
-5.00000
 20
5.30455
 30
-1.17491e-15
  70
    32
  0
VERTEX
  8
0
  5
275F4
 10
-5.00000
 20
5.33848
 30
-1.18312e-15
  70
    32
  0
VERTEX
  8
0
  5
275F5
 10
-5.00000
 20
5.37243
 30
-1.19131e-15
  70
    32
  0
VERTEX
  8
0
  5
275F6
 10
-5.00000
 20
5.40640
 30
-1.19948e-15
  70
    32
  0
VERTEX
  8
0
  5
275F7
 10
-5.00000
 20
5.44039
 30
-1.20763e-15
  70
    32
  0
VERTEX
  8
0
  5
275F8
 10
-5.00000
 20
5.47440
 30
-1.21575e-15
  70
    32
  0
VERTEX
  8
0
  5
275F9
 10
-5.00000
 20
5.50843
 30
-1.22385e-15
  70
    32
  0
VERTEX
  8
0
  5
275FA
 10
-5.00000
 20
5.54247
 30
-1.23193e-15
  70
    32
  0
VERTEX
  8
0
  5
275FB
 10
-5.00000
 20
5.57654
 30
-1.23998e-15
  70
    32
  0
VERTEX
  8
0
  5
275FC
 10
-5.00000
 20
5.61062
 30
-1.24802e-15
  70
    32
  0
VERTEX
  8
0
  5
275FD
 10
-5.00000
 20
5.64473
 30
-1.25603e-15
  70
    32
  0
VERTEX
  8
0
  5
275FE
 10
-5.00000
 20
5.67885
 30
-1.26402e-15
  70
    32
  0
VERTEX
  8
0
  5
275FF
 10
-5.00000
 20
5.71299
 30
-1.27198e-15
  70
    32
  0
VERTEX
  8
0
  5
27600
 10
-5.00000
 20
5.74715
 30
-1.27993e-15
  70
    32
  0
VERTEX
  8
0
  5
27601
 10
-5.00000
 20
5.78133
 30
-1.28785e-15
  70
    32
  0
VERTEX
  8
0
  5
27602
 10
-5.00000
 20
5.81553
 30
-1.29575e-15
  70
    32
  0
VERTEX
  8
0
  5
27603
 10
-5.00000
 20
5.84974
 30
-1.30363e-15
  70
    32
  0
VERTEX
  8
0
  5
27604
 10
-5.00000
 20
5.88398
 30
-1.31148e-15
  70
    32
  0
VERTEX
  8
0
  5
27605
 10
-5.00000
 20
5.91823
 30
-1.31932e-15
  70
    32
  0
VERTEX
  8
0
  5
27606
 10
-5.00000
 20
5.95251
 30
-1.32713e-15
  70
    32
  0
VERTEX
  8
0
  5
27607
 10
-5.00000
 20
5.98680
 30
-1.33492e-15
  70
    32
  0
VERTEX
  8
0
  5
27608
 10
-5.00000
 20
6.02111
 30
-1.34268e-15
  70
    32
  0
VERTEX
  8
0
  5
27609
 10
-5.00000
 20
6.05544
 30
-1.35043e-15
  70
    32
  0
VERTEX
  8
0
  5
2760A
 10
-5.00000
 20
6.08979
 30
-1.35815e-15
  70
    32
  0
VERTEX
  8
0
  5
2760B
 10
-5.00000
 20
6.12416
 30
-1.36585e-15
  70
    32
  0
VERTEX
  8
0
  5
2760C
 10
-5.00000
 20
6.15855
 30
-1.37353e-15
  70
    32
  0
VERTEX
  8
0
  5
2760D
 10
-5.00000
 20
6.19296
 30
-1.38118e-15
  70
    32
  0
VERTEX
  8
0
  5
2760E
 10
-5.00000
 20
6.22739
 30
-1.38882e-15
  70
    32
  0
VERTEX
  8
0
  5
2760F
 10
-5.00000
 20
6.26184
 30
-1.39643e-15
  70
    32
  0
VERTEX
  8
0
  5
27610
 10
-5.00000
 20
6.29630
 30
-1.40402e-15
  70
    32
  0
VERTEX
  8
0
  5
27611
 10
-5.00000
 20
6.33079
 30
-1.41158e-15
  70
    32
  0
VERTEX
  8
0
  5
27612
 10
-5.00000
 20
6.36529
 30
-1.41913e-15
  70
    32
  0
VERTEX
  8
0
  5
27613
 10
-5.00000
 20
6.39982
 30
-1.42665e-15
  70
    32
  0
VERTEX
  8
0
  5
27614
 10
-5.00000
 20
6.43436
 30
-1.43415e-15
  70
    32
  0
VERTEX
  8
0
  5
27615
 10
-5.00000
 20
6.46892
 30
-1.44163e-15
  70
    32
  0
VERTEX
  8
0
  5
27616
 10
-5.00000
 20
6.50350
 30
-1.44908e-15
  70
    32
  0
VERTEX
  8
0
  5
27617
 10
-5.00000
 20
6.53810
 30
-1.45652e-15
  70
    32
  0
VERTEX
  8
0
  5
27618
 10
-5.00000
 20
6.57273
 30
-1.46393e-15
  70
    32
  0
VERTEX
  8
0
  5
27619
 10
-5.00000
 20
6.60737
 30
-1.47132e-15
  70
    32
  0
VERTEX
  8
0
  5
2761A
 10
-5.00000
 20
6.64202
 30
-1.47869e-15
  70
    32
  0
VERTEX
  8
0
  5
2761B
 10
-5.00000
 20
6.67670
 30
-1.48603e-15
  70
    32
  0
VERTEX
  8
0
  5
2761C
 10
-5.00000
 20
6.71140
 30
-1.49335e-15
  70
    32
  0
VERTEX
  8
0
  5
2761D
 10
-5.00000
 20
6.74612
 30
-1.50065e-15
  70
    32
  0
VERTEX
  8
0
  5
2761E
 10
-5.00000
 20
6.78086
 30
-1.50793e-15
  70
    32
  0
VERTEX
  8
0
  5
2761F
 10
-5.00000
 20
6.81561
 30
-1.51519e-15
  70
    32
  0
VERTEX
  8
0
  5
27620
 10
-5.00000
 20
6.85039
 30
-1.52242e-15
  70
    32
  0
VERTEX
  8
0
  5
27621
 10
-5.00000
 20
6.88519
 30
-1.52963e-15
  70
    32
  0
VERTEX
  8
0
  5
27622
 10
-5.00000
 20
6.92000
 30
-1.53682e-15
  70
    32
  0
VERTEX
  8
0
  5
27623
 10
-5.00000
 20
6.95484
 30
-1.54399e-15
  70
    32
  0
VERTEX
  8
0
  5
27624
 10
-5.00000
 20
6.98969
 30
-1.55114e-15
  70
    32
  0
VERTEX
  8
0
  5
27625
 10
-5.00000
 20
7.02456
 30
-1.55826e-15
  70
    32
  0
VERTEX
  8
0
  5
27626
 10
-5.00000
 20
7.05946
 30
-1.56536e-15
  70
    32
  0
VERTEX
  8
0
  5
27627
 10
-5.00000
 20
7.09437
 30
-1.57244e-15
  70
    32
  0
VERTEX
  8
0
  5
27628
 10
-5.00000
 20
7.12930
 30
-1.57950e-15
  70
    32
  0
VERTEX
  8
0
  5
27629
 10
-5.00000
 20
7.16426
 30
-1.58653e-15
  70
    32
  0
VERTEX
  8
0
  5
2762A
 10
-5.00000
 20
7.19923
 30
-1.59355e-15
  70
    32
  0
VERTEX
  8
0
  5
2762B
 10
-5.00000
 20
7.23422
 30
-1.60054e-15
  70
    32
  0
VERTEX
  8
0
  5
2762C
 10
-5.00000
 20
7.26923
 30
-1.60751e-15
  70
    32
  0
VERTEX
  8
0
  5
2762D
 10
-5.00000
 20
7.30427
 30
-1.61445e-15
  70
    32
  0
VERTEX
  8
0
  5
2762E
 10
-5.00000
 20
7.33932
 30
-1.62138e-15
  70
    32
  0
VERTEX
  8
0
  5
2762F
 10
-5.00000
 20
7.37439
 30
-1.62828e-15
  70
    32
  0
VERTEX
  8
0
  5
27630
 10
-5.00000
 20
7.40948
 30
-1.63516e-15
  70
    32
  0
VERTEX
  8
0
  5
27631
 10
-5.00000
 20
7.44459
 30
-1.64202e-15
  70
    32
  0
VERTEX
  8
0
  5
27632
 10
-5.00000
 20
7.47972
 30
-1.64886e-15
  70
    32
  0
VERTEX
  8
0
  5
27633
 10
-5.00000
 20
7.51487
 30
-1.65567e-15
  70
    32
  0
VERTEX
  8
0
  5
27634
 10
-5.00000
 20
7.55004
 30
-1.66246e-15
  70
    32
  0
VERTEX
  8
0
  5
27635
 10
-5.00000
 20
7.58523
 30
-1.66923e-15
  70
    32
  0
VERTEX
  8
0
  5
27636
 10
-5.00000
 20
7.62044
 30
-1.67598e-15
  70
    32
  0
VERTEX
  8
0
  5
27637
 10
-5.00000
 20
7.65567
 30
-1.68271e-15
  70
    32
  0
VERTEX
  8
0
  5
27638
 10
-5.00000
 20
7.69092
 30
-1.68941e-15
  70
    32
  0
VERTEX
  8
0
  5
27639
 10
-5.00000
 20
7.72619
 30
-1.69609e-15
  70
    32
  0
VERTEX
  8
0
  5
2763A
 10
-5.00000
 20
7.76148
 30
-1.70275e-15
  70
    32
  0
VERTEX
  8
0
  5
2763B
 10
-5.00000
 20
7.79679
 30
-1.70939e-15
  70
    32
  0
VERTEX
  8
0
  5
2763C
 10
-5.00000
 20
7.83212
 30
-1.71600e-15
  70
    32
  0
VERTEX
  8
0
  5
2763D
 10
-5.00000
 20
7.86747
 30
-1.72260e-15
  70
    32
  0
VERTEX
  8
0
  5
2763E
 10
-5.00000
 20
7.90284
 30
-1.72917e-15
  70
    32
  0
VERTEX
  8
0
  5
2763F
 10
-5.00000
 20
7.93822
 30
-1.73572e-15
  70
    32
  0
VERTEX
  8
0
  5
27640
 10
-5.00000
 20
7.97363
 30
-1.74225e-15
  70
    32
  0
VERTEX
  8
0
  5
27641
 10
-5.00000
 20
8.00906
 30
-1.74875e-15
  70
    32
  0
VERTEX
  8
0
  5
27642
 10
-5.00000
 20
8.04451
 30
-1.75523e-15
  70
    32
  0
VERTEX
  8
0
  5
27643
 10
-5.00000
 20
8.07998
 30
-1.76170e-15
  70
    32
  0
VERTEX
  8
0
  5
27644
 10
-5.00000
 20
8.11547
 30
-1.76813e-15
  70
    32
  0
VERTEX
  8
0
  5
27645
 10
-5.00000
 20
8.15098
 30
-1.77455e-15
  70
    32
  0
VERTEX
  8
0
  5
27646
 10
-5.00000
 20
8.18651
 30
-1.78095e-15
  70
    32
  0
VERTEX
  8
0
  5
27647
 10
-5.00000
 20
8.22206
 30
-1.78732e-15
  70
    32
  0
VERTEX
  8
0
  5
27648
 10
-5.00000
 20
8.25763
 30
-1.79367e-15
  70
    32
  0
VERTEX
  8
0
  5
27649
 10
-5.00000
 20
8.29322
 30
-1.80000e-15
  70
    32
  0
SEQEND
  8
0
  5
2764A
  0
LINE
  5
2703D
  8
0
  6
VERDECKT
 62
     1
 10
-5.0
 20
0.0
 30
0.0
 11
-5.0
 21
5.0
 31
-0.0000000000000011
210
0.0
220
1.0
230
-0.0000000000000002
  0
LINE
  5
2703E
  8
0
  6
VERDECKT
 62
     1
 10
53.7633437076982474
 20
8.2932247912220856
 30
-0.0000000000000018
 11
-53.763343707698283
 21
8.2932247912220927
 31
-0.0000000000000018
210
0.0
220
1.0
230
-0.0000000000000002
  0
LINE
  5
2703F
  8
0
  6
VERDECKT
 62
     1
 10
-4.999999999999992
 20
158.0
 30
-0.0000000000000351
 11
-7.0000000000000009
 21
160.0
 31
-0.0000000000000355
210
0.0
220
1.0
230
-0.0000000000000002
  0
LINE
  5
27040
  8
0
  6
VERDECKT
 62
     1
 10
-92.0000000000000142
 20
160.0
 30
-0.0000000000000355
 11
92.0000000000000142
 21
160.0
 31
-0.0000000000000355
210
0.0
220
1.0
230
-0.0000000000000002
  0
LINE
  5
27041
  8
0
  6
VERDECKT
 62
     1
 10
94.0
 20
158.0
 30
-0.0000000000000351
 11
-94.0000000000000284
 21
158.0
 31
-0.0000000000000351
210
0.0
220
1.0
230
-0.0000000000000002
  0
LINE
  5
27042
  8
0
  6
VERDECKT
 62
     1
 10
5.0000000000000071
 20
158.0
 30
-0.0000000000000351
 11
7.000000000000008
 21
160.0
 31
-0.0000000000000355
210
0.0
220
1.0
230
-0.0000000000000002
  0
LINE
  5
27043
  8
0
  6
VERDECKT
 62
     1
 10
50.9999999999999503
 20
4.9999999999999973
 30
-0.0000000000000011
 11
-50.9999999999999574
 21
5.0000000000000044
 31
-0.0000000000000011
210
0.0
220
1.0
230
-0.0000000000000002
  0
LINE
  5
27044
  8
0
  6
VERDECKT
 62
     1
 10
-53.7633437076982901
 20
8.2932247912220891
 30
-0.0000000000000018
 11
-55.0
 21
150.0
 31
-0.0000000000000333
210
0.0
220
1.0
230
-0.0000000000000002
  0
LINE
  5
27045
  8
0
  6
VERDECKT
 62
     1
 10
53.7633437076982617
 20
8.2932247912220891
 30
-0.0000000000000018
 11
55.0
 21
150.0
 31
-0.0000000000000333
210
0.0
220
1.0
230
-0.0000000000000002
  0
LINE
  5
27046
  8
0
  6
VERDECKT
 62
     1
 10
-84.0
 20
158.0
 30
-0.0000000000000351
 11
-86.0
 21
160.0
 31
-0.0000000000000355
210
0.0
220
1.0
230
-0.0000000000000002
  0
LINE
  5
27047
  8
0
  6
VERDECKT
 62
     1
 10
84.0
 20
158.0
 30
-0.0000000000000351
 11
86.0
 21
160.0
 31
-0.0000000000000355
210
0.0
220
1.0
230
-0.0000000000000002
  0
LINE
  5
27048
  8
0
  6
VERDECKT
 62
     1
 10
92.0000000000000142
 20
160.0
 30
-0.0000000000000355
 11
94.0000000000000142
 21
158.0
 31
-0.0000000000000351
210
0.0
220
1.0
230
-0.0000000000000002
  0
LINE
  5
27049
  8
0
  6
VERDECKT
 62
     1
 10
-92.0000000000000142
 20
160.0
 30
-0.0000000000000355
 11
-94.0000000000000142
 21
158.0
 31
-0.0000000000000351
210
0.0
220
1.0
230
-0.0000000000000002
  0
LINE
  5
2704A
  8
0
  6
VERDECKT
 62
     1
 10
-84.0
 20
150.0
 30
-0.0000000000000333
 11
-84.0
 21
158.0
 31
-0.0000000000000351
210
0.0
220
1.0
230
-0.0000000000000002
  0
LINE
  5
2704B
  8
0
  6
VERDECKT
 62
     1
 10
84.0
 20
150.0
 30
-0.0000000000000333
 11
84.0
 21
158.0
 31
-0.0000000000000351
210
0.0
220
1.0
230
-0.0000000000000002
  0
LINE
  5
2704C
  8
0
  6
VERDECKT
 62
     1
 10
-94.0000000000000142
 20
150.0
 30
-0.0000000000000333
 11
-94.0000000000000142
 21
158.0
 31
-0.0000000000000351
210
0.0
220
1.0
230
-0.0000000000000002
  0
LINE
  5
2704D
  8
0
  6
VERDECKT
 62
     1
 10
94.0000000000000142
 20
150.0
 30
-0.0000000000000333
 11
94.0000000000000142
 21
158.0
 31
-0.0000000000000351
210
0.0
220
1.0
230
-0.0000000000000002
  0
LINE
  5
2704E
  8
0
  6
VERDECKT
 62
     1
 10
-50.9999999999999574
 20
0.0000000000000031
 30
0.0
 11
-50.9999999999999574
 21
5.0000000000000044
 31
-0.0000000000000011
210
0.0
220
1.0
230
-0.0000000000000002
  0
LINE
  5
2704F
  8
0
  6
VERDECKT
 62
     1
 10
50.9999999999999503
 20
-0.0000000000000031
 30
0.0
 11
50.9999999999999503
 21
4.9999999999999973
 31
-0.0000000000000011
210
0.0
220
1.0
230
-0.0000000000000002
  0
LINE
  5
27050
  8
0
  6
VERDECKT
 62
     1
 10
-50.9999999999999574
 20
5.0000000000000062
 30
-0.0000000000000011
 11
-53.763343707698283
 21
8.2932247912220909
 31
-0.0000000000000018
210
0.0
220
1.0
230
-0.0000000000000002
  0
LINE
  5
27051
  8
0
  6
VERDECKT
 62
     1
 10
50.9999999999999503
 20
4.9999999999999991
 30
-0.0000000000000011
 11
53.7633437076982617
 21
8.2932247912220838
 31
-0.0000000000000018
210
0.0
220
1.0
230
-0.0000000000000002
  0
POLYLINE
  8
0
  5
2764B
  62
1
  66
     1
 10
0.000000
 20
0.000000
 30
0.000000
  70
     8
  0
VERTEX
  8
0
  5
2764C
 10
-5.00000
 20
204.115
 30
-4.53000e-14
  70
    32
  0
VERTEX
  8
0
  5
2764D
 10
-5.00000
 20
204.143
 30
-4.53070e-14
  70
    32
  0
VERTEX
  8
0
  5
2764E
 10
-5.00000
 20
204.171
 30
-4.53139e-14
  70
    32
  0
VERTEX
  8
0
  5
2764F
 10
-5.00000
 20
204.199
 30
-4.53209e-14
  70
    32
  0
VERTEX
  8
0
  5
27650
 10
-5.00000
 20
204.227
 30
-4.53279e-14
  70
    32
  0
VERTEX
  8
0
  5
27651
 10
-5.00000
 20
204.256
 30
-4.53349e-14
  70
    32
  0
VERTEX
  8
0
  5
27652
 10
-5.00000
 20
204.284
 30
-4.53418e-14
  70
    32
  0
VERTEX
  8
0
  5
27653
 10
-5.00000
 20
204.312
 30
-4.53488e-14
  70
    32
  0
VERTEX
  8
0
  5
27654
 10
-5.00000
 20
204.341
 30
-4.53558e-14
  70
    32
  0
VERTEX
  8
0
  5
27655
 10
-5.00000
 20
204.369
 30
-4.53628e-14
  70
    32
  0
VERTEX
  8
0
  5
27656
 10
-5.00000
 20
204.397
 30
-4.53697e-14
  70
    32
  0
VERTEX
  8
0
  5
27657
 10
-5.00000
 20
204.426
 30
-4.53767e-14
  70
    32
  0
VERTEX
  8
0
  5
27658
 10
-5.00000
 20
204.455
 30
-4.53837e-14
  70
    32
  0
VERTEX
  8
0
  5
27659
 10
-5.00000
 20
204.483
 30
-4.53907e-14
  70
    32
  0
VERTEX
  8
0
  5
2765A
 10
-5.00000
 20
204.512
 30
-4.53976e-14
  70
    32
  0
VERTEX
  8
0
  5
2765B
 10
-5.00000
 20
204.541
 30
-4.54046e-14
  70
    32
  0
VERTEX
  8
0
  5
2765C
 10
-5.00000
 20
204.569
 30
-4.54116e-14
  70
    32
  0
VERTEX
  8
0
  5
2765D
 10
-5.00000
 20
204.598
 30
-4.54185e-14
  70
    32
  0
VERTEX
  8
0
  5
2765E
 10
-5.00000
 20
204.627
 30
-4.54255e-14
  70
    32
  0
VERTEX
  8
0
  5
2765F
 10
-5.00000
 20
204.656
 30
-4.54325e-14
  70
    32
  0
VERTEX
  8
0
  5
27660
 10
-5.00000
 20
204.685
 30
-4.54395e-14
  70
    32
  0
VERTEX
  8
0
  5
27661
 10
-5.00000
 20
204.714
 30
-4.54464e-14
  70
    32
  0
VERTEX
  8
0
  5
27662
 10
-5.00000
 20
204.743
 30
-4.54534e-14
  70
    32
  0
VERTEX
  8
0
  5
27663
 10
-5.00000
 20
204.772
 30
-4.54604e-14
  70
    32
  0
VERTEX
  8
0
  5
27664
 10
-5.00000
 20
204.801
 30
-4.54674e-14
  70
    32
  0
VERTEX
  8
0
  5
27665
 10
-5.00000
 20
204.830
 30
-4.54743e-14
  70
    32
  0
VERTEX
  8
0
  5
27666
 10
-5.00000
 20
204.859
 30
-4.54813e-14
  70
    32
  0
VERTEX
  8
0
  5
27667
 10
-5.00000
 20
204.889
 30
-4.54883e-14
  70
    32
  0
VERTEX
  8
0
  5
27668
 10
-5.00000
 20
204.918
 30
-4.54953e-14
  70
    32
  0
VERTEX
  8
0
  5
27669
 10
-5.00000
 20
204.947
 30
-4.55022e-14
  70
    32
  0
VERTEX
  8
0
  5
2766A
 10
-5.00000
 20
204.976
 30
-4.55092e-14
  70
    32
  0
VERTEX
  8
0
  5
2766B
 10
-5.00000
 20
205.006
 30
-4.55162e-14
  70
    32
  0
VERTEX
  8
0
  5
2766C
 10
-5.00000
 20
205.035
 30
-4.55231e-14
  70
    32
  0
VERTEX
  8
0
  5
2766D
 10
-5.00000
 20
205.065
 30
-4.55301e-14
  70
    32
  0
VERTEX
  8
0
  5
2766E
 10
-5.00000
 20
205.094
 30
-4.55371e-14
  70
    32
  0
VERTEX
  8
0
  5
2766F
 10
-5.00000
 20
205.123
 30
-4.55441e-14
  70
    32
  0
VERTEX
  8
0
  5
27670
 10
-5.00000
 20
205.153
 30
-4.55510e-14
  70
    32
  0
VERTEX
  8
0
  5
27671
 10
-5.00000
 20
205.183
 30
-4.55580e-14
  70
    32
  0
VERTEX
  8
0
  5
27672
 10
-5.00000
 20
205.212
 30
-4.55650e-14
  70
    32
  0
VERTEX
  8
0
  5
27673
 10
-5.00000
 20
205.242
 30
-4.55720e-14
  70
    32
  0
VERTEX
  8
0
  5
27674
 10
-5.00000
 20
205.271
 30
-4.55789e-14
  70
    32
  0
VERTEX
  8
0
  5
27675
 10
-5.00000
 20
205.301
 30
-4.55859e-14
  70
    32
  0
VERTEX
  8
0
  5
27676
 10
-5.00000
 20
205.331
 30
-4.55929e-14
  70
    32
  0
VERTEX
  8
0
  5
27677
 10
-5.00000
 20
205.360
 30
-4.55998e-14
  70
    32
  0
VERTEX
  8
0
  5
27678
 10
-5.00000
 20
205.390
 30
-4.56068e-14
  70
    32
  0
VERTEX
  8
0
  5
27679
 10
-5.00000
 20
205.420
 30
-4.56138e-14
  70
    32
  0
VERTEX
  8
0
  5
2767A
 10
-5.00000
 20
205.450
 30
-4.56208e-14
  70
    32
  0
VERTEX
  8
0
  5
2767B
 10
-5.00000
 20
205.479
 30
-4.56277e-14
  70
    32
  0
VERTEX
  8
0
  5
2767C
 10
-5.00000
 20
205.509
 30
-4.56347e-14
  70
    32
  0
VERTEX
  8
0
  5
2767D
 10
-5.00000
 20
205.539
 30
-4.56417e-14
  70
    32
  0
VERTEX
  8
0
  5
2767E
 10
-5.00000
 20
205.569
 30
-4.56487e-14
  70
    32
  0
VERTEX
  8
0
  5
2767F
 10
-5.00000
 20
205.599
 30
-4.56556e-14
  70
    32
  0
VERTEX
  8
0
  5
27680
 10
-5.00000
 20
205.628
 30
-4.56626e-14
  70
    32
  0
VERTEX
  8
0
  5
27681
 10
-5.00000
 20
205.658
 30
-4.56696e-14
  70
    32
  0
VERTEX
  8
0
  5
27682
 10
-5.00000
 20
205.688
 30
-4.56766e-14
  70
    32
  0
VERTEX
  8
0
  5
27683
 10
-5.00000
 20
205.718
 30
-4.56835e-14
  70
    32
  0
VERTEX
  8
0
  5
27684
 10
-5.00000
 20
205.748
 30
-4.56905e-14
  70
    32
  0
VERTEX
  8
0
  5
27685
 10
-5.00000
 20
205.778
 30
-4.56975e-14
  70
    32
  0
VERTEX
  8
0
  5
27686
 10
-5.00000
 20
205.808
 30
-4.57044e-14
  70
    32
  0
VERTEX
  8
0
  5
27687
 10
-5.00000
 20
205.838
 30
-4.57114e-14
  70
    32
  0
VERTEX
  8
0
  5
27688
 10
-5.00000
 20
205.868
 30
-4.57184e-14
  70
    32
  0
VERTEX
  8
0
  5
27689
 10
-5.00000
 20
205.898
 30
-4.57254e-14
  70
    32
  0
VERTEX
  8
0
  5
2768A
 10
-5.00000
 20
205.928
 30
-4.57323e-14
  70
    32
  0
VERTEX
  8
0
  5
2768B
 10
-5.00000
 20
205.958
 30
-4.57393e-14
  70
    32
  0
VERTEX
  8
0
  5
2768C
 10
-5.00000
 20
205.988
 30
-4.57463e-14
  70
    32
  0
VERTEX
  8
0
  5
2768D
 10
-5.00000
 20
206.018
 30
-4.57533e-14
  70
    32
  0
VERTEX
  8
0
  5
2768E
 10
-5.00000
 20
206.048
 30
-4.57602e-14
  70
    32
  0
VERTEX
  8
0
  5
2768F
 10
-5.00000
 20
206.078
 30
-4.57672e-14
  70
    32
  0
VERTEX
  8
0
  5
27690
 10
-5.00000
 20
206.108
 30
-4.57742e-14
  70
    32
  0
VERTEX
  8
0
  5
27691
 10
-5.00000
 20
206.138
 30
-4.57812e-14
  70
    32
  0
VERTEX
  8
0
  5
27692
 10
-5.00000
 20
206.168
 30
-4.57881e-14
  70
    32
  0
VERTEX
  8
0
  5
27693
 10
-5.00000
 20
206.198
 30
-4.57951e-14
  70
    32
  0
VERTEX
  8
0
  5
27694
 10
-5.00000
 20
206.228
 30
-4.58021e-14
  70
    32
  0
VERTEX
  8
0
  5
27695
 10
-5.00000
 20
206.258
 30
-4.58090e-14
  70
    32
  0
VERTEX
  8
0
  5
27696
 10
-5.00000
 20
206.288
 30
-4.58160e-14
  70
    32
  0
VERTEX
  8
0
  5
27697
 10
-5.00000
 20
206.318
 30
-4.58230e-14
  70
    32
  0
VERTEX
  8
0
  5
27698
 10
-5.00000
 20
206.348
 30
-4.58300e-14
  70
    32
  0
VERTEX
  8
0
  5
27699
 10
-5.00000
 20
206.378
 30
-4.58369e-14
  70
    32
  0
VERTEX
  8
0
  5
2769A
 10
-5.00000
 20
206.408
 30
-4.58439e-14
  70
    32
  0
VERTEX
  8
0
  5
2769B
 10
-5.00000
 20
206.438
 30
-4.58509e-14
  70
    32
  0
VERTEX
  8
0
  5
2769C
 10
-5.00000
 20
206.468
 30
-4.58579e-14
  70
    32
  0
VERTEX
  8
0
  5
2769D
 10
-5.00000
 20
206.497
 30
-4.58648e-14
  70
    32
  0
VERTEX
  8
0
  5
2769E
 10
-5.00000
 20
206.527
 30
-4.58718e-14
  70
    32
  0
VERTEX
  8
0
  5
2769F
 10
-5.00000
 20
206.557
 30
-4.58788e-14
  70
    32
  0
VERTEX
  8
0
  5
276A0
 10
-5.00000
 20
206.587
 30
-4.58858e-14
  70
    32
  0
VERTEX
  8
0
  5
276A1
 10
-5.00000
 20
206.617
 30
-4.58927e-14
  70
    32
  0
VERTEX
  8
0
  5
276A2
 10
-5.00000
 20
206.647
 30
-4.58997e-14
  70
    32
  0
VERTEX
  8
0
  5
276A3
 10
-5.00000
 20
206.677
 30
-4.59067e-14
  70
    32
  0
VERTEX
  8
0
  5
276A4
 10
-5.00000
 20
206.707
 30
-4.59136e-14
  70
    32
  0
VERTEX
  8
0
  5
276A5
 10
-5.00000
 20
206.737
 30
-4.59206e-14
  70
    32
  0
VERTEX
  8
0
  5
276A6
 10
-5.00000
 20
206.766
 30
-4.59276e-14
  70
    32
  0
VERTEX
  8
0
  5
276A7
 10
-5.00000
 20
206.796
 30
-4.59346e-14
  70
    32
  0
VERTEX
  8
0
  5
276A8
 10
-5.00000
 20
206.826
 30
-4.59415e-14
  70
    32
  0
VERTEX
  8
0
  5
276A9
 10
-5.00000
 20
206.856
 30
-4.59485e-14
  70
    32
  0
VERTEX
  8
0
  5
276AA
 10
-5.00000
 20
206.885
 30
-4.59554e-14
  70
    32
  0
VERTEX
  8
0
  5
276AB
 10
-5.00000
 20
206.915
 30
-4.59624e-14
  70
    32
  0
VERTEX
  8
0
  5
276AC
 10
-5.00000
 20
206.945
 30
-4.59694e-14
  70
    32
  0
VERTEX
  8
0
  5
276AD
 10
-5.00000
 20
206.975
 30
-4.59763e-14
  70
    32
  0
VERTEX
  8
0
  5
276AE
 10
-5.00000
 20
207.004
 30
-4.59832e-14
  70
    32
  0
VERTEX
  8
0
  5
276AF
 10
-5.00000
 20
207.034
 30
-4.59902e-14
  70
    32
  0
VERTEX
  8
0
  5
276B0
 10
-5.00000
 20
207.063
 30
-4.59971e-14
  70
    32
  0
VERTEX
  8
0
  5
276B1
 10
-5.00000
 20
207.093
 30
-4.60040e-14
  70
    32
  0
VERTEX
  8
0
  5
276B2
 10
-5.00000
 20
207.123
 30
-4.60110e-14
  70
    32
  0
VERTEX
  8
0
  5
276B3
 10
-5.00000
 20
207.152
 30
-4.60179e-14
  70
    32
  0
VERTEX
  8
0
  5
276B4
 10
-5.00000
 20
207.182
 30
-4.60248e-14
  70
    32
  0
VERTEX
  8
0
  5
276B5
 10
-5.00000
 20
207.211
 30
-4.60317e-14
  70
    32
  0
VERTEX
  8
0
  5
276B6
 10
-5.00000
 20
207.241
 30
-4.60386e-14
  70
    32
  0
VERTEX
  8
0
  5
276B7
 10
-5.00000
 20
207.270
 30
-4.60455e-14
  70
    32
  0
VERTEX
  8
0
  5
276B8
 10
-5.00000
 20
207.299
 30
-4.60523e-14
  70
    32
  0
VERTEX
  8
0
  5
276B9
 10
-5.00000
 20
207.329
 30
-4.60592e-14
  70
    32
  0
VERTEX
  8
0
  5
276BA
 10
-5.00000
 20
207.358
 30
-4.60660e-14
  70
    32
  0
VERTEX
  8
0
  5
276BB
 10
-5.00000
 20
207.387
 30
-4.60729e-14
  70
    32
  0
VERTEX
  8
0
  5
276BC
 10
-5.00000
 20
207.416
 30
-4.60797e-14
  70
    32
  0
VERTEX
  8
0
  5
276BD
 10
-5.00000
 20
207.446
 30
-4.60865e-14
  70
    32
  0
VERTEX
  8
0
  5
276BE
 10
-5.00000
 20
207.475
 30
-4.60933e-14
  70
    32
  0
VERTEX
  8
0
  5
276BF
 10
-5.00000
 20
207.504
 30
-4.61001e-14
  70
    32
  0
VERTEX
  8
0
  5
276C0
 10
-5.00000
 20
207.533
 30
-4.61069e-14
  70
    32
  0
VERTEX
  8
0
  5
276C1
 10
-5.00000
 20
207.562
 30
-4.61137e-14
  70
    32
  0
VERTEX
  8
0
  5
276C2
 10
-5.00000
 20
207.591
 30
-4.61204e-14
  70
    32
  0
VERTEX
  8
0
  5
276C3
 10
-5.00000
 20
207.620
 30
-4.61272e-14
  70
    32
  0
VERTEX
  8
0
  5
276C4
 10
-5.00000
 20
207.649
 30
-4.61339e-14
  70
    32
  0
VERTEX
  8
0
  5
276C5
 10
-5.00000
 20
207.678
 30
-4.61406e-14
  70
    32
  0
VERTEX
  8
0
  5
276C6
 10
-5.00000
 20
207.707
 30
-4.61473e-14
  70
    32
  0
VERTEX
  8
0
  5
276C7
 10
-5.00000
 20
207.736
 30
-4.61540e-14
  70
    32
  0
VERTEX
  8
0
  5
276C8
 10
-5.00000
 20
207.765
 30
-4.61606e-14
  70
    32
  0
VERTEX
  8
0
  5
276C9
 10
-5.00000
 20
207.793
 30
-4.61673e-14
  70
    32
  0
VERTEX
  8
0
  5
276CA
 10
-5.00000
 20
207.822
 30
-4.61739e-14
  70
    32
  0
VERTEX
  8
0
  5
276CB
 10
-5.00000
 20
207.851
 30
-4.61805e-14
  70
    32
  0
VERTEX
  8
0
  5
276CC
 10
-5.00000
 20
207.879
 30
-4.61871e-14
  70
    32
  0
VERTEX
  8
0
  5
276CD
 10
-5.00000
 20
207.908
 30
-4.61937e-14
  70
    32
  0
VERTEX
  8
0
  5
276CE
 10
-5.00000
 20
207.936
 30
-4.62002e-14
  70
    32
  0
VERTEX
  8
0
  5
276CF
 10
-5.00000
 20
207.965
 30
-4.62068e-14
  70
    32
  0
VERTEX
  8
0
  5
276D0
 10
-5.00000
 20
207.993
 30
-4.62133e-14
  70
    32
  0
VERTEX
  8
0
  5
276D1
 10
-5.00000
 20
208.022
 30
-4.62198e-14
  70
    32
  0
VERTEX
  8
0
  5
276D2
 10
-5.00000
 20
208.050
 30
-4.62262e-14
  70
    32
  0
VERTEX
  8
0
  5
276D3
 10
-5.00000
 20
208.078
 30
-4.62327e-14
  70
    32
  0
VERTEX
  8
0
  5
276D4
 10
-5.00000
 20
208.106
 30
-4.62391e-14
  70
    32
  0
VERTEX
  8
0
  5
276D5
 10
-5.00000
 20
208.135
 30
-4.62455e-14
  70
    32
  0
VERTEX
  8
0
  5
276D6
 10
-5.00000
 20
208.163
 30
-4.62519e-14
  70
    32
  0
VERTEX
  8
0
  5
276D7
 10
-5.00000
 20
208.191
 30
-4.62583e-14
  70
    32
  0
VERTEX
  8
0
  5
276D8
 10
-5.00000
 20
208.219
 30
-4.62646e-14
  70
    32
  0
VERTEX
  8
0
  5
276D9
 10
-5.00000
 20
208.247
 30
-4.62709e-14
  70
    32
  0
VERTEX
  8
0
  5
276DA
 10
-5.00000
 20
208.275
 30
-4.62772e-14
  70
    32
  0
VERTEX
  8
0
  5
276DB
 10
-5.00000
 20
208.302
 30
-4.62835e-14
  70
    32
  0
VERTEX
  8
0
  5
276DC
 10
-5.00000
 20
208.330
 30
-4.62897e-14
  70
    32
  0
VERTEX
  8
0
  5
276DD
 10
-5.00000
 20
208.358
 30
-4.62959e-14
  70
    32
  0
VERTEX
  8
0
  5
276DE
 10
-5.00000
 20
208.386
 30
-4.63021e-14
  70
    32
  0
VERTEX
  8
0
  5
276DF
 10
-5.00000
 20
208.413
 30
-4.63083e-14
  70
    32
  0
VERTEX
  8
0
  5
276E0
 10
-5.00000
 20
208.441
 30
-4.63144e-14
  70
    32
  0
VERTEX
  8
0
  5
276E1
 10
-5.00000
 20
208.468
 30
-4.63205e-14
  70
    32
  0
VERTEX
  8
0
  5
276E2
 10
-5.00000
 20
208.496
 30
-4.63266e-14
  70
    32
  0
VERTEX
  8
0
  5
276E3
 10
-5.00000
 20
208.523
 30
-4.63326e-14
  70
    32
  0
VERTEX
  8
0
  5
276E4
 10
-5.00000
 20
208.550
 30
-4.63387e-14
  70
    32
  0
VERTEX
  8
0
  5
276E5
 10
-5.00000
 20
208.577
 30
-4.63447e-14
  70
    32
  0
VERTEX
  8
0
  5
276E6
 10
-5.00000
 20
208.605
 30
-4.63506e-14
  70
    32
  0
VERTEX
  8
0
  5
276E7
 10
-5.00000
 20
208.632
 30
-4.63565e-14
  70
    32
  0
VERTEX
  8
0
  5
276E8
 10
-5.00000
 20
208.659
 30
-4.63624e-14
  70
    32
  0
VERTEX
  8
0
  5
276E9
 10
-5.00000
 20
208.686
 30
-4.63683e-14
  70
    32
  0
VERTEX
  8
0
  5
276EA
 10
-5.00000
 20
208.713
 30
-4.63742e-14
  70
    32
  0
VERTEX
  8
0
  5
276EB
 10
-5.00000
 20
208.739
 30
-4.63800e-14
  70
    32
  0
VERTEX
  8
0
  5
276EC
 10
-5.00000
 20
208.766
 30
-4.63857e-14
  70
    32
  0
VERTEX
  8
0
  5
276ED
 10
-5.00000
 20
208.793
 30
-4.63915e-14
  70
    32
  0
VERTEX
  8
0
  5
276EE
 10
-5.00000
 20
208.819
 30
-4.63972e-14
  70
    32
  0
VERTEX
  8
0
  5
276EF
 10
-5.00000
 20
208.846
 30
-4.64029e-14
  70
    32
  0
VERTEX
  8
0
  5
276F0
 10
-5.00000
 20
208.872
 30
-4.64085e-14
  70
    32
  0
VERTEX
  8
0
  5
276F1
 10
-5.00000
 20
208.899
 30
-4.64141e-14
  70
    32
  0
VERTEX
  8
0
  5
276F2
 10
-5.00000
 20
208.925
 30
-4.64197e-14
  70
    32
  0
VERTEX
  8
0
  5
276F3
 10
-5.00000
 20
208.951
 30
-4.64252e-14
  70
    32
  0
VERTEX
  8
0
  5
276F4
 10
-5.00000
 20
208.977
 30
-4.64307e-14
  70
    32
  0
VERTEX
  8
0
  5
276F5
 10
-5.00000
 20
209.004
 30
-4.64362e-14
  70
    32
  0
VERTEX
  8
0
  5
276F6
 10
-5.00000
 20
209.030
 30
-4.64416e-14
  70
    32
  0
VERTEX
  8
0
  5
276F7
 10
-5.00000
 20
209.055
 30
-4.64470e-14
  70
    32
  0
VERTEX
  8
0
  5
276F8
 10
-5.00000
 20
209.081
 30
-4.64523e-14
  70
    32
  0
VERTEX
  8
0
  5
276F9
 10
-5.00000
 20
209.107
 30
-4.64577e-14
  70
    32
  0
VERTEX
  8
0
  5
276FA
 10
-5.00000
 20
209.133
 30
-4.64631e-14
  70
    32
  0
VERTEX
  8
0
  5
276FB
 10
-5.00000
 20
209.159
 30
-4.64685e-14
  70
    32
  0
VERTEX
  8
0
  5
276FC
 10
-5.00000
 20
209.185
 30
-4.64740e-14
  70
    32
  0
VERTEX
  8
0
  5
276FD
 10
-5.00000
 20
209.211
 30
-4.64795e-14
  70
    32
  0
VERTEX
  8
0
  5
276FE
 10
-5.00000
 20
209.237
 30
-4.64850e-14
  70
    32
  0
VERTEX
  8
0
  5
276FF
 10
-5.00000
 20
209.263
 30
-4.64906e-14
  70
    32
  0
VERTEX
  8
0
  5
27700
 10
-5.00000
 20
209.289
 30
-4.64962e-14
  70
    32
  0
VERTEX
  8
0
  5
27701
 10
-5.00000
 20
209.315
 30
-4.65019e-14
  70
    32
  0
VERTEX
  8
0
  5
27702
 10
-5.00000
 20
209.341
 30
-4.65076e-14
  70
    32
  0
VERTEX
  8
0
  5
27703
 10
-5.00000
 20
209.367
 30
-4.65133e-14
  70
    32
  0
VERTEX
  8
0
  5
27704
 10
-5.00000
 20
209.393
 30
-4.65191e-14
  70
    32
  0
VERTEX
  8
0
  5
27705
 10
-5.00000
 20
209.419
 30
-4.65248e-14
  70
    32
  0
VERTEX
  8
0
  5
27706
 10
-5.00000
 20
209.445
 30
-4.65306e-14
  70
    32
  0
VERTEX
  8
0
  5
27707
 10
-5.00000
 20
209.471
 30
-4.65365e-14
  70
    32
  0
VERTEX
  8
0
  5
27708
 10
-5.00000
 20
209.497
 30
-4.65423e-14
  70
    32
  0
VERTEX
  8
0
  5
27709
 10
-5.00000
 20
209.524
 30
-4.65482e-14
  70
    32
  0
VERTEX
  8
0
  5
2770A
 10
-5.00000
 20
209.550
 30
-4.65540e-14
  70
    32
  0
VERTEX
  8
0
  5
2770B
 10
-5.00000
 20
209.576
 30
-4.65600e-14
  70
    32
  0
VERTEX
  8
0
  5
2770C
 10
-5.00000
 20
209.602
 30
-4.65659e-14
  70
    32
  0
VERTEX
  8
0
  5
2770D
 10
-5.00000
 20
209.629
 30
-4.65718e-14
  70
    32
  0
VERTEX
  8
0
  5
2770E
 10
-5.00000
 20
209.655
 30
-4.65777e-14
  70
    32
  0
VERTEX
  8
0
  5
2770F
 10
-5.00000
 20
209.681
 30
-4.65837e-14
  70
    32
  0
VERTEX
  8
0
  5
27710
 10
-5.00000
 20
209.707
 30
-4.65897e-14
  70
    32
  0
VERTEX
  8
0
  5
27711
 10
-5.00000
 20
209.734
 30
-4.65956e-14
  70
    32
  0
VERTEX
  8
0
  5
27712
 10
-5.00000
 20
209.760
 30
-4.66016e-14
  70
    32
  0
VERTEX
  8
0
  5
27713
 10
-5.00000
 20
209.786
 30
-4.66076e-14
  70
    32
  0
VERTEX
  8
0
  5
27714
 10
-5.00000
 20
209.813
 30
-4.66136e-14
  70
    32
  0
VERTEX
  8
0
  5
27715
 10
-5.00000
 20
209.839
 30
-4.66196e-14
  70
    32
  0
VERTEX
  8
0
  5
27716
 10
-5.00000
 20
209.865
 30
-4.66256e-14
  70
    32
  0
VERTEX
  8
0
  5
27717
 10
-5.00000
 20
209.892
 30
-4.66315e-14
  70
    32
  0
VERTEX
  8
0
  5
27718
 10
-5.00000
 20
209.918
 30
-4.66375e-14
  70
    32
  0
VERTEX
  8
0
  5
27719
 10
-5.00000
 20
209.944
 30
-4.66435e-14
  70
    32
  0
VERTEX
  8
0
  5
2771A
 10
-5.00000
 20
209.971
 30
-4.66495e-14
  70
    32
  0
VERTEX
  8
0
  5
2771B
 10
-5.00000
 20
209.997
 30
-4.66554e-14
  70
    32
  0
VERTEX
  8
0
  5
2771C
 10
-5.00000
 20
210.023
 30
-4.66614e-14
  70
    32
  0
VERTEX
  8
0
  5
2771D
 10
-5.00000
 20
210.050
 30
-4.66673e-14
  70
    32
  0
VERTEX
  8
0
  5
2771E
 10
-5.00000
 20
210.076
 30
-4.66732e-14
  70
    32
  0
VERTEX
  8
0
  5
2771F
 10
-5.00000
 20
210.102
 30
-4.66791e-14
  70
    32
  0
VERTEX
  8
0
  5
27720
 10
-5.00000
 20
210.129
 30
-4.66850e-14
  70
    32
  0
VERTEX
  8
0
  5
27721
 10
-5.00000
 20
210.155
 30
-4.66909e-14
  70
    32
  0
VERTEX
  8
0
  5
27722
 10
-5.00000
 20
210.182
 30
-4.66968e-14
  70
    32
  0
VERTEX
  8
0
  5
27723
 10
-5.00000
 20
210.208
 30
-4.67026e-14
  70
    32
  0
VERTEX
  8
0
  5
27724
 10
-5.00000
 20
210.234
 30
-4.67084e-14
  70
    32
  0
VERTEX
  8
0
  5
27725
 10
-5.00000
 20
210.261
 30
-4.67142e-14
  70
    32
  0
VERTEX
  8
0
  5
27726
 10
-5.00000
 20
210.287
 30
-4.67200e-14
  70
    32
  0
VERTEX
  8
0
  5
27727
 10
-5.00000
 20
210.313
 30
-4.67257e-14
  70
    32
  0
VERTEX
  8
0
  5
27728
 10
-5.00000
 20
210.339
 30
-4.67314e-14
  70
    32
  0
VERTEX
  8
0
  5
27729
 10
-5.00000
 20
210.366
 30
-4.67371e-14
  70
    32
  0
VERTEX
  8
0
  5
2772A
 10
-5.00000
 20
210.392
 30
-4.67427e-14
  70
    32
  0
VERTEX
  8
0
  5
2772B
 10
-5.00000
 20
210.418
 30
-4.67483e-14
  70
    32
  0
VERTEX
  8
0
  5
2772C
 10
-5.00000
 20
210.445
 30
-4.67539e-14
  70
    32
  0
VERTEX
  8
0
  5
2772D
 10
-5.00000
 20
210.471
 30
-4.67594e-14
  70
    32
  0
VERTEX
  8
0
  5
2772E
 10
-5.00000
 20
210.497
 30
-4.67649e-14
  70
    32
  0
VERTEX
  8
0
  5
2772F
 10
-5.00000
 20
210.523
 30
-4.67704e-14
  70
    32
  0
VERTEX
  8
0
  5
27730
 10
-5.00000
 20
210.549
 30
-4.67758e-14
  70
    32
  0
VERTEX
  8
0
  5
27731
 10
-5.00000
 20
210.576
 30
-4.67811e-14
  70
    32
  0
VERTEX
  8
0
  5
27732
 10
-5.00000
 20
210.602
 30
-4.67865e-14
  70
    32
  0
VERTEX
  8
0
  5
27733
 10
-5.00000
 20
210.628
 30
-4.67917e-14
  70
    32
  0
VERTEX
  8
0
  5
27734
 10
-5.00000
 20
210.654
 30
-4.67970e-14
  70
    32
  0
VERTEX
  8
0
  5
27735
 10
-5.00000
 20
210.680
 30
-4.68021e-14
  70
    32
  0
VERTEX
  8
0
  5
27736
 10
-5.00000
 20
210.706
 30
-4.68073e-14
  70
    32
  0
VERTEX
  8
0
  5
27737
 10
-5.00000
 20
210.732
 30
-4.68123e-14
  70
    32
  0
VERTEX
  8
0
  5
27738
 10
-5.00000
 20
210.758
 30
-4.68173e-14
  70
    32
  0
VERTEX
  8
0
  5
27739
 10
-5.00000
 20
210.784
 30
-4.68223e-14
  70
    32
  0
VERTEX
  8
0
  5
2773A
 10
-5.00000
 20
210.810
 30
-4.68272e-14
  70
    32
  0
VERTEX
  8
0
  5
2773B
 10
-5.00000
 20
210.836
 30
-4.68320e-14
  70
    32
  0
VERTEX
  8
0
  5
2773C
 10
-5.00000
 20
210.862
 30
-4.68368e-14
  70
    32
  0
VERTEX
  8
0
  5
2773D
 10
-5.00000
 20
210.888
 30
-4.68415e-14
  70
    32
  0
VERTEX
  8
0
  5
2773E
 10
-5.00000
 20
210.914
 30
-4.68462e-14
  70
    32
  0
VERTEX
  8
0
  5
2773F
 10
-5.00000
 20
210.940
 30
-4.68508e-14
  70
    32
  0
VERTEX
  8
0
  5
27740
 10
-5.00000
 20
210.966
 30
-4.68553e-14
  70
    32
  0
VERTEX
  8
0
  5
27741
 10
-5.00000
 20
210.992
 30
-4.68597e-14
  70
    32
  0
VERTEX
  8
0
  5
27742
 10
-5.00000
 20
211.017
 30
-4.68641e-14
  70
    32
  0
VERTEX
  8
0
  5
27743
 10
-5.00000
 20
211.043
 30
-4.68684e-14
  70
    32
  0
VERTEX
  8
0
  5
27744
 10
-5.00000
 20
211.069
 30
-4.68726e-14
  70
    32
  0
VERTEX
  8
0
  5
27745
 10
-5.00000
 20
211.095
 30
-4.68768e-14
  70
    32
  0
VERTEX
  8
0
  5
27746
 10
-5.00000
 20
211.120
 30
-4.68809e-14
  70
    32
  0
VERTEX
  8
0
  5
27747
 10
-5.00000
 20
211.146
 30
-4.68848e-14
  70
    32
  0
VERTEX
  8
0
  5
27748
 10
-5.00000
 20
211.171
 30
-4.68888e-14
  70
    32
  0
VERTEX
  8
0
  5
27749
 10
-5.00000
 20
211.197
 30
-4.68926e-14
  70
    32
  0
VERTEX
  8
0
  5
2774A
 10
-5.00000
 20
211.222
 30
-4.68963e-14
  70
    32
  0
VERTEX
  8
0
  5
2774B
 10
-5.00000
 20
211.248
 30
-4.69000e-14
  70
    32
  0
SEQEND
  8
0
  5
2774C
  0
POLYLINE
  8
0
  5
2774D
  62
1
  66
     1
 10
0.000000
 20
0.000000
 30
0.000000
  70
     8
  0
VERTEX
  8
0
  5
2774E
 10
5.00000
 20
211.248
 30
-4.69000e-14
  70
    32
  0
VERTEX
  8
0
  5
2774F
 10
5.00000
 20
211.222
 30
-4.68963e-14
  70
    32
  0
VERTEX
  8
0
  5
27750
 10
5.00000
 20
211.197
 30
-4.68926e-14
  70
    32
  0
VERTEX
  8
0
  5
27751
 10
5.00000
 20
211.171
 30
-4.68888e-14
  70
    32
  0
VERTEX
  8
0
  5
27752
 10
5.00000
 20
211.146
 30
-4.68848e-14
  70
    32
  0
VERTEX
  8
0
  5
27753
 10
5.00000
 20
211.120
 30
-4.68809e-14
  70
    32
  0
VERTEX
  8
0
  5
27754
 10
5.00000
 20
211.095
 30
-4.68768e-14
  70
    32
  0
VERTEX
  8
0
  5
27755
 10
5.00000
 20
211.069
 30
-4.68726e-14
  70
    32
  0
VERTEX
  8
0
  5
27756
 10
5.00000
 20
211.043
 30
-4.68684e-14
  70
    32
  0
VERTEX
  8
0
  5
27757
 10
5.00000
 20
211.017
 30
-4.68641e-14
  70
    32
  0
VERTEX
  8
0
  5
27758
 10
5.00000
 20
210.992
 30
-4.68597e-14
  70
    32
  0
VERTEX
  8
0
  5
27759
 10
5.00000
 20
210.966
 30
-4.68553e-14
  70
    32
  0
VERTEX
  8
0
  5
2775A
 10
5.00000
 20
210.940
 30
-4.68508e-14
  70
    32
  0
VERTEX
  8
0
  5
2775B
 10
5.00000
 20
210.914
 30
-4.68462e-14
  70
    32
  0
VERTEX
  8
0
  5
2775C
 10
5.00000
 20
210.888
 30
-4.68415e-14
  70
    32
  0
VERTEX
  8
0
  5
2775D
 10
5.00000
 20
210.862
 30
-4.68368e-14
  70
    32
  0
VERTEX
  8
0
  5
2775E
 10
5.00000
 20
210.836
 30
-4.68320e-14
  70
    32
  0
VERTEX
  8
0
  5
2775F
 10
5.00000
 20
210.810
 30
-4.68272e-14
  70
    32
  0
VERTEX
  8
0
  5
27760
 10
5.00000
 20
210.784
 30
-4.68223e-14
  70
    32
  0
VERTEX
  8
0
  5
27761
 10
5.00000
 20
210.758
 30
-4.68173e-14
  70
    32
  0
VERTEX
  8
0
  5
27762
 10
5.00000
 20
210.732
 30
-4.68123e-14
  70
    32
  0
VERTEX
  8
0
  5
27763
 10
5.00000
 20
210.706
 30
-4.68073e-14
  70
    32
  0
VERTEX
  8
0
  5
27764
 10
5.00000
 20
210.680
 30
-4.68021e-14
  70
    32
  0
VERTEX
  8
0
  5
27765
 10
5.00000
 20
210.654
 30
-4.67970e-14
  70
    32
  0
VERTEX
  8
0
  5
27766
 10
5.00000
 20
210.628
 30
-4.67917e-14
  70
    32
  0
VERTEX
  8
0
  5
27767
 10
5.00000
 20
210.602
 30
-4.67865e-14
  70
    32
  0
VERTEX
  8
0
  5
27768
 10
5.00000
 20
210.576
 30
-4.67811e-14
  70
    32
  0
VERTEX
  8
0
  5
27769
 10
5.00000
 20
210.549
 30
-4.67758e-14
  70
    32
  0
VERTEX
  8
0
  5
2776A
 10
5.00000
 20
210.523
 30
-4.67704e-14
  70
    32
  0
VERTEX
  8
0
  5
2776B
 10
5.00000
 20
210.497
 30
-4.67649e-14
  70
    32
  0
VERTEX
  8
0
  5
2776C
 10
5.00000
 20
210.471
 30
-4.67594e-14
  70
    32
  0
VERTEX
  8
0
  5
2776D
 10
5.00000
 20
210.445
 30
-4.67539e-14
  70
    32
  0
VERTEX
  8
0
  5
2776E
 10
5.00000
 20
210.418
 30
-4.67483e-14
  70
    32
  0
VERTEX
  8
0
  5
2776F
 10
5.00000
 20
210.392
 30
-4.67427e-14
  70
    32
  0
VERTEX
  8
0
  5
27770
 10
5.00000
 20
210.366
 30
-4.67371e-14
  70
    32
  0
VERTEX
  8
0
  5
27771
 10
5.00000
 20
210.339
 30
-4.67314e-14
  70
    32
  0
VERTEX
  8
0
  5
27772
 10
5.00000
 20
210.313
 30
-4.67257e-14
  70
    32
  0
VERTEX
  8
0
  5
27773
 10
5.00000
 20
210.287
 30
-4.67200e-14
  70
    32
  0
VERTEX
  8
0
  5
27774
 10
5.00000
 20
210.261
 30
-4.67142e-14
  70
    32
  0
VERTEX
  8
0
  5
27775
 10
5.00000
 20
210.234
 30
-4.67084e-14
  70
    32
  0
VERTEX
  8
0
  5
27776
 10
5.00000
 20
210.208
 30
-4.67026e-14
  70
    32
  0
VERTEX
  8
0
  5
27777
 10
5.00000
 20
210.182
 30
-4.66968e-14
  70
    32
  0
VERTEX
  8
0
  5
27778
 10
5.00000
 20
210.155
 30
-4.66909e-14
  70
    32
  0
VERTEX
  8
0
  5
27779
 10
5.00000
 20
210.129
 30
-4.66850e-14
  70
    32
  0
VERTEX
  8
0
  5
2777A
 10
5.00000
 20
210.102
 30
-4.66791e-14
  70
    32
  0
VERTEX
  8
0
  5
2777B
 10
5.00000
 20
210.076
 30
-4.66732e-14
  70
    32
  0
VERTEX
  8
0
  5
2777C
 10
5.00000
 20
210.050
 30
-4.66673e-14
  70
    32
  0
VERTEX
  8
0
  5
2777D
 10
5.00000
 20
210.023
 30
-4.66614e-14
  70
    32
  0
VERTEX
  8
0
  5
2777E
 10
5.00000
 20
209.997
 30
-4.66554e-14
  70
    32
  0
VERTEX
  8
0
  5
2777F
 10
5.00000
 20
209.971
 30
-4.66495e-14
  70
    32
  0
VERTEX
  8
0
  5
27780
 10
5.00000
 20
209.944
 30
-4.66435e-14
  70
    32
  0
VERTEX
  8
0
  5
27781
 10
5.00000
 20
209.918
 30
-4.66375e-14
  70
    32
  0
VERTEX
  8
0
  5
27782
 10
5.00000
 20
209.892
 30
-4.66315e-14
  70
    32
  0
VERTEX
  8
0
  5
27783
 10
5.00000
 20
209.865
 30
-4.66256e-14
  70
    32
  0
VERTEX
  8
0
  5
27784
 10
5.00000
 20
209.839
 30
-4.66196e-14
  70
    32
  0
VERTEX
  8
0
  5
27785
 10
5.00000
 20
209.813
 30
-4.66136e-14
  70
    32
  0
VERTEX
  8
0
  5
27786
 10
5.00000
 20
209.786
 30
-4.66076e-14
  70
    32
  0
VERTEX
  8
0
  5
27787
 10
5.00000
 20
209.760
 30
-4.66016e-14
  70
    32
  0
VERTEX
  8
0
  5
27788
 10
5.00000
 20
209.734
 30
-4.65956e-14
  70
    32
  0
VERTEX
  8
0
  5
27789
 10
5.00000
 20
209.707
 30
-4.65897e-14
  70
    32
  0
VERTEX
  8
0
  5
2778A
 10
5.00000
 20
209.681
 30
-4.65837e-14
  70
    32
  0
VERTEX
  8
0
  5
2778B
 10
5.00000
 20
209.655
 30
-4.65777e-14
  70
    32
  0
VERTEX
  8
0
  5
2778C
 10
5.00000
 20
209.629
 30
-4.65718e-14
  70
    32
  0
VERTEX
  8
0
  5
2778D
 10
5.00000
 20
209.602
 30
-4.65659e-14
  70
    32
  0
VERTEX
  8
0
  5
2778E
 10
5.00000
 20
209.576
 30
-4.65600e-14
  70
    32
  0
VERTEX
  8
0
  5
2778F
 10
5.00000
 20
209.550
 30
-4.65540e-14
  70
    32
  0
VERTEX
  8
0
  5
27790
 10
5.00000
 20
209.524
 30
-4.65482e-14
  70
    32
  0
VERTEX
  8
0
  5
27791
 10
5.00000
 20
209.497
 30
-4.65423e-14
  70
    32
  0
VERTEX
  8
0
  5
27792
 10
5.00000
 20
209.471
 30
-4.65365e-14
  70
    32
  0
VERTEX
  8
0
  5
27793
 10
5.00000
 20
209.445
 30
-4.65306e-14
  70
    32
  0
VERTEX
  8
0
  5
27794
 10
5.00000
 20
209.419
 30
-4.65248e-14
  70
    32
  0
VERTEX
  8
0
  5
27795
 10
5.00000
 20
209.393
 30
-4.65191e-14
  70
    32
  0
VERTEX
  8
0
  5
27796
 10
5.00000
 20
209.367
 30
-4.65133e-14
  70
    32
  0
VERTEX
  8
0
  5
27797
 10
5.00000
 20
209.341
 30
-4.65076e-14
  70
    32
  0
VERTEX
  8
0
  5
27798
 10
5.00000
 20
209.315
 30
-4.65019e-14
  70
    32
  0
VERTEX
  8
0
  5
27799
 10
5.00000
 20
209.289
 30
-4.64962e-14
  70
    32
  0
VERTEX
  8
0
  5
2779A
 10
5.00000
 20
209.263
 30
-4.64906e-14
  70
    32
  0
VERTEX
  8
0
  5
2779B
 10
5.00000
 20
209.237
 30
-4.64850e-14
  70
    32
  0
VERTEX
  8
0
  5
2779C
 10
5.00000
 20
209.211
 30
-4.64795e-14
  70
    32
  0
VERTEX
  8
0
  5
2779D
 10
5.00000
 20
209.185
 30
-4.64740e-14
  70
    32
  0
VERTEX
  8
0
  5
2779E
 10
5.00000
 20
209.159
 30
-4.64685e-14
  70
    32
  0
VERTEX
  8
0
  5
2779F
 10
5.00000
 20
209.133
 30
-4.64631e-14
  70
    32
  0
VERTEX
  8
0
  5
277A0
 10
5.00000
 20
209.107
 30
-4.64577e-14
  70
    32
  0
VERTEX
  8
0
  5
277A1
 10
5.00000
 20
209.081
 30
-4.64523e-14
  70
    32
  0
VERTEX
  8
0
  5
277A2
 10
5.00000
 20
209.055
 30
-4.64470e-14
  70
    32
  0
VERTEX
  8
0
  5
277A3
 10
5.00000
 20
209.030
 30
-4.64416e-14
  70
    32
  0
VERTEX
  8
0
  5
277A4
 10
5.00000
 20
209.004
 30
-4.64362e-14
  70
    32
  0
VERTEX
  8
0
  5
277A5
 10
5.00000
 20
208.977
 30
-4.64307e-14
  70
    32
  0
VERTEX
  8
0
  5
277A6
 10
5.00000
 20
208.951
 30
-4.64252e-14
  70
    32
  0
VERTEX
  8
0
  5
277A7
 10
5.00000
 20
208.925
 30
-4.64197e-14
  70
    32
  0
VERTEX
  8
0
  5
277A8
 10
5.00000
 20
208.899
 30
-4.64141e-14
  70
    32
  0
VERTEX
  8
0
  5
277A9
 10
5.00000
 20
208.872
 30
-4.64085e-14
  70
    32
  0
VERTEX
  8
0
  5
277AA
 10
5.00000
 20
208.846
 30
-4.64029e-14
  70
    32
  0
VERTEX
  8
0
  5
277AB
 10
5.00000
 20
208.819
 30
-4.63972e-14
  70
    32
  0
VERTEX
  8
0
  5
277AC
 10
5.00000
 20
208.793
 30
-4.63915e-14
  70
    32
  0
VERTEX
  8
0
  5
277AD
 10
5.00000
 20
208.766
 30
-4.63857e-14
  70
    32
  0
VERTEX
  8
0
  5
277AE
 10
5.00000
 20
208.739
 30
-4.63800e-14
  70
    32
  0
VERTEX
  8
0
  5
277AF
 10
5.00000
 20
208.713
 30
-4.63742e-14
  70
    32
  0
VERTEX
  8
0
  5
277B0
 10
5.00000
 20
208.686
 30
-4.63683e-14
  70
    32
  0
VERTEX
  8
0
  5
277B1
 10
5.00000
 20
208.659
 30
-4.63624e-14
  70
    32
  0
VERTEX
  8
0
  5
277B2
 10
5.00000
 20
208.632
 30
-4.63565e-14
  70
    32
  0
VERTEX
  8
0
  5
277B3
 10
5.00000
 20
208.605
 30
-4.63506e-14
  70
    32
  0
VERTEX
  8
0
  5
277B4
 10
5.00000
 20
208.577
 30
-4.63447e-14
  70
    32
  0
VERTEX
  8
0
  5
277B5
 10
5.00000
 20
208.550
 30
-4.63387e-14
  70
    32
  0
VERTEX
  8
0
  5
277B6
 10
5.00000
 20
208.523
 30
-4.63326e-14
  70
    32
  0
VERTEX
  8
0
  5
277B7
 10
5.00000
 20
208.496
 30
-4.63266e-14
  70
    32
  0
VERTEX
  8
0
  5
277B8
 10
5.00000
 20
208.468
 30
-4.63205e-14
  70
    32
  0
VERTEX
  8
0
  5
277B9
 10
5.00000
 20
208.441
 30
-4.63144e-14
  70
    32
  0
VERTEX
  8
0
  5
277BA
 10
5.00000
 20
208.413
 30
-4.63083e-14
  70
    32
  0
VERTEX
  8
0
  5
277BB
 10
5.00000
 20
208.386
 30
-4.63021e-14
  70
    32
  0
VERTEX
  8
0
  5
277BC
 10
5.00000
 20
208.358
 30
-4.62959e-14
  70
    32
  0
VERTEX
  8
0
  5
277BD
 10
5.00000
 20
208.330
 30
-4.62897e-14
  70
    32
  0
VERTEX
  8
0
  5
277BE
 10
5.00000
 20
208.302
 30
-4.62835e-14
  70
    32
  0
VERTEX
  8
0
  5
277BF
 10
5.00000
 20
208.275
 30
-4.62772e-14
  70
    32
  0
VERTEX
  8
0
  5
277C0
 10
5.00000
 20
208.247
 30
-4.62709e-14
  70
    32
  0
VERTEX
  8
0
  5
277C1
 10
5.00000
 20
208.219
 30
-4.62646e-14
  70
    32
  0
VERTEX
  8
0
  5
277C2
 10
5.00000
 20
208.191
 30
-4.62583e-14
  70
    32
  0
VERTEX
  8
0
  5
277C3
 10
5.00000
 20
208.163
 30
-4.62519e-14
  70
    32
  0
VERTEX
  8
0
  5
277C4
 10
5.00000
 20
208.135
 30
-4.62455e-14
  70
    32
  0
VERTEX
  8
0
  5
277C5
 10
5.00000
 20
208.106
 30
-4.62391e-14
  70
    32
  0
VERTEX
  8
0
  5
277C6
 10
5.00000
 20
208.078
 30
-4.62327e-14
  70
    32
  0
VERTEX
  8
0
  5
277C7
 10
5.00000
 20
208.050
 30
-4.62262e-14
  70
    32
  0
VERTEX
  8
0
  5
277C8
 10
5.00000
 20
208.022
 30
-4.62198e-14
  70
    32
  0
VERTEX
  8
0
  5
277C9
 10
5.00000
 20
207.993
 30
-4.62133e-14
  70
    32
  0
VERTEX
  8
0
  5
277CA
 10
5.00000
 20
207.965
 30
-4.62068e-14
  70
    32
  0
VERTEX
  8
0
  5
277CB
 10
5.00000
 20
207.936
 30
-4.62002e-14
  70
    32
  0
VERTEX
  8
0
  5
277CC
 10
5.00000
 20
207.908
 30
-4.61937e-14
  70
    32
  0
VERTEX
  8
0
  5
277CD
 10
5.00000
 20
207.879
 30
-4.61871e-14
  70
    32
  0
VERTEX
  8
0
  5
277CE
 10
5.00000
 20
207.851
 30
-4.61805e-14
  70
    32
  0
VERTEX
  8
0
  5
277CF
 10
5.00000
 20
207.822
 30
-4.61739e-14
  70
    32
  0
VERTEX
  8
0
  5
277D0
 10
5.00000
 20
207.793
 30
-4.61673e-14
  70
    32
  0
VERTEX
  8
0
  5
277D1
 10
5.00000
 20
207.765
 30
-4.61606e-14
  70
    32
  0
VERTEX
  8
0
  5
277D2
 10
5.00000
 20
207.736
 30
-4.61540e-14
  70
    32
  0
VERTEX
  8
0
  5
277D3
 10
5.00000
 20
207.707
 30
-4.61473e-14
  70
    32
  0
VERTEX
  8
0
  5
277D4
 10
5.00000
 20
207.678
 30
-4.61406e-14
  70
    32
  0
VERTEX
  8
0
  5
277D5
 10
5.00000
 20
207.649
 30
-4.61339e-14
  70
    32
  0
VERTEX
  8
0
  5
277D6
 10
5.00000
 20
207.620
 30
-4.61272e-14
  70
    32
  0
VERTEX
  8
0
  5
277D7
 10
5.00000
 20
207.591
 30
-4.61204e-14
  70
    32
  0
VERTEX
  8
0
  5
277D8
 10
5.00000
 20
207.562
 30
-4.61137e-14
  70
    32
  0
VERTEX
  8
0
  5
277D9
 10
5.00000
 20
207.533
 30
-4.61069e-14
  70
    32
  0
VERTEX
  8
0
  5
277DA
 10
5.00000
 20
207.504
 30
-4.61001e-14
  70
    32
  0
VERTEX
  8
0
  5
277DB
 10
5.00000
 20
207.475
 30
-4.60933e-14
  70
    32
  0
VERTEX
  8
0
  5
277DC
 10
5.00000
 20
207.446
 30
-4.60865e-14
  70
    32
  0
VERTEX
  8
0
  5
277DD
 10
5.00000
 20
207.416
 30
-4.60797e-14
  70
    32
  0
VERTEX
  8
0
  5
277DE
 10
5.00000
 20
207.387
 30
-4.60729e-14
  70
    32
  0
VERTEX
  8
0
  5
277DF
 10
5.00000
 20
207.358
 30
-4.60660e-14
  70
    32
  0
VERTEX
  8
0
  5
277E0
 10
5.00000
 20
207.329
 30
-4.60592e-14
  70
    32
  0
VERTEX
  8
0
  5
277E1
 10
5.00000
 20
207.299
 30
-4.60523e-14
  70
    32
  0
VERTEX
  8
0
  5
277E2
 10
5.00000
 20
207.270
 30
-4.60455e-14
  70
    32
  0
VERTEX
  8
0
  5
277E3
 10
5.00000
 20
207.241
 30
-4.60386e-14
  70
    32
  0
VERTEX
  8
0
  5
277E4
 10
5.00000
 20
207.211
 30
-4.60317e-14
  70
    32
  0
VERTEX
  8
0
  5
277E5
 10
5.00000
 20
207.182
 30
-4.60248e-14
  70
    32
  0
VERTEX
  8
0
  5
277E6
 10
5.00000
 20
207.152
 30
-4.60179e-14
  70
    32
  0
VERTEX
  8
0
  5
277E7
 10
5.00000
 20
207.123
 30
-4.60110e-14
  70
    32
  0
VERTEX
  8
0
  5
277E8
 10
5.00000
 20
207.093
 30
-4.60040e-14
  70
    32
  0
VERTEX
  8
0
  5
277E9
 10
5.00000
 20
207.063
 30
-4.59971e-14
  70
    32
  0
VERTEX
  8
0
  5
277EA
 10
5.00000
 20
207.034
 30
-4.59902e-14
  70
    32
  0
VERTEX
  8
0
  5
277EB
 10
5.00000
 20
207.004
 30
-4.59832e-14
  70
    32
  0
VERTEX
  8
0
  5
277EC
 10
5.00000
 20
206.975
 30
-4.59763e-14
  70
    32
  0
VERTEX
  8
0
  5
277ED
 10
5.00000
 20
206.945
 30
-4.59694e-14
  70
    32
  0
VERTEX
  8
0
  5
277EE
 10
5.00000
 20
206.915
 30
-4.59624e-14
  70
    32
  0
VERTEX
  8
0
  5
277EF
 10
5.00000
 20
206.885
 30
-4.59554e-14
  70
    32
  0
VERTEX
  8
0
  5
277F0
 10
5.00000
 20
206.856
 30
-4.59485e-14
  70
    32
  0
VERTEX
  8
0
  5
277F1
 10
5.00000
 20
206.826
 30
-4.59415e-14
  70
    32
  0
VERTEX
  8
0
  5
277F2
 10
5.00000
 20
206.796
 30
-4.59346e-14
  70
    32
  0
VERTEX
  8
0
  5
277F3
 10
5.00000
 20
206.766
 30
-4.59276e-14
  70
    32
  0
VERTEX
  8
0
  5
277F4
 10
5.00000
 20
206.737
 30
-4.59206e-14
  70
    32
  0
VERTEX
  8
0
  5
277F5
 10
5.00000
 20
206.707
 30
-4.59136e-14
  70
    32
  0
VERTEX
  8
0
  5
277F6
 10
5.00000
 20
206.677
 30
-4.59067e-14
  70
    32
  0
VERTEX
  8
0
  5
277F7
 10
5.00000
 20
206.647
 30
-4.58997e-14
  70
    32
  0
VERTEX
  8
0
  5
277F8
 10
5.00000
 20
206.617
 30
-4.58927e-14
  70
    32
  0
VERTEX
  8
0
  5
277F9
 10
5.00000
 20
206.587
 30
-4.58858e-14
  70
    32
  0
VERTEX
  8
0
  5
277FA
 10
5.00000
 20
206.557
 30
-4.58788e-14
  70
    32
  0
VERTEX
  8
0
  5
277FB
 10
5.00000
 20
206.527
 30
-4.58718e-14
  70
    32
  0
VERTEX
  8
0
  5
277FC
 10
5.00000
 20
206.497
 30
-4.58648e-14
  70
    32
  0
VERTEX
  8
0
  5
277FD
 10
5.00000
 20
206.468
 30
-4.58579e-14
  70
    32
  0
VERTEX
  8
0
  5
277FE
 10
5.00000
 20
206.438
 30
-4.58509e-14
  70
    32
  0
VERTEX
  8
0
  5
277FF
 10
5.00000
 20
206.408
 30
-4.58439e-14
  70
    32
  0
VERTEX
  8
0
  5
27800
 10
5.00000
 20
206.378
 30
-4.58369e-14
  70
    32
  0
VERTEX
  8
0
  5
27801
 10
5.00000
 20
206.348
 30
-4.58300e-14
  70
    32
  0
VERTEX
  8
0
  5
27802
 10
5.00000
 20
206.318
 30
-4.58230e-14
  70
    32
  0
VERTEX
  8
0
  5
27803
 10
5.00000
 20
206.288
 30
-4.58160e-14
  70
    32
  0
VERTEX
  8
0
  5
27804
 10
5.00000
 20
206.258
 30
-4.58090e-14
  70
    32
  0
VERTEX
  8
0
  5
27805
 10
5.00000
 20
206.228
 30
-4.58021e-14
  70
    32
  0
VERTEX
  8
0
  5
27806
 10
5.00000
 20
206.198
 30
-4.57951e-14
  70
    32
  0
VERTEX
  8
0
  5
27807
 10
5.00000
 20
206.168
 30
-4.57881e-14
  70
    32
  0
VERTEX
  8
0
  5
27808
 10
5.00000
 20
206.138
 30
-4.57812e-14
  70
    32
  0
VERTEX
  8
0
  5
27809
 10
5.00000
 20
206.108
 30
-4.57742e-14
  70
    32
  0
VERTEX
  8
0
  5
2780A
 10
5.00000
 20
206.078
 30
-4.57672e-14
  70
    32
  0
VERTEX
  8
0
  5
2780B
 10
5.00000
 20
206.048
 30
-4.57602e-14
  70
    32
  0
VERTEX
  8
0
  5
2780C
 10
5.00000
 20
206.018
 30
-4.57533e-14
  70
    32
  0
VERTEX
  8
0
  5
2780D
 10
5.00000
 20
205.988
 30
-4.57463e-14
  70
    32
  0
VERTEX
  8
0
  5
2780E
 10
5.00000
 20
205.958
 30
-4.57393e-14
  70
    32
  0
VERTEX
  8
0
  5
2780F
 10
5.00000
 20
205.928
 30
-4.57323e-14
  70
    32
  0
VERTEX
  8
0
  5
27810
 10
5.00000
 20
205.898
 30
-4.57254e-14
  70
    32
  0
VERTEX
  8
0
  5
27811
 10
5.00000
 20
205.868
 30
-4.57184e-14
  70
    32
  0
VERTEX
  8
0
  5
27812
 10
5.00000
 20
205.838
 30
-4.57114e-14
  70
    32
  0
VERTEX
  8
0
  5
27813
 10
5.00000
 20
205.808
 30
-4.57044e-14
  70
    32
  0
VERTEX
  8
0
  5
27814
 10
5.00000
 20
205.778
 30
-4.56975e-14
  70
    32
  0
VERTEX
  8
0
  5
27815
 10
5.00000
 20
205.748
 30
-4.56905e-14
  70
    32
  0
VERTEX
  8
0
  5
27816
 10
5.00000
 20
205.718
 30
-4.56835e-14
  70
    32
  0
VERTEX
  8
0
  5
27817
 10
5.00000
 20
205.688
 30
-4.56766e-14
  70
    32
  0
VERTEX
  8
0
  5
27818
 10
5.00000
 20
205.658
 30
-4.56696e-14
  70
    32
  0
VERTEX
  8
0
  5
27819
 10
5.00000
 20
205.628
 30
-4.56626e-14
  70
    32
  0
VERTEX
  8
0
  5
2781A
 10
5.00000
 20
205.599
 30
-4.56556e-14
  70
    32
  0
VERTEX
  8
0
  5
2781B
 10
5.00000
 20
205.569
 30
-4.56487e-14
  70
    32
  0
VERTEX
  8
0
  5
2781C
 10
5.00000
 20
205.539
 30
-4.56417e-14
  70
    32
  0
VERTEX
  8
0
  5
2781D
 10
5.00000
 20
205.509
 30
-4.56347e-14
  70
    32
  0
VERTEX
  8
0
  5
2781E
 10
5.00000
 20
205.479
 30
-4.56277e-14
  70
    32
  0
VERTEX
  8
0
  5
2781F
 10
5.00000
 20
205.450
 30
-4.56208e-14
  70
    32
  0
VERTEX
  8
0
  5
27820
 10
5.00000
 20
205.420
 30
-4.56138e-14
  70
    32
  0
VERTEX
  8
0
  5
27821
 10
5.00000
 20
205.390
 30
-4.56068e-14
  70
    32
  0
VERTEX
  8
0
  5
27822
 10
5.00000
 20
205.360
 30
-4.55998e-14
  70
    32
  0
VERTEX
  8
0
  5
27823
 10
5.00000
 20
205.331
 30
-4.55929e-14
  70
    32
  0
VERTEX
  8
0
  5
27824
 10
5.00000
 20
205.301
 30
-4.55859e-14
  70
    32
  0
VERTEX
  8
0
  5
27825
 10
5.00000
 20
205.271
 30
-4.55789e-14
  70
    32
  0
VERTEX
  8
0
  5
27826
 10
5.00000
 20
205.242
 30
-4.55720e-14
  70
    32
  0
VERTEX
  8
0
  5
27827
 10
5.00000
 20
205.212
 30
-4.55650e-14
  70
    32
  0
VERTEX
  8
0
  5
27828
 10
5.00000
 20
205.183
 30
-4.55580e-14
  70
    32
  0
VERTEX
  8
0
  5
27829
 10
5.00000
 20
205.153
 30
-4.55510e-14
  70
    32
  0
VERTEX
  8
0
  5
2782A
 10
5.00000
 20
205.123
 30
-4.55441e-14
  70
    32
  0
VERTEX
  8
0
  5
2782B
 10
5.00000
 20
205.094
 30
-4.55371e-14
  70
    32
  0
VERTEX
  8
0
  5
2782C
 10
5.00000
 20
205.065
 30
-4.55301e-14
  70
    32
  0
VERTEX
  8
0
  5
2782D
 10
5.00000
 20
205.035
 30
-4.55231e-14
  70
    32
  0
VERTEX
  8
0
  5
2782E
 10
5.00000
 20
205.006
 30
-4.55162e-14
  70
    32
  0
VERTEX
  8
0
  5
2782F
 10
5.00000
 20
204.976
 30
-4.55092e-14
  70
    32
  0
VERTEX
  8
0
  5
27830
 10
5.00000
 20
204.947
 30
-4.55022e-14
  70
    32
  0
VERTEX
  8
0
  5
27831
 10
5.00000
 20
204.918
 30
-4.54953e-14
  70
    32
  0
VERTEX
  8
0
  5
27832
 10
5.00000
 20
204.889
 30
-4.54883e-14
  70
    32
  0
VERTEX
  8
0
  5
27833
 10
5.00000
 20
204.859
 30
-4.54813e-14
  70
    32
  0
VERTEX
  8
0
  5
27834
 10
5.00000
 20
204.830
 30
-4.54743e-14
  70
    32
  0
VERTEX
  8
0
  5
27835
 10
5.00000
 20
204.801
 30
-4.54674e-14
  70
    32
  0
VERTEX
  8
0
  5
27836
 10
5.00000
 20
204.772
 30
-4.54604e-14
  70
    32
  0
VERTEX
  8
0
  5
27837
 10
5.00000
 20
204.743
 30
-4.54534e-14
  70
    32
  0
VERTEX
  8
0
  5
27838
 10
5.00000
 20
204.714
 30
-4.54464e-14
  70
    32
  0
VERTEX
  8
0
  5
27839
 10
5.00000
 20
204.685
 30
-4.54395e-14
  70
    32
  0
VERTEX
  8
0
  5
2783A
 10
5.00000
 20
204.656
 30
-4.54325e-14
  70
    32
  0
VERTEX
  8
0
  5
2783B
 10
5.00000
 20
204.627
 30
-4.54255e-14
  70
    32
  0
VERTEX
  8
0
  5
2783C
 10
5.00000
 20
204.598
 30
-4.54185e-14
  70
    32
  0
VERTEX
  8
0
  5
2783D
 10
5.00000
 20
204.569
 30
-4.54116e-14
  70
    32
  0
VERTEX
  8
0
  5
2783E
 10
5.00000
 20
204.541
 30
-4.54046e-14
  70
    32
  0
VERTEX
  8
0
  5
2783F
 10
5.00000
 20
204.512
 30
-4.53976e-14
  70
    32
  0
VERTEX
  8
0
  5
27840
 10
5.00000
 20
204.483
 30
-4.53907e-14
  70
    32
  0
VERTEX
  8
0
  5
27841
 10
5.00000
 20
204.455
 30
-4.53837e-14
  70
    32
  0
VERTEX
  8
0
  5
27842
 10
5.00000
 20
204.426
 30
-4.53767e-14
  70
    32
  0
VERTEX
  8
0
  5
27843
 10
5.00000
 20
204.397
 30
-4.53697e-14
  70
    32
  0
VERTEX
  8
0
  5
27844
 10
5.00000
 20
204.369
 30
-4.53628e-14
  70
    32
  0
VERTEX
  8
0
  5
27845
 10
5.00000
 20
204.341
 30
-4.53558e-14
  70
    32
  0
VERTEX
  8
0
  5
27846
 10
5.00000
 20
204.312
 30
-4.53488e-14
  70
    32
  0
VERTEX
  8
0
  5
27847
 10
5.00000
 20
204.284
 30
-4.53418e-14
  70
    32
  0
VERTEX
  8
0
  5
27848
 10
5.00000
 20
204.256
 30
-4.53349e-14
  70
    32
  0
VERTEX
  8
0
  5
27849
 10
5.00000
 20
204.227
 30
-4.53279e-14
  70
    32
  0
VERTEX
  8
0
  5
2784A
 10
5.00000
 20
204.199
 30
-4.53209e-14
  70
    32
  0
VERTEX
  8
0
  5
2784B
 10
5.00000
 20
204.171
 30
-4.53139e-14
  70
    32
  0
VERTEX
  8
0
  5
2784C
 10
5.00000
 20
204.143
 30
-4.53070e-14
  70
    32
  0
VERTEX
  8
0
  5
2784D
 10
5.00000
 20
204.115
 30
-4.53000e-14
  70
    32
  0
SEQEND
  8
0
  5
2784E
  0
POLYLINE
  8
0
  5
2784F
  62
1
  66
     1
 10
0.000000
 20
0.000000
 30
0.000000
  70
     8
  0
VERTEX
  8
0
  5
27850
 10
5.00000
 20
223.531
 30
-4.96000e-14
  70
    32
  0
VERTEX
  8
0
  5
27851
 10
5.00000
 20
223.393
 30
-4.95705e-14
  70
    32
  0
VERTEX
  8
0
  5
27852
 10
5.00000
 20
223.255
 30
-4.95411e-14
  70
    32
  0
VERTEX
  8
0
  5
27853
 10
5.00000
 20
223.118
 30
-4.95117e-14
  70
    32
  0
VERTEX
  8
0
  5
27854
 10
5.00000
 20
222.981
 30
-4.94823e-14
  70
    32
  0
VERTEX
  8
0
  5
27855
 10
5.00000
 20
222.844
 30
-4.94529e-14
  70
    32
  0
VERTEX
  8
0
  5
27856
 10
5.00000
 20
222.707
 30
-4.94236e-14
  70
    32
  0
VERTEX
  8
0
  5
27857
 10
5.00000
 20
222.570
 30
-4.93942e-14
  70
    32
  0
VERTEX
  8
0
  5
27858
 10
5.00000
 20
222.434
 30
-4.93649e-14
  70
    32
  0
VERTEX
  8
0
  5
27859
 10
5.00000
 20
222.297
 30
-4.93357e-14
  70
    32
  0
VERTEX
  8
0
  5
2785A
 10
5.00000
 20
222.161
 30
-4.93064e-14
  70
    32
  0
VERTEX
  8
0
  5
2785B
 10
5.00000
 20
222.025
 30
-4.92772e-14
  70
    32
  0
VERTEX
  8
0
  5
2785C
 10
5.00000
 20
221.890
 30
-4.92480e-14
  70
    32
  0
VERTEX
  8
0
  5
2785D
 10
5.00000
 20
221.754
 30
-4.92188e-14
  70
    32
  0
VERTEX
  8
0
  5
2785E
 10
5.00000
 20
221.619
 30
-4.91897e-14
  70
    32
  0
VERTEX
  8
0
  5
2785F
 10
5.00000
 20
221.484
 30
-4.91605e-14
  70
    32
  0
VERTEX
  8
0
  5
27860
 10
5.00000
 20
221.349
 30
-4.91314e-14
  70
    32
  0
VERTEX
  8
0
  5
27861
 10
5.00000
 20
221.214
 30
-4.91023e-14
  70
    32
  0
VERTEX
  8
0
  5
27862
 10
5.00000
 20
221.079
 30
-4.90733e-14
  70
    32
  0
VERTEX
  8
0
  5
27863
 10
5.00000
 20
220.945
 30
-4.90443e-14
  70
    32
  0
VERTEX
  8
0
  5
27864
 10
5.00000
 20
220.811
 30
-4.90152e-14
  70
    32
  0
VERTEX
  8
0
  5
27865
 10
5.00000
 20
220.677
 30
-4.89863e-14
  70
    32
  0
VERTEX
  8
0
  5
27866
 10
5.00000
 20
220.543
 30
-4.89573e-14
  70
    32
  0
VERTEX
  8
0
  5
27867
 10
5.00000
 20
220.409
 30
-4.89283e-14
  70
    32
  0
VERTEX
  8
0
  5
27868
 10
5.00000
 20
220.276
 30
-4.88994e-14
  70
    32
  0
VERTEX
  8
0
  5
27869
 10
5.00000
 20
220.142
 30
-4.88705e-14
  70
    32
  0
VERTEX
  8
0
  5
2786A
 10
5.00000
 20
220.009
 30
-4.88417e-14
  70
    32
  0
VERTEX
  8
0
  5
2786B
 10
5.00000
 20
219.876
 30
-4.88128e-14
  70
    32
  0
VERTEX
  8
0
  5
2786C
 10
5.00000
 20
219.744
 30
-4.87840e-14
  70
    32
  0
VERTEX
  8
0
  5
2786D
 10
5.00000
 20
219.611
 30
-4.87552e-14
  70
    32
  0
VERTEX
  8
0
  5
2786E
 10
5.00000
 20
219.479
 30
-4.87264e-14
  70
    32
  0
VERTEX
  8
0
  5
2786F
 10
5.00000
 20
219.346
 30
-4.86976e-14
  70
    32
  0
VERTEX
  8
0
  5
27870
 10
5.00000
 20
219.214
 30
-4.86689e-14
  70
    32
  0
VERTEX
  8
0
  5
27871
 10
5.00000
 20
219.083
 30
-4.86402e-14
  70
    32
  0
VERTEX
  8
0
  5
27872
 10
5.00000
 20
218.951
 30
-4.86115e-14
  70
    32
  0
VERTEX
  8
0
  5
27873
 10
5.00000
 20
218.820
 30
-4.85828e-14
  70
    32
  0
VERTEX
  8
0
  5
27874
 10
5.00000
 20
218.688
 30
-4.85542e-14
  70
    32
  0
VERTEX
  8
0
  5
27875
 10
5.00000
 20
218.557
 30
-4.85255e-14
  70
    32
  0
VERTEX
  8
0
  5
27876
 10
5.00000
 20
218.426
 30
-4.84969e-14
  70
    32
  0
VERTEX
  8
0
  5
27877
 10
5.00000
 20
218.295
 30
-4.84684e-14
  70
    32
  0
VERTEX
  8
0
  5
27878
 10
5.00000
 20
218.165
 30
-4.84398e-14
  70
    32
  0
VERTEX
  8
0
  5
27879
 10
5.00000
 20
218.034
 30
-4.84113e-14
  70
    32
  0
VERTEX
  8
0
  5
2787A
 10
5.00000
 20
217.904
 30
-4.83827e-14
  70
    32
  0
VERTEX
  8
0
  5
2787B
 10
5.00000
 20
217.774
 30
-4.83542e-14
  70
    32
  0
VERTEX
  8
0
  5
2787C
 10
5.00000
 20
217.644
 30
-4.83258e-14
  70
    32
  0
VERTEX
  8
0
  5
2787D
 10
5.00000
 20
217.515
 30
-4.82973e-14
  70
    32
  0
VERTEX
  8
0
  5
2787E
 10
5.00000
 20
217.385
 30
-4.82689e-14
  70
    32
  0
VERTEX
  8
0
  5
2787F
 10
5.00000
 20
217.256
 30
-4.82405e-14
  70
    32
  0
VERTEX
  8
0
  5
27880
 10
5.00000
 20
217.127
 30
-4.82121e-14
  70
    32
  0
VERTEX
  8
0
  5
27881
 10
5.00000
 20
216.998
 30
-4.81837e-14
  70
    32
  0
VERTEX
  8
0
  5
27882
 10
5.00000
 20
216.869
 30
-4.81554e-14
  70
    32
  0
VERTEX
  8
0
  5
27883
 10
5.00000
 20
216.740
 30
-4.81270e-14
  70
    32
  0
VERTEX
  8
0
  5
27884
 10
5.00000
 20
216.612
 30
-4.80987e-14
  70
    32
  0
VERTEX
  8
0
  5
27885
 10
5.00000
 20
216.483
 30
-4.80704e-14
  70
    32
  0
VERTEX
  8
0
  5
27886
 10
5.00000
 20
216.355
 30
-4.80422e-14
  70
    32
  0
VERTEX
  8
0
  5
27887
 10
5.00000
 20
216.227
 30
-4.80139e-14
  70
    32
  0
VERTEX
  8
0
  5
27888
 10
5.00000
 20
216.100
 30
-4.79857e-14
  70
    32
  0
VERTEX
  8
0
  5
27889
 10
5.00000
 20
215.972
 30
-4.79575e-14
  70
    32
  0
VERTEX
  8
0
  5
2788A
 10
5.00000
 20
215.845
 30
-4.79293e-14
  70
    32
  0
VERTEX
  8
0
  5
2788B
 10
5.00000
 20
215.717
 30
-4.79011e-14
  70
    32
  0
VERTEX
  8
0
  5
2788C
 10
5.00000
 20
215.590
 30
-4.78730e-14
  70
    32
  0
VERTEX
  8
0
  5
2788D
 10
5.00000
 20
215.463
 30
-4.78449e-14
  70
    32
  0
VERTEX
  8
0
  5
2788E
 10
5.00000
 20
215.337
 30
-4.78168e-14
  70
    32
  0
VERTEX
  8
0
  5
2788F
 10
5.00000
 20
215.210
 30
-4.77887e-14
  70
    32
  0
VERTEX
  8
0
  5
27890
 10
5.00000
 20
215.084
 30
-4.77606e-14
  70
    32
  0
VERTEX
  8
0
  5
27891
 10
5.00000
 20
214.957
 30
-4.77326e-14
  70
    32
  0
VERTEX
  8
0
  5
27892
 10
5.00000
 20
214.831
 30
-4.77045e-14
  70
    32
  0
VERTEX
  8
0
  5
27893
 10
5.00000
 20
214.705
 30
-4.76765e-14
  70
    32
  0
VERTEX
  8
0
  5
27894
 10
5.00000
 20
214.580
 30
-4.76486e-14
  70
    32
  0
VERTEX
  8
0
  5
27895
 10
5.00000
 20
214.454
 30
-4.76206e-14
  70
    32
  0
VERTEX
  8
0
  5
27896
 10
5.00000
 20
214.329
 30
-4.75926e-14
  70
    32
  0
VERTEX
  8
0
  5
27897
 10
5.00000
 20
214.204
 30
-4.75647e-14
  70
    32
  0
VERTEX
  8
0
  5
27898
 10
5.00000
 20
214.079
 30
-4.75368e-14
  70
    32
  0
VERTEX
  8
0
  5
27899
 10
5.00000
 20
213.954
 30
-4.75089e-14
  70
    32
  0
VERTEX
  8
0
  5
2789A
 10
5.00000
 20
213.829
 30
-4.74810e-14
  70
    32
  0
VERTEX
  8
0
  5
2789B
 10
5.00000
 20
213.704
 30
-4.74532e-14
  70
    32
  0
VERTEX
  8
0
  5
2789C
 10
5.00000
 20
213.580
 30
-4.74254e-14
  70
    32
  0
VERTEX
  8
0
  5
2789D
 10
5.00000
 20
213.456
 30
-4.73975e-14
  70
    32
  0
VERTEX
  8
0
  5
2789E
 10
5.00000
 20
213.332
 30
-4.73697e-14
  70
    32
  0
VERTEX
  8
0
  5
2789F
 10
5.00000
 20
213.208
 30
-4.73420e-14
  70
    32
  0
VERTEX
  8
0
  5
278A0
 10
5.00000
 20
213.084
 30
-4.73142e-14
  70
    32
  0
VERTEX
  8
0
  5
278A1
 10
5.00000
 20
212.961
 30
-4.72865e-14
  70
    32
  0
VERTEX
  8
0
  5
278A2
 10
5.00000
 20
212.837
 30
-4.72587e-14
  70
    32
  0
VERTEX
  8
0
  5
278A3
 10
5.00000
 20
212.714
 30
-4.72310e-14
  70
    32
  0
VERTEX
  8
0
  5
278A4
 10
5.00000
 20
212.591
 30
-4.72034e-14
  70
    32
  0
VERTEX
  8
0
  5
278A5
 10
5.00000
 20
212.468
 30
-4.71757e-14
  70
    32
  0
VERTEX
  8
0
  5
278A6
 10
5.00000
 20
212.345
 30
-4.71480e-14
  70
    32
  0
VERTEX
  8
0
  5
278A7
 10
5.00000
 20
212.223
 30
-4.71204e-14
  70
    32
  0
VERTEX
  8
0
  5
278A8
 10
5.00000
 20
212.100
 30
-4.70928e-14
  70
    32
  0
VERTEX
  8
0
  5
278A9
 10
5.00000
 20
211.978
 30
-4.70652e-14
  70
    32
  0
VERTEX
  8
0
  5
278AA
 10
5.00000
 20
211.856
 30
-4.70376e-14
  70
    32
  0
VERTEX
  8
0
  5
278AB
 10
5.00000
 20
211.734
 30
-4.70101e-14
  70
    32
  0
VERTEX
  8
0
  5
278AC
 10
5.00000
 20
211.612
 30
-4.69825e-14
  70
    32
  0
VERTEX
  8
0
  5
278AD
 10
5.00000
 20
211.491
 30
-4.69550e-14
  70
    32
  0
VERTEX
  8
0
  5
278AE
 10
5.00000
 20
211.369
 30
-4.69275e-14
  70
    32
  0
VERTEX
  8
0
  5
278AF
 10
5.00000
 20
211.248
 30
-4.69000e-14
  70
    32
  0
SEQEND
  8
0
  5
278B0
  0
LINE
  5
27055
  8
0
  6
VERDECKT
 62
     1
 10
5.0000000000000089
 20
155.0
 30
-0.0000000000000344
 11
5.0000000000000089
 21
150.0
 31
-0.0000000000000333
210
0.0
220
1.0
230
-0.0000000000000002
  0
POLYLINE
  8
0
  5
278B1
  62
1
  66
     1
 10
0.000000
 20
0.000000
 30
0.000000
  70
     8
  0
VERTEX
  8
0
  5
278B2
 10
5.00000
 20
157.309
 30
-3.49000e-14
  70
    32
  0
VERTEX
  8
0
  5
278B3
 10
5.00000
 20
157.284
 30
-3.48958e-14
  70
    32
  0
VERTEX
  8
0
  5
278B4
 10
5.00000
 20
157.259
 30
-3.48915e-14
  70
    32
  0
VERTEX
  8
0
  5
278B5
 10
5.00000
 20
157.234
 30
-3.48873e-14
  70
    32
  0
VERTEX
  8
0
  5
278B6
 10
5.00000
 20
157.209
 30
-3.48830e-14
  70
    32
  0
VERTEX
  8
0
  5
278B7
 10
5.00000
 20
157.183
 30
-3.48787e-14
  70
    32
  0
VERTEX
  8
0
  5
278B8
 10
5.00000
 20
157.158
 30
-3.48743e-14
  70
    32
  0
VERTEX
  8
0
  5
278B9
 10
5.00000
 20
157.133
 30
-3.48700e-14
  70
    32
  0
VERTEX
  8
0
  5
278BA
 10
5.00000
 20
157.108
 30
-3.48656e-14
  70
    32
  0
VERTEX
  8
0
  5
278BB
 10
5.00000
 20
157.083
 30
-3.48612e-14
  70
    32
  0
VERTEX
  8
0
  5
278BC
 10
5.00000
 20
157.058
 30
-3.48568e-14
  70
    32
  0
VERTEX
  8
0
  5
278BD
 10
5.00000
 20
157.033
 30
-3.48523e-14
  70
    32
  0
VERTEX
  8
0
  5
278BE
 10
5.00000
 20
157.008
 30
-3.48479e-14
  70
    32
  0
VERTEX
  8
0
  5
278BF
 10
5.00000
 20
156.983
 30
-3.48434e-14
  70
    32
  0
VERTEX
  8
0
  5
278C0
 10
5.00000
 20
156.958
 30
-3.48389e-14
  70
    32
  0
VERTEX
  8
0
  5
278C1
 10
5.00000
 20
156.933
 30
-3.48343e-14
  70
    32
  0
VERTEX
  8
0
  5
278C2
 10
5.00000
 20
156.908
 30
-3.48298e-14
  70
    32
  0
VERTEX
  8
0
  5
278C3
 10
5.00000
 20
156.883
 30
-3.48252e-14
  70
    32
  0
VERTEX
  8
0
  5
278C4
 10
5.00000
 20
156.858
 30
-3.48206e-14
  70
    32
  0
VERTEX
  8
0
  5
278C5
 10
5.00000
 20
156.833
 30
-3.48160e-14
  70
    32
  0
VERTEX
  8
0
  5
278C6
 10
5.00000
 20
156.808
 30
-3.48113e-14
  70
    32
  0
VERTEX
  8
0
  5
278C7
 10
5.00000
 20
156.784
 30
-3.48067e-14
  70
    32
  0
VERTEX
  8
0
  5
278C8
 10
5.00000
 20
156.759
 30
-3.48020e-14
  70
    32
  0
VERTEX
  8
0
  5
278C9
 10
5.00000
 20
156.734
 30
-3.47973e-14
  70
    32
  0
VERTEX
  8
0
  5
278CA
 10
5.00000
 20
156.709
 30
-3.47925e-14
  70
    32
  0
VERTEX
  8
0
  5
278CB
 10
5.00000
 20
156.684
 30
-3.47878e-14
  70
    32
  0
VERTEX
  8
0
  5
278CC
 10
5.00000
 20
156.660
 30
-3.47830e-14
  70
    32
  0
VERTEX
  8
0
  5
278CD
 10
5.00000
 20
156.635
 30
-3.47782e-14
  70
    32
  0
VERTEX
  8
0
  5
278CE
 10
5.00000
 20
156.610
 30
-3.47734e-14
  70
    32
  0
VERTEX
  8
0
  5
278CF
 10
5.00000
 20
156.586
 30
-3.47686e-14
  70
    32
  0
VERTEX
  8
0
  5
278D0
 10
5.00000
 20
156.561
 30
-3.47637e-14
  70
    32
  0
VERTEX
  8
0
  5
278D1
 10
5.00000
 20
156.536
 30
-3.47588e-14
  70
    32
  0
VERTEX
  8
0
  5
278D2
 10
5.00000
 20
156.512
 30
-3.47539e-14
  70
    32
  0
VERTEX
  8
0
  5
278D3
 10
5.00000
 20
156.487
 30
-3.47490e-14
  70
    32
  0
VERTEX
  8
0
  5
278D4
 10
5.00000
 20
156.463
 30
-3.47440e-14
  70
    32
  0
VERTEX
  8
0
  5
278D5
 10
5.00000
 20
156.438
 30
-3.47390e-14
  70
    32
  0
VERTEX
  8
0
  5
278D6
 10
5.00000
 20
156.413
 30
-3.47340e-14
  70
    32
  0
VERTEX
  8
0
  5
278D7
 10
5.00000
 20
156.389
 30
-3.47290e-14
  70
    32
  0
VERTEX
  8
0
  5
278D8
 10
5.00000
 20
156.364
 30
-3.47240e-14
  70
    32
  0
VERTEX
  8
0
  5
278D9
 10
5.00000
 20
156.340
 30
-3.47189e-14
  70
    32
  0
VERTEX
  8
0
  5
278DA
 10
5.00000
 20
156.316
 30
-3.47138e-14
  70
    32
  0
VERTEX
  8
0
  5
278DB
 10
5.00000
 20
156.291
 30
-3.47087e-14
  70
    32
  0
VERTEX
  8
0
  5
278DC
 10
5.00000
 20
156.267
 30
-3.47036e-14
  70
    32
  0
VERTEX
  8
0
  5
278DD
 10
5.00000
 20
156.242
 30
-3.46985e-14
  70
    32
  0
VERTEX
  8
0
  5
278DE
 10
5.00000
 20
156.218
 30
-3.46933e-14
  70
    32
  0
VERTEX
  8
0
  5
278DF
 10
5.00000
 20
156.194
 30
-3.46881e-14
  70
    32
  0
VERTEX
  8
0
  5
278E0
 10
5.00000
 20
156.169
 30
-3.46829e-14
  70
    32
  0
VERTEX
  8
0
  5
278E1
 10
5.00000
 20
156.145
 30
-3.46776e-14
  70
    32
  0
VERTEX
  8
0
  5
278E2
 10
5.00000
 20
156.121
 30
-3.46724e-14
  70
    32
  0
VERTEX
  8
0
  5
278E3
 10
5.00000
 20
156.096
 30
-3.46671e-14
  70
    32
  0
VERTEX
  8
0
  5
278E4
 10
5.00000
 20
156.072
 30
-3.46618e-14
  70
    32
  0
VERTEX
  8
0
  5
278E5
 10
5.00000
 20
156.048
 30
-3.46565e-14
  70
    32
  0
VERTEX
  8
0
  5
278E6
 10
5.00000
 20
156.024
 30
-3.46511e-14
  70
    32
  0
VERTEX
  8
0
  5
278E7
 10
5.00000
 20
155.999
 30
-3.46457e-14
  70
    32
  0
VERTEX
  8
0
  5
278E8
 10
5.00000
 20
155.975
 30
-3.46403e-14
  70
    32
  0
VERTEX
  8
0
  5
278E9
 10
5.00000
 20
155.951
 30
-3.46349e-14
  70
    32
  0
VERTEX
  8
0
  5
278EA
 10
5.00000
 20
155.927
 30
-3.46295e-14
  70
    32
  0
VERTEX
  8
0
  5
278EB
 10
5.00000
 20
155.903
 30
-3.46240e-14
  70
    32
  0
VERTEX
  8
0
  5
278EC
 10
5.00000
 20
155.879
 30
-3.46185e-14
  70
    32
  0
VERTEX
  8
0
  5
278ED
 10
5.00000
 20
155.855
 30
-3.46130e-14
  70
    32
  0
VERTEX
  8
0
  5
278EE
 10
5.00000
 20
155.830
 30
-3.46075e-14
  70
    32
  0
VERTEX
  8
0
  5
278EF
 10
5.00000
 20
155.806
 30
-3.46020e-14
  70
    32
  0
VERTEX
  8
0
  5
278F0
 10
5.00000
 20
155.782
 30
-3.45964e-14
  70
    32
  0
VERTEX
  8
0
  5
278F1
 10
5.00000
 20
155.758
 30
-3.45908e-14
  70
    32
  0
VERTEX
  8
0
  5
278F2
 10
5.00000
 20
155.734
 30
-3.45852e-14
  70
    32
  0
VERTEX
  8
0
  5
278F3
 10
5.00000
 20
155.710
 30
-3.45795e-14
  70
    32
  0
VERTEX
  8
0
  5
278F4
 10
5.00000
 20
155.686
 30
-3.45739e-14
  70
    32
  0
VERTEX
  8
0
  5
278F5
 10
5.00000
 20
155.663
 30
-3.45682e-14
  70
    32
  0
VERTEX
  8
0
  5
278F6
 10
5.00000
 20
155.639
 30
-3.45625e-14
  70
    32
  0
VERTEX
  8
0
  5
278F7
 10
5.00000
 20
155.615
 30
-3.45568e-14
  70
    32
  0
VERTEX
  8
0
  5
278F8
 10
5.00000
 20
155.591
 30
-3.45510e-14
  70
    32
  0
VERTEX
  8
0
  5
278F9
 10
5.00000
 20
155.567
 30
-3.45452e-14
  70
    32
  0
VERTEX
  8
0
  5
278FA
 10
5.00000
 20
155.543
 30
-3.45394e-14
  70
    32
  0
VERTEX
  8
0
  5
278FB
 10
5.00000
 20
155.519
 30
-3.45336e-14
  70
    32
  0
VERTEX
  8
0
  5
278FC
 10
5.00000
 20
155.496
 30
-3.45278e-14
  70
    32
  0
VERTEX
  8
0
  5
278FD
 10
5.00000
 20
155.472
 30
-3.45219e-14
  70
    32
  0
VERTEX
  8
0
  5
278FE
 10
5.00000
 20
155.448
 30
-3.45160e-14
  70
    32
  0
VERTEX
  8
0
  5
278FF
 10
5.00000
 20
155.424
 30
-3.45101e-14
  70
    32
  0
VERTEX
  8
0
  5
27900
 10
5.00000
 20
155.400
 30
-3.45042e-14
  70
    32
  0
VERTEX
  8
0
  5
27901
 10
5.00000
 20
155.377
 30
-3.44983e-14
  70
    32
  0
VERTEX
  8
0
  5
27902
 10
5.00000
 20
155.353
 30
-3.44923e-14
  70
    32
  0
VERTEX
  8
0
  5
27903
 10
5.00000
 20
155.329
 30
-3.44863e-14
  70
    32
  0
VERTEX
  8
0
  5
27904
 10
5.00000
 20
155.306
 30
-3.44803e-14
  70
    32
  0
VERTEX
  8
0
  5
27905
 10
5.00000
 20
155.282
 30
-3.44742e-14
  70
    32
  0
VERTEX
  8
0
  5
27906
 10
5.00000
 20
155.259
 30
-3.44682e-14
  70
    32
  0
VERTEX
  8
0
  5
27907
 10
5.00000
 20
155.235
 30
-3.44621e-14
  70
    32
  0
VERTEX
  8
0
  5
27908
 10
5.00000
 20
155.211
 30
-3.44560e-14
  70
    32
  0
VERTEX
  8
0
  5
27909
 10
5.00000
 20
155.188
 30
-3.44498e-14
  70
    32
  0
VERTEX
  8
0
  5
2790A
 10
5.00000
 20
155.164
 30
-3.44437e-14
  70
    32
  0
VERTEX
  8
0
  5
2790B
 10
5.00000
 20
155.141
 30
-3.44375e-14
  70
    32
  0
VERTEX
  8
0
  5
2790C
 10
5.00000
 20
155.117
 30
-3.44313e-14
  70
    32
  0
VERTEX
  8
0
  5
2790D
 10
5.00000
 20
155.094
 30
-3.44251e-14
  70
    32
  0
VERTEX
  8
0
  5
2790E
 10
5.00000
 20
155.070
 30
-3.44189e-14
  70
    32
  0
VERTEX
  8
0
  5
2790F
 10
5.00000
 20
155.047
 30
-3.44126e-14
  70
    32
  0
VERTEX
  8
0
  5
27910
 10
5.00000
 20
155.023
 30
-3.44063e-14
  70
    32
  0
VERTEX
  8
0
  5
27911
 10
5.00000
 20
155.000
 30
-3.44000e-14
  70
    32
  0
SEQEND
  8
0
  5
27912
  0
LINE
  5
27057
  8
0
  6
VERDECKT
 62
     1
 10
5.0000000000000124
 20
204.1152790745657057
 30
-0.0000000000000453
 11
5.0000000000000089
 21
157.3094010767584905
 31
-0.0000000000000349
210
0.0
220
1.0
230
-0.0000000000000002
  0
POLYLINE
  8
0
  5
27913
  62
1
  66
     1
 10
0.000000
 20
0.000000
 30
0.000000
  70
     8
  0
VERTEX
  8
0
  5
27914
 10
-5.00000
 20
211.248
 30
-4.69000e-14
  70
    32
  0
VERTEX
  8
0
  5
27915
 10
-5.00000
 20
211.369
 30
-4.69275e-14
  70
    32
  0
VERTEX
  8
0
  5
27916
 10
-5.00000
 20
211.491
 30
-4.69550e-14
  70
    32
  0
VERTEX
  8
0
  5
27917
 10
-5.00000
 20
211.612
 30
-4.69825e-14
  70
    32
  0
VERTEX
  8
0
  5
27918
 10
-5.00000
 20
211.734
 30
-4.70101e-14
  70
    32
  0
VERTEX
  8
0
  5
27919
 10
-5.00000
 20
211.856
 30
-4.70376e-14
  70
    32
  0
VERTEX
  8
0
  5
2791A
 10
-5.00000
 20
211.978
 30
-4.70652e-14
  70
    32
  0
VERTEX
  8
0
  5
2791B
 10
-5.00000
 20
212.100
 30
-4.70928e-14
  70
    32
  0
VERTEX
  8
0
  5
2791C
 10
-5.00000
 20
212.223
 30
-4.71204e-14
  70
    32
  0
VERTEX
  8
0
  5
2791D
 10
-5.00000
 20
212.345
 30
-4.71480e-14
  70
    32
  0
VERTEX
  8
0
  5
2791E
 10
-5.00000
 20
212.468
 30
-4.71757e-14
  70
    32
  0
VERTEX
  8
0
  5
2791F
 10
-5.00000
 20
212.591
 30
-4.72034e-14
  70
    32
  0
VERTEX
  8
0
  5
27920
 10
-5.00000
 20
212.714
 30
-4.72310e-14
  70
    32
  0
VERTEX
  8
0
  5
27921
 10
-5.00000
 20
212.837
 30
-4.72587e-14
  70
    32
  0
VERTEX
  8
0
  5
27922
 10
-5.00000
 20
212.961
 30
-4.72865e-14
  70
    32
  0
VERTEX
  8
0
  5
27923
 10
-5.00000
 20
213.084
 30
-4.73142e-14
  70
    32
  0
VERTEX
  8
0
  5
27924
 10
-5.00000
 20
213.208
 30
-4.73420e-14
  70
    32
  0
VERTEX
  8
0
  5
27925
 10
-5.00000
 20
213.332
 30
-4.73697e-14
  70
    32
  0
VERTEX
  8
0
  5
27926
 10
-5.00000
 20
213.456
 30
-4.73975e-14
  70
    32
  0
VERTEX
  8
0
  5
27927
 10
-5.00000
 20
213.580
 30
-4.74254e-14
  70
    32
  0
VERTEX
  8
0
  5
27928
 10
-5.00000
 20
213.704
 30
-4.74532e-14
  70
    32
  0
VERTEX
  8
0
  5
27929
 10
-5.00000
 20
213.829
 30
-4.74810e-14
  70
    32
  0
VERTEX
  8
0
  5
2792A
 10
-5.00000
 20
213.954
 30
-4.75089e-14
  70
    32
  0
VERTEX
  8
0
  5
2792B
 10
-5.00000
 20
214.079
 30
-4.75368e-14
  70
    32
  0
VERTEX
  8
0
  5
2792C
 10
-5.00000
 20
214.204
 30
-4.75647e-14
  70
    32
  0
VERTEX
  8
0
  5
2792D
 10
-5.00000
 20
214.329
 30
-4.75926e-14
  70
    32
  0
VERTEX
  8
0
  5
2792E
 10
-5.00000
 20
214.454
 30
-4.76206e-14
  70
    32
  0
VERTEX
  8
0
  5
2792F
 10
-5.00000
 20
214.580
 30
-4.76486e-14
  70
    32
  0
VERTEX
  8
0
  5
27930
 10
-5.00000
 20
214.705
 30
-4.76765e-14
  70
    32
  0
VERTEX
  8
0
  5
27931
 10
-5.00000
 20
214.831
 30
-4.77045e-14
  70
    32
  0
VERTEX
  8
0
  5
27932
 10
-5.00000
 20
214.957
 30
-4.77326e-14
  70
    32
  0
VERTEX
  8
0
  5
27933
 10
-5.00000
 20
215.084
 30
-4.77606e-14
  70
    32
  0
VERTEX
  8
0
  5
27934
 10
-5.00000
 20
215.210
 30
-4.77887e-14
  70
    32
  0
VERTEX
  8
0
  5
27935
 10
-5.00000
 20
215.337
 30
-4.78168e-14
  70
    32
  0
VERTEX
  8
0
  5
27936
 10
-5.00000
 20
215.463
 30
-4.78449e-14
  70
    32
  0
VERTEX
  8
0
  5
27937
 10
-5.00000
 20
215.590
 30
-4.78730e-14
  70
    32
  0
VERTEX
  8
0
  5
27938
 10
-5.00000
 20
215.717
 30
-4.79011e-14
  70
    32
  0
VERTEX
  8
0
  5
27939
 10
-5.00000
 20
215.845
 30
-4.79293e-14
  70
    32
  0
VERTEX
  8
0
  5
2793A
 10
-5.00000
 20
215.972
 30
-4.79575e-14
  70
    32
  0
VERTEX
  8
0
  5
2793B
 10
-5.00000
 20
216.100
 30
-4.79857e-14
  70
    32
  0
VERTEX
  8
0
  5
2793C
 10
-5.00000
 20
216.227
 30
-4.80139e-14
  70
    32
  0
VERTEX
  8
0
  5
2793D
 10
-5.00000
 20
216.355
 30
-4.80422e-14
  70
    32
  0
VERTEX
  8
0
  5
2793E
 10
-5.00000
 20
216.483
 30
-4.80704e-14
  70
    32
  0
VERTEX
  8
0
  5
2793F
 10
-5.00000
 20
216.612
 30
-4.80987e-14
  70
    32
  0
VERTEX
  8
0
  5
27940
 10
-5.00000
 20
216.740
 30
-4.81270e-14
  70
    32
  0
VERTEX
  8
0
  5
27941
 10
-5.00000
 20
216.869
 30
-4.81554e-14
  70
    32
  0
VERTEX
  8
0
  5
27942
 10
-5.00000
 20
216.998
 30
-4.81837e-14
  70
    32
  0
VERTEX
  8
0
  5
27943
 10
-5.00000
 20
217.127
 30
-4.82121e-14
  70
    32
  0
VERTEX
  8
0
  5
27944
 10
-5.00000
 20
217.256
 30
-4.82405e-14
  70
    32
  0
VERTEX
  8
0
  5
27945
 10
-5.00000
 20
217.385
 30
-4.82689e-14
  70
    32
  0
VERTEX
  8
0
  5
27946
 10
-5.00000
 20
217.515
 30
-4.82973e-14
  70
    32
  0
VERTEX
  8
0
  5
27947
 10
-5.00000
 20
217.644
 30
-4.83258e-14
  70
    32
  0
VERTEX
  8
0
  5
27948
 10
-5.00000
 20
217.774
 30
-4.83542e-14
  70
    32
  0
VERTEX
  8
0
  5
27949
 10
-5.00000
 20
217.904
 30
-4.83827e-14
  70
    32
  0
VERTEX
  8
0
  5
2794A
 10
-5.00000
 20
218.034
 30
-4.84113e-14
  70
    32
  0
VERTEX
  8
0
  5
2794B
 10
-5.00000
 20
218.165
 30
-4.84398e-14
  70
    32
  0
VERTEX
  8
0
  5
2794C
 10
-5.00000
 20
218.295
 30
-4.84684e-14
  70
    32
  0
VERTEX
  8
0
  5
2794D
 10
-5.00000
 20
218.426
 30
-4.84969e-14
  70
    32
  0
VERTEX
  8
0
  5
2794E
 10
-5.00000
 20
218.557
 30
-4.85255e-14
  70
    32
  0
VERTEX
  8
0
  5
2794F
 10
-5.00000
 20
218.688
 30
-4.85542e-14
  70
    32
  0
VERTEX
  8
0
  5
27950
 10
-5.00000
 20
218.820
 30
-4.85828e-14
  70
    32
  0
VERTEX
  8
0
  5
27951
 10
-5.00000
 20
218.951
 30
-4.86115e-14
  70
    32
  0
VERTEX
  8
0
  5
27952
 10
-5.00000
 20
219.083
 30
-4.86402e-14
  70
    32
  0
VERTEX
  8
0
  5
27953
 10
-5.00000
 20
219.214
 30
-4.86689e-14
  70
    32
  0
VERTEX
  8
0
  5
27954
 10
-5.00000
 20
219.346
 30
-4.86976e-14
  70
    32
  0
VERTEX
  8
0
  5
27955
 10
-5.00000
 20
219.479
 30
-4.87264e-14
  70
    32
  0
VERTEX
  8
0
  5
27956
 10
-5.00000
 20
219.611
 30
-4.87552e-14
  70
    32
  0
VERTEX
  8
0
  5
27957
 10
-5.00000
 20
219.744
 30
-4.87840e-14
  70
    32
  0
VERTEX
  8
0
  5
27958
 10
-5.00000
 20
219.876
 30
-4.88128e-14
  70
    32
  0
VERTEX
  8
0
  5
27959
 10
-5.00000
 20
220.009
 30
-4.88417e-14
  70
    32
  0
VERTEX
  8
0
  5
2795A
 10
-5.00000
 20
220.142
 30
-4.88705e-14
  70
    32
  0
VERTEX
  8
0
  5
2795B
 10
-5.00000
 20
220.276
 30
-4.88994e-14
  70
    32
  0
VERTEX
  8
0
  5
2795C
 10
-5.00000
 20
220.409
 30
-4.89283e-14
  70
    32
  0
VERTEX
  8
0
  5
2795D
 10
-5.00000
 20
220.543
 30
-4.89573e-14
  70
    32
  0
VERTEX
  8
0
  5
2795E
 10
-5.00000
 20
220.677
 30
-4.89863e-14
  70
    32
  0
VERTEX
  8
0
  5
2795F
 10
-5.00000
 20
220.811
 30
-4.90152e-14
  70
    32
  0
VERTEX
  8
0
  5
27960
 10
-5.00000
 20
220.945
 30
-4.90443e-14
  70
    32
  0
VERTEX
  8
0
  5
27961
 10
-5.00000
 20
221.079
 30
-4.90733e-14
  70
    32
  0
VERTEX
  8
0
  5
27962
 10
-5.00000
 20
221.214
 30
-4.91023e-14
  70
    32
  0
VERTEX
  8
0
  5
27963
 10
-5.00000
 20
221.349
 30
-4.91314e-14
  70
    32
  0
VERTEX
  8
0
  5
27964
 10
-5.00000
 20
221.484
 30
-4.91605e-14
  70
    32
  0
VERTEX
  8
0
  5
27965
 10
-5.00000
 20
221.619
 30
-4.91897e-14
  70
    32
  0
VERTEX
  8
0
  5
27966
 10
-5.00000
 20
221.754
 30
-4.92188e-14
  70
    32
  0
VERTEX
  8
0
  5
27967
 10
-5.00000
 20
221.890
 30
-4.92480e-14
  70
    32
  0
VERTEX
  8
0
  5
27968
 10
-5.00000
 20
222.025
 30
-4.92772e-14
  70
    32
  0
VERTEX
  8
0
  5
27969
 10
-5.00000
 20
222.161
 30
-4.93064e-14
  70
    32
  0
VERTEX
  8
0
  5
2796A
 10
-5.00000
 20
222.297
 30
-4.93357e-14
  70
    32
  0
VERTEX
  8
0
  5
2796B
 10
-5.00000
 20
222.434
 30
-4.93649e-14
  70
    32
  0
VERTEX
  8
0
  5
2796C
 10
-5.00000
 20
222.570
 30
-4.93942e-14
  70
    32
  0
VERTEX
  8
0
  5
2796D
 10
-5.00000
 20
222.707
 30
-4.94236e-14
  70
    32
  0
VERTEX
  8
0
  5
2796E
 10
-5.00000
 20
222.844
 30
-4.94529e-14
  70
    32
  0
VERTEX
  8
0
  5
2796F
 10
-5.00000
 20
222.981
 30
-4.94823e-14
  70
    32
  0
VERTEX
  8
0
  5
27970
 10
-5.00000
 20
223.118
 30
-4.95117e-14
  70
    32
  0
VERTEX
  8
0
  5
27971
 10
-5.00000
 20
223.255
 30
-4.95411e-14
  70
    32
  0
VERTEX
  8
0
  5
27972
 10
-5.00000
 20
223.393
 30
-4.95705e-14
  70
    32
  0
VERTEX
  8
0
  5
27973
 10
-5.00000
 20
223.531
 30
-4.96000e-14
  70
    32
  0
SEQEND
  8
0
  5
27974
  0
POLYLINE
  8
0
  5
27975
  62
1
  66
     1
 10
0.000000
 20
0.000000
 30
0.000000
  70
     8
  0
VERTEX
  8
0
  5
27976
 10
-5.00000
 20
223.531
 30
-4.96000e-14
  70
    32
  0
VERTEX
  8
0
  5
27977
 10
-4.89444
 20
223.518
 30
-4.95979e-14
  70
    32
  0
VERTEX
  8
0
  5
27978
 10
-4.78889
 20
223.507
 30
-4.95959e-14
  70
    32
  0
VERTEX
  8
0
  5
27979
 10
-4.68336
 20
223.495
 30
-4.95939e-14
  70
    32
  0
VERTEX
  8
0
  5
2797A
 10
-4.57786
 20
223.483
 30
-4.95919e-14
  70
    32
  0
VERTEX
  8
0
  5
2797B
 10
-4.47237
 20
223.472
 30
-4.95900e-14
  70
    32
  0
VERTEX
  8
0
  5
2797C
 10
-4.36689
 20
223.461
 30
-4.95881e-14
  70
    32
  0
VERTEX
  8
0
  5
2797D
 10
-4.26144
 20
223.451
 30
-4.95863e-14
  70
    32
  0
VERTEX
  8
0
  5
2797E
 10
-4.15600
 20
223.440
 30
-4.95845e-14
  70
    32
  0
VERTEX
  8
0
  5
2797F
 10
-4.05058
 20
223.430
 30
-4.95828e-14
  70
    32
  0
VERTEX
  8
0
  5
27980
 10
-3.94517
 20
223.420
 30
-4.95811e-14
  70
    32
  0
VERTEX
  8
0
  5
27981
 10
-3.83978
 20
223.411
 30
-4.95795e-14
  70
    32
  0
VERTEX
  8
0
  5
27982
 10
-3.73441
 20
223.401
 30
-4.95779e-14
  70
    32
  0
VERTEX
  8
0
  5
27983
 10
-3.62905
 20
223.392
 30
-4.95763e-14
  70
    32
  0
VERTEX
  8
0
  5
27984
 10
-3.52370
 20
223.384
 30
-4.95748e-14
  70
    32
  0
VERTEX
  8
0
  5
27985
 10
-3.41837
 20
223.375
 30
-4.95733e-14
  70
    32
  0
VERTEX
  8
0
  5
27986
 10
-3.31305
 20
223.367
 30
-4.95719e-14
  70
    32
  0
VERTEX
  8
0
  5
27987
 10
-3.20774
 20
223.359
 30
-4.95706e-14
  70
    32
  0
VERTEX
  8
0
  5
27988
 10
-3.10245
 20
223.351
 30
-4.95692e-14
  70
    32
  0
VERTEX
  8
0
  5
27989
 10
-2.99717
 20
223.343
 30
-4.95679e-14
  70
    32
  0
VERTEX
  8
0
  5
2798A
 10
-2.89190
 20
223.336
 30
-4.95667e-14
  70
    32
  0
VERTEX
  8
0
  5
2798B
 10
-2.78664
 20
223.329
 30
-4.95655e-14
  70
    32
  0
VERTEX
  8
0
  5
2798C
 10
-2.68139
 20
223.322
 30
-4.95643e-14
  70
    32
  0
VERTEX
  8
0
  5
2798D
 10
-2.57615
 20
223.316
 30
-4.95632e-14
  70
    32
  0
VERTEX
  8
0
  5
2798E
 10
-2.47093
 20
223.310
 30
-4.95622e-14
  70
    32
  0
VERTEX
  8
0
  5
2798F
 10
-2.36571
 20
223.304
 30
-4.95611e-14
  70
    32
  0
VERTEX
  8
0
  5
27990
 10
-2.26050
 20
223.298
 30
-4.95602e-14
  70
    32
  0
VERTEX
  8
0
  5
27991
 10
-2.15530
 20
223.293
 30
-4.95592e-14
  70
    32
  0
VERTEX
  8
0
  5
27992
 10
-2.05011
 20
223.287
 30
-4.95584e-14
  70
    32
  0
VERTEX
  8
0
  5
27993
 10
-1.94493
 20
223.282
 30
-4.95575e-14
  70
    32
  0
VERTEX
  8
0
  5
27994
 10
-1.83976
 20
223.278
 30
-4.95567e-14
  70
    32
  0
VERTEX
  8
0
  5
27995
 10
-1.73459
 20
223.273
 30
-4.95560e-14
  70
    32
  0
VERTEX
  8
0
  5
27996
 10
-1.62943
 20
223.269
 30
-4.95553e-14
  70
    32
  0
VERTEX
  8
0
  5
27997
 10
-1.52427
 20
223.265
 30
-4.95546e-14
  70
    32
  0
VERTEX
  8
0
  5
27998
 10
-1.41913
 20
223.262
 30
-4.95540e-14
  70
    32
  0
VERTEX
  8
0
  5
27999
 10
-1.31398
 20
223.258
 30
-4.95534e-14
  70
    32
  0
VERTEX
  8
0
  5
2799A
 10
-1.20885
 20
223.255
 30
-4.95529e-14
  70
    32
  0
VERTEX
  8
0
  5
2799B
 10
-1.10371
 20
223.252
 30
-4.95524e-14
  70
    32
  0
VERTEX
  8
0
  5
2799C
 10
-0.998584
 20
223.250
 30
-4.95519e-14
  70
    32
  0
VERTEX
  8
0
  5
2799D
 10
-0.893459
 20
223.247
 30
-4.95515e-14
  70
    32
  0
VERTEX
  8
0
  5
2799E
 10
-0.788338
 20
223.245
 30
-4.95512e-14
  70
    32
  0
VERTEX
  8
0
  5
2799F
 10
-0.683220
 20
223.244
 30
-4.95509e-14
  70
    32
  0
VERTEX
  8
0
  5
279A0
 10
-0.578105
 20
223.242
 30
-4.95506e-14
  70
    32
  0
VERTEX
  8
0
  5
279A1
 10
-0.472992
 20
223.241
 30
-4.95504e-14
  70
    32
  0
VERTEX
  8
0
  5
279A2
 10
-0.367881
 20
223.240
 30
-4.95502e-14
  70
    32
  0
VERTEX
  8
0
  5
279A3
 10
-0.262771
 20
223.239
 30
-4.95501e-14
  70
    32
  0
VERTEX
  8
0
  5
279A4
 10
-0.157662
 20
223.238
 30
-4.95500e-14
  70
    32
  0
VERTEX
  8
0
  5
279A5
 10
-0.0525540
 20
223.238
 30
-4.95499e-14
  70
    32
  0
VERTEX
  8
0
  5
279A6
 10
0.0525540
 20
223.238
 30
-4.95499e-14
  70
    32
  0
VERTEX
  8
0
  5
279A7
 10
0.157662
 20
223.238
 30
-4.95500e-14
  70
    32
  0
VERTEX
  8
0
  5
279A8
 10
0.262771
 20
223.239
 30
-4.95501e-14
  70
    32
  0
VERTEX
  8
0
  5
279A9
 10
0.367881
 20
223.240
 30
-4.95502e-14
  70
    32
  0
VERTEX
  8
0
  5
279AA
 10
0.472992
 20
223.241
 30
-4.95504e-14
  70
    32
  0
VERTEX
  8
0
  5
279AB
 10
0.578105
 20
223.242
 30
-4.95506e-14
  70
    32
  0
VERTEX
  8
0
  5
279AC
 10
0.683220
 20
223.244
 30
-4.95509e-14
  70
    32
  0
VERTEX
  8
0
  5
279AD
 10
0.788338
 20
223.245
 30
-4.95512e-14
  70
    32
  0
VERTEX
  8
0
  5
279AE
 10
0.893459
 20
223.247
 30
-4.95515e-14
  70
    32
  0
VERTEX
  8
0
  5
279AF
 10
0.998584
 20
223.250
 30
-4.95519e-14
  70
    32
  0
VERTEX
  8
0
  5
279B0
 10
1.10371
 20
223.252
 30
-4.95524e-14
  70
    32
  0
VERTEX
  8
0
  5
279B1
 10
1.20885
 20
223.255
 30
-4.95529e-14
  70
    32
  0
VERTEX
  8
0
  5
279B2
 10
1.31398
 20
223.258
 30
-4.95534e-14
  70
    32
  0
VERTEX
  8
0
  5
279B3
 10
1.41913
 20
223.262
 30
-4.95540e-14
  70
    32
  0
VERTEX
  8
0
  5
279B4
 10
1.52427
 20
223.265
 30
-4.95546e-14
  70
    32
  0
VERTEX
  8
0
  5
279B5
 10
1.62943
 20
223.269
 30
-4.95553e-14
  70
    32
  0
VERTEX
  8
0
  5
279B6
 10
1.73459
 20
223.273
 30
-4.95560e-14
  70
    32
  0
VERTEX
  8
0
  5
279B7
 10
1.83976
 20
223.278
 30
-4.95567e-14
  70
    32
  0
VERTEX
  8
0
  5
279B8
 10
1.94493
 20
223.282
 30
-4.95575e-14
  70
    32
  0
VERTEX
  8
0
  5
279B9
 10
2.05011
 20
223.287
 30
-4.95584e-14
  70
    32
  0
VERTEX
  8
0
  5
279BA
 10
2.15530
 20
223.293
 30
-4.95592e-14
  70
    32
  0
VERTEX
  8
0
  5
279BB
 10
2.26050
 20
223.298
 30
-4.95602e-14
  70
    32
  0
VERTEX
  8
0
  5
279BC
 10
2.36571
 20
223.304
 30
-4.95611e-14
  70
    32
  0
VERTEX
  8
0
  5
279BD
 10
2.47093
 20
223.310
 30
-4.95622e-14
  70
    32
  0
VERTEX
  8
0
  5
279BE
 10
2.57615
 20
223.316
 30
-4.95632e-14
  70
    32
  0
VERTEX
  8
0
  5
279BF
 10
2.68139
 20
223.322
 30
-4.95643e-14
  70
    32
  0
VERTEX
  8
0
  5
279C0
 10
2.78664
 20
223.329
 30
-4.95655e-14
  70
    32
  0
VERTEX
  8
0
  5
279C1
 10
2.89190
 20
223.336
 30
-4.95667e-14
  70
    32
  0
VERTEX
  8
0
  5
279C2
 10
2.99717
 20
223.343
 30
-4.95679e-14
  70
    32
  0
VERTEX
  8
0
  5
279C3
 10
3.10245
 20
223.351
 30
-4.95692e-14
  70
    32
  0
VERTEX
  8
0
  5
279C4
 10
3.20774
 20
223.359
 30
-4.95706e-14
  70
    32
  0
VERTEX
  8
0
  5
279C5
 10
3.31305
 20
223.367
 30
-4.95719e-14
  70
    32
  0
VERTEX
  8
0
  5
279C6
 10
3.41837
 20
223.375
 30
-4.95733e-14
  70
    32
  0
VERTEX
  8
0
  5
279C7
 10
3.52370
 20
223.384
 30
-4.95748e-14
  70
    32
  0
VERTEX
  8
0
  5
279C8
 10
3.62905
 20
223.392
 30
-4.95763e-14
  70
    32
  0
VERTEX
  8
0
  5
279C9
 10
3.73441
 20
223.401
 30
-4.95779e-14
  70
    32
  0
VERTEX
  8
0
  5
279CA
 10
3.83978
 20
223.411
 30
-4.95795e-14
  70
    32
  0
VERTEX
  8
0
  5
279CB
 10
3.94517
 20
223.420
 30
-4.95811e-14
  70
    32
  0
VERTEX
  8
0
  5
279CC
 10
4.05058
 20
223.430
 30
-4.95828e-14
  70
    32
  0
VERTEX
  8
0
  5
279CD
 10
4.15600
 20
223.440
 30
-4.95845e-14
  70
    32
  0
VERTEX
  8
0
  5
279CE
 10
4.26144
 20
223.451
 30
-4.95863e-14
  70
    32
  0
VERTEX
  8
0
  5
279CF
 10
4.36689
 20
223.461
 30
-4.95881e-14
  70
    32
  0
VERTEX
  8
0
  5
279D0
 10
4.47237
 20
223.472
 30
-4.95900e-14
  70
    32
  0
VERTEX
  8
0
  5
279D1
 10
4.57786
 20
223.483
 30
-4.95919e-14
  70
    32
  0
VERTEX
  8
0
  5
279D2
 10
4.68336
 20
223.495
 30
-4.95939e-14
  70
    32
  0
VERTEX
  8
0
  5
279D3
 10
4.78889
 20
223.507
 30
-4.95959e-14
  70
    32
  0
VERTEX
  8
0
  5
279D4
 10
4.89444
 20
223.518
 30
-4.95979e-14
  70
    32
  0
VERTEX
  8
0
  5
279D5
 10
5.00000
 20
223.531
 30
-4.96000e-14
  70
    32
  0
SEQEND
  8
0
  5
279D6
  0
LINE
  5
2705A
  8
0
  6
VERDECKT
 62
     1
 10
-76.0000000000000142
 20
261.0000000000001137
 30
-0.000000000000058
 11
-0.0000000000000142
 21
261.0000000000001137
 31
-0.000000000000058
210
0.0
220
1.0
230
-0.0000000000000002
  0
LINE
  5
2705B
  8
0
  6
VERDECKT
 62
     1
 10
0.0000000000000035
 20
261.0000000000001137
 30
-0.000000000000058
 11
76.0000000000000284
 21
261.0000000000001137
 31
-0.000000000000058
210
0.0
220
1.0
230
-0.0000000000000002
  0
LINE
  5
2705C
  8
0
  6
VERDECKT
 62
     1
 10
-7.0000000000000018
 20
160.0
 30
-0.0000000000000355
 11
-4.9999999999999787
 21
158.0
 31
-0.0000000000000351
210
0.0
220
1.0
230
-0.0000000000000002
  0
LINE
  5
2705D
  8
0
  6
VERDECKT
 62
     1
 10
-94.0000000000000284
 20
158.0
 30
-0.0000000000000351
 11
94.0000000000000284
 21
158.0
 31
-0.0000000000000351
210
0.0
220
1.0
230
-0.0000000000000002
  0
LINE
  5
2705E
  8
0
  6
VERDECKT
 62
     1
 10
92.0
 20
160.0
 30
-0.0000000000000355
 11
-92.0
 21
160.0
 31
-0.0000000000000355
210
0.0
220
1.0
230
-0.0000000000000002
  0
LINE
  5
2705F
  8
0
  6
VERDECKT
 62
     1
 10
7.0000000000000187
 20
160.0
 30
-0.0000000000000355
 11
5.0000000000000204
 21
158.0
 31
-0.0000000000000351
210
0.0
220
1.0
230
-0.0000000000000002
  0
LINE
  5
27060
  8
0
  6
VERDECKT
 62
     1
 10
-4.9999999999999813
 20
157.3094010767584905
 30
-0.0000000000000349
 11
-4.9999999999999778
 21
204.1152790745657057
 31
-0.0000000000000453
210
0.0
220
1.0
230
-0.0000000000000002
  0
POLYLINE
  8
0
  5
279D7
  62
1
  66
     1
 10
0.000000
 20
0.000000
 30
0.000000
  70
     8
  0
VERTEX
  8
0
  5
279D8
 10
-5.00000
 20
155.000
 30
-3.44000e-14
  70
    32
  0
VERTEX
  8
0
  5
279D9
 10
-5.00000
 20
155.023
 30
-3.44063e-14
  70
    32
  0
VERTEX
  8
0
  5
279DA
 10
-5.00000
 20
155.047
 30
-3.44126e-14
  70
    32
  0
VERTEX
  8
0
  5
279DB
 10
-5.00000
 20
155.070
 30
-3.44189e-14
  70
    32
  0
VERTEX
  8
0
  5
279DC
 10
-5.00000
 20
155.094
 30
-3.44251e-14
  70
    32
  0
VERTEX
  8
0
  5
279DD
 10
-5.00000
 20
155.117
 30
-3.44313e-14
  70
    32
  0
VERTEX
  8
0
  5
279DE
 10
-5.00000
 20
155.141
 30
-3.44375e-14
  70
    32
  0
VERTEX
  8
0
  5
279DF
 10
-5.00000
 20
155.164
 30
-3.44437e-14
  70
    32
  0
VERTEX
  8
0
  5
279E0
 10
-5.00000
 20
155.188
 30
-3.44498e-14
  70
    32
  0
VERTEX
  8
0
  5
279E1
 10
-5.00000
 20
155.211
 30
-3.44560e-14
  70
    32
  0
VERTEX
  8
0
  5
279E2
 10
-5.00000
 20
155.235
 30
-3.44621e-14
  70
    32
  0
VERTEX
  8
0
  5
279E3
 10
-5.00000
 20
155.259
 30
-3.44682e-14
  70
    32
  0
VERTEX
  8
0
  5
279E4
 10
-5.00000
 20
155.282
 30
-3.44742e-14
  70
    32
  0
VERTEX
  8
0
  5
279E5
 10
-5.00000
 20
155.306
 30
-3.44803e-14
  70
    32
  0
VERTEX
  8
0
  5
279E6
 10
-5.00000
 20
155.329
 30
-3.44863e-14
  70
    32
  0
VERTEX
  8
0
  5
279E7
 10
-5.00000
 20
155.353
 30
-3.44923e-14
  70
    32
  0
VERTEX
  8
0
  5
279E8
 10
-5.00000
 20
155.377
 30
-3.44983e-14
  70
    32
  0
VERTEX
  8
0
  5
279E9
 10
-5.00000
 20
155.400
 30
-3.45042e-14
  70
    32
  0
VERTEX
  8
0
  5
279EA
 10
-5.00000
 20
155.424
 30
-3.45101e-14
  70
    32
  0
VERTEX
  8
0
  5
279EB
 10
-5.00000
 20
155.448
 30
-3.45160e-14
  70
    32
  0
VERTEX
  8
0
  5
279EC
 10
-5.00000
 20
155.472
 30
-3.45219e-14
  70
    32
  0
VERTEX
  8
0
  5
279ED
 10
-5.00000
 20
155.496
 30
-3.45278e-14
  70
    32
  0
VERTEX
  8
0
  5
279EE
 10
-5.00000
 20
155.519
 30
-3.45336e-14
  70
    32
  0
VERTEX
  8
0
  5
279EF
 10
-5.00000
 20
155.543
 30
-3.45394e-14
  70
    32
  0
VERTEX
  8
0
  5
279F0
 10
-5.00000
 20
155.567
 30
-3.45452e-14
  70
    32
  0
VERTEX
  8
0
  5
279F1
 10
-5.00000
 20
155.591
 30
-3.45510e-14
  70
    32
  0
VERTEX
  8
0
  5
279F2
 10
-5.00000
 20
155.615
 30
-3.45568e-14
  70
    32
  0
VERTEX
  8
0
  5
279F3
 10
-5.00000
 20
155.639
 30
-3.45625e-14
  70
    32
  0
VERTEX
  8
0
  5
279F4
 10
-5.00000
 20
155.663
 30
-3.45682e-14
  70
    32
  0
VERTEX
  8
0
  5
279F5
 10
-5.00000
 20
155.686
 30
-3.45739e-14
  70
    32
  0
VERTEX
  8
0
  5
279F6
 10
-5.00000
 20
155.710
 30
-3.45795e-14
  70
    32
  0
VERTEX
  8
0
  5
279F7
 10
-5.00000
 20
155.734
 30
-3.45852e-14
  70
    32
  0
VERTEX
  8
0
  5
279F8
 10
-5.00000
 20
155.758
 30
-3.45908e-14
  70
    32
  0
VERTEX
  8
0
  5
279F9
 10
-5.00000
 20
155.782
 30
-3.45964e-14
  70
    32
  0
VERTEX
  8
0
  5
279FA
 10
-5.00000
 20
155.806
 30
-3.46020e-14
  70
    32
  0
VERTEX
  8
0
  5
279FB
 10
-5.00000
 20
155.830
 30
-3.46075e-14
  70
    32
  0
VERTEX
  8
0
  5
279FC
 10
-5.00000
 20
155.855
 30
-3.46130e-14
  70
    32
  0
VERTEX
  8
0
  5
279FD
 10
-5.00000
 20
155.879
 30
-3.46185e-14
  70
    32
  0
VERTEX
  8
0
  5
279FE
 10
-5.00000
 20
155.903
 30
-3.46240e-14
  70
    32
  0
VERTEX
  8
0
  5
279FF
 10
-5.00000
 20
155.927
 30
-3.46295e-14
  70
    32
  0
VERTEX
  8
0
  5
27A00
 10
-5.00000
 20
155.951
 30
-3.46349e-14
  70
    32
  0
VERTEX
  8
0
  5
27A01
 10
-5.00000
 20
155.975
 30
-3.46403e-14
  70
    32
  0
VERTEX
  8
0
  5
27A02
 10
-5.00000
 20
155.999
 30
-3.46457e-14
  70
    32
  0
VERTEX
  8
0
  5
27A03
 10
-5.00000
 20
156.024
 30
-3.46511e-14
  70
    32
  0
VERTEX
  8
0
  5
27A04
 10
-5.00000
 20
156.048
 30
-3.46565e-14
  70
    32
  0
VERTEX
  8
0
  5
27A05
 10
-5.00000
 20
156.072
 30
-3.46618e-14
  70
    32
  0
VERTEX
  8
0
  5
27A06
 10
-5.00000
 20
156.096
 30
-3.46671e-14
  70
    32
  0
VERTEX
  8
0
  5
27A07
 10
-5.00000
 20
156.121
 30
-3.46724e-14
  70
    32
  0
VERTEX
  8
0
  5
27A08
 10
-5.00000
 20
156.145
 30
-3.46776e-14
  70
    32
  0
VERTEX
  8
0
  5
27A09
 10
-5.00000
 20
156.169
 30
-3.46829e-14
  70
    32
  0
VERTEX
  8
0
  5
27A0A
 10
-5.00000
 20
156.194
 30
-3.46881e-14
  70
    32
  0
VERTEX
  8
0
  5
27A0B
 10
-5.00000
 20
156.218
 30
-3.46933e-14
  70
    32
  0
VERTEX
  8
0
  5
27A0C
 10
-5.00000
 20
156.242
 30
-3.46985e-14
  70
    32
  0
VERTEX
  8
0
  5
27A0D
 10
-5.00000
 20
156.267
 30
-3.47036e-14
  70
    32
  0
VERTEX
  8
0
  5
27A0E
 10
-5.00000
 20
156.291
 30
-3.47087e-14
  70
    32
  0
VERTEX
  8
0
  5
27A0F
 10
-5.00000
 20
156.316
 30
-3.47138e-14
  70
    32
  0
VERTEX
  8
0
  5
27A10
 10
-5.00000
 20
156.340
 30
-3.47189e-14
  70
    32
  0
VERTEX
  8
0
  5
27A11
 10
-5.00000
 20
156.364
 30
-3.47240e-14
  70
    32
  0
VERTEX
  8
0
  5
27A12
 10
-5.00000
 20
156.389
 30
-3.47290e-14
  70
    32
  0
VERTEX
  8
0
  5
27A13
 10
-5.00000
 20
156.413
 30
-3.47340e-14
  70
    32
  0
VERTEX
  8
0
  5
27A14
 10
-5.00000
 20
156.438
 30
-3.47390e-14
  70
    32
  0
VERTEX
  8
0
  5
27A15
 10
-5.00000
 20
156.463
 30
-3.47440e-14
  70
    32
  0
VERTEX
  8
0
  5
27A16
 10
-5.00000
 20
156.487
 30
-3.47490e-14
  70
    32
  0
VERTEX
  8
0
  5
27A17
 10
-5.00000
 20
156.512
 30
-3.47539e-14
  70
    32
  0
VERTEX
  8
0
  5
27A18
 10
-5.00000
 20
156.536
 30
-3.47588e-14
  70
    32
  0
VERTEX
  8
0
  5
27A19
 10
-5.00000
 20
156.561
 30
-3.47637e-14
  70
    32
  0
VERTEX
  8
0
  5
27A1A
 10
-5.00000
 20
156.586
 30
-3.47686e-14
  70
    32
  0
VERTEX
  8
0
  5
27A1B
 10
-5.00000
 20
156.610
 30
-3.47734e-14
  70
    32
  0
VERTEX
  8
0
  5
27A1C
 10
-5.00000
 20
156.635
 30
-3.47782e-14
  70
    32
  0
VERTEX
  8
0
  5
27A1D
 10
-5.00000
 20
156.660
 30
-3.47830e-14
  70
    32
  0
VERTEX
  8
0
  5
27A1E
 10
-5.00000
 20
156.684
 30
-3.47878e-14
  70
    32
  0
VERTEX
  8
0
  5
27A1F
 10
-5.00000
 20
156.709
 30
-3.47925e-14
  70
    32
  0
VERTEX
  8
0
  5
27A20
 10
-5.00000
 20
156.734
 30
-3.47973e-14
  70
    32
  0
VERTEX
  8
0
  5
27A21
 10
-5.00000
 20
156.759
 30
-3.48020e-14
  70
    32
  0
VERTEX
  8
0
  5
27A22
 10
-5.00000
 20
156.784
 30
-3.48067e-14
  70
    32
  0
VERTEX
  8
0
  5
27A23
 10
-5.00000
 20
156.808
 30
-3.48113e-14
  70
    32
  0
VERTEX
  8
0
  5
27A24
 10
-5.00000
 20
156.833
 30
-3.48160e-14
  70
    32
  0
VERTEX
  8
0
  5
27A25
 10
-5.00000
 20
156.858
 30
-3.48206e-14
  70
    32
  0
VERTEX
  8
0
  5
27A26
 10
-5.00000
 20
156.883
 30
-3.48252e-14
  70
    32
  0
VERTEX
  8
0
  5
27A27
 10
-5.00000
 20
156.908
 30
-3.48298e-14
  70
    32
  0
VERTEX
  8
0
  5
27A28
 10
-5.00000
 20
156.933
 30
-3.48343e-14
  70
    32
  0
VERTEX
  8
0
  5
27A29
 10
-5.00000
 20
156.958
 30
-3.48389e-14
  70
    32
  0
VERTEX
  8
0
  5
27A2A
 10
-5.00000
 20
156.983
 30
-3.48434e-14
  70
    32
  0
VERTEX
  8
0
  5
27A2B
 10
-5.00000
 20
157.008
 30
-3.48479e-14
  70
    32
  0
VERTEX
  8
0
  5
27A2C
 10
-5.00000
 20
157.033
 30
-3.48523e-14
  70
    32
  0
VERTEX
  8
0
  5
27A2D
 10
-5.00000
 20
157.058
 30
-3.48568e-14
  70
    32
  0
VERTEX
  8
0
  5
27A2E
 10
-5.00000
 20
157.083
 30
-3.48612e-14
  70
    32
  0
VERTEX
  8
0
  5
27A2F
 10
-5.00000
 20
157.108
 30
-3.48656e-14
  70
    32
  0
VERTEX
  8
0
  5
27A30
 10
-5.00000
 20
157.133
 30
-3.48700e-14
  70
    32
  0
VERTEX
  8
0
  5
27A31
 10
-5.00000
 20
157.158
 30
-3.48743e-14
  70
    32
  0
VERTEX
  8
0
  5
27A32
 10
-5.00000
 20
157.183
 30
-3.48787e-14
  70
    32
  0
VERTEX
  8
0
  5
27A33
 10
-5.00000
 20
157.209
 30
-3.48830e-14
  70
    32
  0
VERTEX
  8
0
  5
27A34
 10
-5.00000
 20
157.234
 30
-3.48873e-14
  70
    32
  0
VERTEX
  8
0
  5
27A35
 10
-5.00000
 20
157.259
 30
-3.48915e-14
  70
    32
  0
VERTEX
  8
0
  5
27A36
 10
-5.00000
 20
157.284
 30
-3.48958e-14
  70
    32
  0
VERTEX
  8
0
  5
27A37
 10
-5.00000
 20
157.309
 30
-3.49000e-14
  70
    32
  0
SEQEND
  8
0
  5
27A38
  0
LINE
  5
27062
  8
0
  6
VERDECKT
 62
     1
 10
-4.9999999999999813
 20
150.0
 30
-0.0000000000000333
 11
-4.9999999999999813
 21
155.0
 31
-0.0000000000000344
210
0.0
220
1.0
230
-0.0000000000000002
  0
LINE
  5
27063
  8
0
  6
VERDECKT
 62
     1
 10
-50.9999999999999929
 20
155.0
 30
-0.0000000000000344
 11
51.0000000000000071
 21
155.0
 31
-0.0000000000000344
210
0.0
220
1.0
230
-0.0000000000000002
  0
LINE
  5
27064
  8
0
  6
VERDECKT
 62
     1
 10
-55.0
 20
157.3094010767584905
 30
-0.0000000000000349
 11
55.0
 21
157.3094010767584905
 31
-0.0000000000000349
210
0.0
220
1.0
230
-0.0000000000000002
  0
ARC
  5
27065
  8
0
  6
VERDECKT
 62
     1
 10
68.0000000000000995
 20
204.1152790745657057
 30
0.0
 40
13.0000000000000995
210
0.0
220
-0.0000000000000002
230
-1.0
 50
146.7251120151651094
 51
179.9999999999998863
  0
ARC
  5
27066
  8
0
  6
VERDECKT
 62
     1
 10
-68.0000000000000995
 20
204.1152790745657057
 30
0.0
 40
13.0000000000000995
210
0.0
220
-0.0000000000000002
230
-1.0
 50
0.0000000000001272
 51
33.2748879848349404
  0
LINE
  5
27067
  8
0
  6
VERDECKT
 62
     1
 10
-57.1313771591181805
 20
211.2478128138943987
 30
-0.0000000000000469
 11
-72.7209582167412663
 21
235.0033649017011044
 31
-0.0000000000000522
210
0.0
220
1.0
230
-0.0000000000000002
  0
LINE
  5
27068
  8
0
  6
VERDECKT
 62
     1
 10
57.1313771591181876
 20
211.2478128138943987
 30
-0.0000000000000469
 11
72.7209582167412805
 21
235.0033649017011044
 31
-0.0000000000000522
210
0.0
220
1.0
230
-0.0000000000000002
  0
ARC
  5
27069
  8
0
  6
VERDECKT
 62
     1
 10
56.0000000000001492
 20
245.9764937314373867
 30
0.0
 40
19.9999999999998508
210
0.0
220
-0.0000000000000002
230
-1.0
 50
326.7251120151649957
 51
0.0000000000000827
  0
ARC
  5
2706A
  8
0
  6
VERDECKT
 62
     1
 10
-56.0
 20
245.9764937314375004
 30
0.0
 40
20.0000000000000284
210
0.0
220
-0.0000000000000002
230
-1.0
 50
180.0
 51
213.2748879848348906
  0
LINE
  5
2706B
  8
0
  6
VERDECKT
 62
     1
 10
76.0000000000000142
 20
261.0000000000001137
 30
-0.000000000000058
 11
76.0000000000000142
 21
245.9764937314375004
 31
-0.0000000000000546
210
0.0
220
1.0
230
-0.0000000000000002
  0
LINE
  5
2706C
  8
0
  6
VERDECKT
 62
     1
 10
-76.0000000000000142
 20
261.0000000000001137
 30
-0.000000000000058
 11
-76.0000000000000142
 21
245.9764937314375004
 31
-0.0000000000000546
210
0.0
220
1.0
230
-0.0000000000000002
  0
LINE
  5
2706D
  8
0
  6
VERDECKT
 62
     1
 10
-84.0
 20
158.0
 30
-0.0000000000000351
 11
-86.0
 21
160.0
 31
-0.0000000000000355
210
0.0
220
1.0
230
-0.0000000000000002
  0
LINE
  5
2706E
  8
0
  6
VERDECKT
 62
     1
 10
84.0
 20
158.0
 30
-0.0000000000000351
 11
86.0
 21
160.0
 31
-0.0000000000000355
210
0.0
220
1.0
230
-0.0000000000000002
  0
LINE
  5
2706F
  8
0
  6
VERDECKT
 62
     1
 10
92.0000000000000142
 20
160.0
 30
-0.0000000000000355
 11
94.0000000000000142
 21
158.0
 31
-0.0000000000000351
210
0.0
220
1.0
230
-0.0000000000000002
  0
LINE
  5
27070
  8
0
  6
VERDECKT
 62
     1
 10
-92.0000000000000142
 20
160.0
 30
-0.0000000000000355
 11
-94.0000000000000142
 21
158.0
 31
-0.0000000000000351
210
0.0
220
1.0
230
-0.0000000000000002
  0
LINE
  5
27071
  8
0
  6
VERDECKT
 62
     1
 10
-84.0
 20
150.0
 30
-0.0000000000000333
 11
-84.0
 21
158.0
 31
-0.0000000000000351
210
0.0
220
1.0
230
-0.0000000000000002
  0
LINE
  5
27072
  8
0
  6
VERDECKT
 62
     1
 10
84.0
 20
150.0
 30
-0.0000000000000333
 11
84.0
 21
158.0
 31
-0.0000000000000351
210
0.0
220
1.0
230
-0.0000000000000002
  0
LINE
  5
27073
  8
0
  6
VERDECKT
 62
     1
 10
51.0000000000000071
 20
155.0
 30
-0.0000000000000344
 11
51.0000000000000071
 21
150.0
 31
-0.0000000000000333
210
0.0
220
1.0
230
-0.0000000000000002
  0
LINE
  5
27074
  8
0
  6
VERDECKT
 62
     1
 10
-51.0000000000000071
 20
155.0
 30
-0.0000000000000344
 11
-51.0000000000000071
 21
150.0
 31
-0.0000000000000333
210
0.0
220
1.0
230
-0.0000000000000002
  0
LINE
  5
27075
  8
0
  6
VERDECKT
 62
     1
 10
-51.0000000000000071
 20
155.0
 30
-0.0000000000000344
 11
-55.0
 21
157.3094010767584905
 31
-0.0000000000000349
210
0.0
220
1.0
230
-0.0000000000000002
  0
LINE
  5
27076
  8
0
  6
VERDECKT
 62
     1
 10
51.0000000000000071
 20
155.0
 30
-0.0000000000000344
 11
55.0
 21
157.3094010767584905
 31
-0.0000000000000349
210
0.0
220
1.0
230
-0.0000000000000002
  0
LINE
  5
27077
  8
0
  6
VERDECKT
 62
     1
 10
55.0
 20
204.1152790745657057
 30
-0.0000000000000453
 11
55.0
 21
157.3094010767584905
 31
-0.0000000000000349
210
0.0
220
1.0
230
-0.0000000000000002
  0
LINE
  5
27078
  8
0
  6
VERDECKT
 62
     1
 10
-55.0
 20
204.1152790745657057
 30
-0.0000000000000453
 11
-55.0
 21
157.3094010767584905
 31
-0.0000000000000349
210
0.0
220
1.0
230
-0.0000000000000002
  0
LINE
  5
27079
  8
0
  6
VERDECKT
 62
     1
 10
-94.0000000000000142
 20
150.0
 30
-0.0000000000000333
 11
-94.0000000000000142
 21
158.0
 31
-0.0000000000000351
210
0.0
220
1.0
230
-0.0000000000000002
  0
LINE
  5
2707A
  8
0
  6
VERDECKT
 62
     1
 10
94.0000000000000142
 20
150.0
 30
-0.0000000000000333
 11
94.0000000000000142
 21
158.0
 31
-0.0000000000000351
210
0.0
220
1.0
230
-0.0000000000000002
  0
LINE
  5
2707B
  8
0
  6
VERDECKT
 62
     1
 10
-76.0
 20
261.0000000000001137
 30
-0.000000000000058
 11
-93.9999999999999574
 21
300.0
 31
-0.0000000000000666
210
0.0
220
1.0
230
-0.0000000000000002
  0
LINE
  5
2707C
  8
0
  6
VERDECKT
 62
     1
 10
76.0000000000000142
 20
261.0000000000001137
 30
-0.000000000000058
 11
94.0
 21
300.0
 31
-0.0000000000000666
210
0.0
220
1.0
230
-0.0000000000000002
  0
ENDBLK
  5
2707E
  8
0
  0
ENDSEC
  0
SECTION
  2
ENTITIES
  0
INSERT
  5
712A
  8
ADSK_ASSOC_ENTITY_BACKUPS
  2
*S0
 10
0.0
 20
0.0
 30
0.0
  0
INSERT
  5
27027
  8
STEMPEL
  2
A$C0C5E91FE
 10
0.0
 20
-150.0
 30
0.0
  0
INSERT
  5
2707F
  8
STEMPEL
  2
A$C886D9F5F
 10
0.0
 20
0.0
 30
0.0
  0
VIEWPORT
  5
7108
 67
     1
  8
0
 10
148.2499996567773906
 20
209.7499999283116097
 30
0.0
 40
794.7428097682383168
 41
421.6632699637139012
 68
     1
 69
     1
1001
ACAD
1000
MVIEW
1002
{
1070
    16
1010
0.0
1020
0.0
1030
0.0
1010
0.0
1020
0.0
1030
1.0
1040
0.0
1040
421.6632699637139012
1040
148.2499996567773906
1040
209.7499999283116097
1040
50.0
1040
0.0
1040
0.0
1070
     0
1070
  1500
1070
     1
1070
     1
1070
     0
1070
     0
1070
     0
1070
     0
1040
0.0
1040
0.0
1040
0.0
1040
10.0
1040
10.0
1040
10.0
1040
10.0
1070
     0
1002
{
1002
}
1002
}
  0
ENDSEC
  0
EOF
