  0
SECTION
  2
HEADER
  9
$ACADVER
  1
AC1009
  9
$INSBASE
 10
0.0
 20
0.0
 30
0.0
  9
$EXTMIN
 10
-90.5000000000000426
 20
-190.5
 30
-0.0000000000000666
  9
$EXTMAX
 10
90.5000000000000853
 20
300.0
 30
0.0000000000000012
  9
$LIMMIN
 10
0.0
 20
0.0
  9
$LIMMAX
 10
594.0
 20
840.0
  9
$ORTHOMODE
 70
     1
  9
$REGENMODE
 70
     1
  9
$FILLMODE
 70
     1
  9
$QTEXTMODE
 70
     0
  9
$MIRRTEXT
 70
     1
  9
$DRAGMODE
 70
     2
  9
$LTSCALE
 40
10.0
  9
$OSMODE
 70
   511
  9
$ATTMODE
 70
     1
  9
$TEXTSIZE
 40
3.5
  9
$TRACEWID
 40
1.0
  9
$TEXTSTYLE
  7
STANDARD
  9
$CLAYER
  8
STEMPEL
  9
$CELTYPE
  6
BYLAYER
  9
$CECOLOR
 62
   256
  9
$DIMSCALE
 40
1.0
  9
$DIMASZ
 40
3.5
  9
$DIMEXO
 40
1.0
  9
$DIMDLI
 40
0.38
  9
$DIMRND
 40
0.0
  9
$DIMDLE
 40
0.0
  9
$DIMEXE
 40
1.0
  9
$DIMTP
 40
0.0
  9
$DIMTM
 40
0.000000001
  9
$DIMTXT
 40
3.5
  9
$DIMCEN
 40
0.09
  9
$DIMTSZ
 40
0.0
  9
$DIMTOL
 70
     0
  9
$DIMLIM
 70
     0
  9
$DIMTIH
 70
     0
  9
$DIMTOH
 70
     0
  9
$DIMSE1
 70
     0
  9
$DIMSE2
 70
     0
  9
$DIMTAD
 70
     1
  9
$DIMZIN
 70
     8
  9
$DIMBLK
  1

  9
$DIMASO
 70
     1
  9
$DIMSHO
 70
     0
  9
$DIMPOST
  1

  9
$DIMAPOST
  1

  9
$DIMALT
 70
     0
  9
$DIMALTD
 70
     2
  9
$DIMALTF
 40
25.3999999999999986
  9
$DIMLFAC
 40
2.0
  9
$DIMTOFL
 70
     1
  9
$DIMTVP
 40
0.0
  9
$DIMTIX
 70
     0
  9
$DIMSOXD
 70
     0
  9
$DIMSAH
 70
     0
  9
$DIMBLK1
  1

  9
$DIMBLK2
  1

  9
$DIMSTYLE
  2
LORO
  9
$DIMCLRD
 70
     0
  9
$DIMCLRE
 70
     0
  9
$DIMCLRT
 70
     1
  9
$DIMTFAC
 40
0.5
  9
$DIMGAP
 40
1.5
  9
$LUNITS
 70
     2
  9
$LUPREC
 70
     2
  9
$SKETCHINC
 40
1.0
  9
$FILLETRAD
 40
3.0
  9
$AUNITS
 70
     0
  9
$AUPREC
 70
     0
  9
$MENU
  1
ACAD
  9
$ELEVATION
 40
0.0
  9
$PELEVATION
 40
0.0
  9
$THICKNESS
 40
0.0
  9
$LIMCHECK
 70
     0
  9
$BLIPMODE
 70
     0
  9
$CHAMFERA
 40
0.0
  9
$CHAMFERB
 40
0.0
  9
$SKPOLY
 70
     0
  9
$TDCREATE
 40
2455397.867048610933125
  9
$TDUPDATE
 40
2460728.5696643521077931
  9
$TDINDWG
 40
2.8642886806000001
  9
$TDUSRTIMER
 40
2.8642886806000001
  9
$USRTIMER
 70
     1
  9
$ANGBASE
 50
0.0
  9
$ANGDIR
 70
     0
  9
$PDMODE
 70
     0
  9
$PDSIZE
 40
0.0
  9
$PLINEWID
 40
0.0
  9
$COORDS
 70
     1
  9
$SPLFRAME
 70
     0
  9
$SPLINETYPE
 70
     6
  9
$SPLINESEGS
 70
     8
  9
$ATTDIA
 70
     1
  9
$ATTREQ
 70
     1
  9
$HANDLING
 70
     1
  9
$HANDSEED
  5
272F4
  9
$SURFTAB1
 70
     6
  9
$SURFTAB2
 70
     6
  9
$SURFTYPE
 70
     6
  9
$SURFU
 70
     6
  9
$SURFV
 70
     6
  9
$UCSNAME
  2

  9
$UCSORG
 10
0.0
 20
0.0
 30
0.0
  9
$UCSXDIR
 10
1.0
 20
0.0
 30
0.0
  9
$UCSYDIR
 10
0.0
 20
1.0
 30
0.0
  9
$PUCSNAME
  2

  9
$PUCSORG
 10
0.0
 20
0.0
 30
0.0
  9
$PUCSXDIR
 10
1.0
 20
0.0
 30
0.0
  9
$PUCSYDIR
 10
0.0
 20
1.0
 30
0.0
  9
$USERI1
 70
     0
  9
$USERI2
 70
     0
  9
$USERI3
 70
     0
  9
$USERI4
 70
     0
  9
$USERI5
 70
     0
  9
$USERR1
 40
0.0
  9
$USERR2
 40
0.0
  9
$USERR3
 40
0.0
  9
$USERR4
 40
0.0
  9
$USERR5
 40
0.0
  9
$WORLDVIEW
 70
     1
  9
$SHADEDGE
 70
     3
  9
$SHADEDIF
 70
    70
  9
$TILEMODE
 70
     1
  9
$MAXACTVP
 70
    16
  9
$PLIMCHECK
 70
     0
  9
$PEXTMIN
 10
-0.0000000000001705
 20
-0.0000000000000943
 30
-0.0000000000001227
  9
$PEXTMAX
 10
296.5
 20
419.5000000000001137
 30
0.0000000000000568
  9
$PLIMMIN
 10
-0.2396407465832908
 20
-0.2655563985319986
  9
$PLIMMAX
 10
296.7603592534167092
 20
419.7344436014678877
  9
$UNITMODE
 70
     0
  9
$VISRETAIN
 70
     0
  9
$PLINEGEN
 70
     0
  9
$PSLTSCALE
 70
     0
  0
ENDSEC
  0
SECTION
  2
TABLES
  0
TABLE
  2
VPORT
 70
     1
  0
VPORT
  2
*ACTIVE
 70
     0
 10
0.0
 20
0.0
 11
1.0
 21
1.0
 12
0.0
 22
-50.0031547546386435
 13
0.0
 23
0.0
 14
1.0
 24
1.0
 15
10.0
 25
10.0
 16
-0.0000000000002609
 26
0.0
 36
1174.9130769290420631
 17
0.0
 27
104.7531547546386008
 37
-0.0000000000000328
 40
493.0283505154640125
 41
1.8847807394668961
 42
50.0
 43
0.0
 44
0.0
 50
0.0
 51
0.0
 71
     0
 72
  1500
 73
     1
 74
     0
 75
     0
 76
     0
 77
     0
 78
     0
  0
ENDTAB
  0
TABLE
  2
LTYPE
 70
     3
  0
LTYPE
  2
CONTINUOUS
 70
     0
  3
Solid line
 72
    65
 73
     0
 40
0.0
  0
LTYPE
  2
STRICHPUNKT
 70
     0
  3
__ . __ . __ . __ . __ . __ . __ . __ . __ . __
 72
    65
 73
     4
 40
1.0
 49
0.5
 49
-0.25
 49
0.0
 49
-0.25
  0
LTYPE
  2
VERDECKT
 70
     0
  3
Verdeckt __ __ __ __ __ __ __ __ __ __ __ __ __
 72
    65
 73
     2
 40
0.375
 49
0.25
 49
-0.125
  0
ENDTAB
  0
TABLE
  2
LAYER
 70
     5
  0
LAYER
  2
0
 70
     0
 62
     7
  6
CONTINUOUS
  0
LAYER
  2
STEMPEL
 70
     0
 62
     3
  6
CONTINUOUS
  0
LAYER
  2
ADSK_ASSOC_ENTITY_BACKUPS
 70
     1
 62
    -7
  6
CONTINUOUS
  0
ENDTAB
  0
TABLE
  2
STYLE
 70
     2
  0
STYLE
  2
STANDARD
 70
     0
 40
0.0
 41
0.8
 50
0.0
 71
     0
 42
3.5
  3
simplex.shx
  4

  0
ENDTAB
  0
TABLE
  2
VIEW
 70
     0
  0
ENDTAB
  0
TABLE
  2
UCS
 70
     0
  0
ENDTAB
  0
TABLE
  2
APPID
 70
    31
  0
APPID
  2
ACAD
 70
     0
  0
APPID
  2
ACAECLAYERSTANDARD
 70
     0
  0
APPID
  2
ACCMTRANSPARENCY
 70
     0
  0
APPID
  2
ACAD_NAV_VCDISPLAY
 70
     0
  0
APPID
  2
ACAD_PSEXT
 70
     0
  0
APPID
  2
ACAD_STEPID
 70
     0
  0
APPID
  2
ACAD_EXEMPT_FROM_CAD_STANDARDS
 70
     0
  0
APPID
  2
ACSYNERGY
 70
     0
  0
APPID
  2
SYNERGY_BODY_TBR_ID
 70
     0
  0
APPID
  2
ACAD_VIEW_EDGE_ID
 70
     0
  0
APPID
  2
GRADIENTCOLOR1ACI
 70
     0
  0
APPID
  2
GRADIENTCOLOR2ACI
 70
     0
  0
APPID
  2
ACAD_DSTYLE_DIMRADIAL_EXTENSION
 70
     0
  0
APPID
  2
ACADANNOMONITORALERTICONDI
 70
     0
  0
APPID
  2
ACAD_MLEADERVER
 70
     0
  0
APPID
  2
ACSYNERGYSKETCH
 70
     0
  0
APPID
  2
ACAD_MODELDOC_XFORM
 70
     0
  0
APPID
  2
ACDBDYNAMICBLOCKGUID
 70
     0
  0
APPID
  2
ACAD_DSTYLE_DIMJAG
 70
     0
  0
APPID
  2
ACAD_DSTYLE_DIMBREAK
 70
     0
  0
APPID
  2
ACAD_DSTYLE_DIMTALN
 70
     0
  0
APPID
  2
ACADANNOPO
 70
     0
  0
APPID
  2
PLOTTRANSPARENCY
 70
     0
  0
APPID
  2
ACADANNOTATIVE
 70
     0
  0
APPID
  2
ACAD_DIMASSOC_CALC_DIMLFAC
 70
     0
  0
APPID
  2
ACAD_DIMASSOC_DIMLFAC
 70
     0
  0
APPID
  2
ACAD_DIMASSOC_OVERRIDDEN_D
 70
     0
  0
APPID
  2
ACADANNOAV
 70
     0
  0
APPID
  2
ACAUTHENVIRON
 70
     0
  0
APPID
  2
ACDBDYNAMICBLOCKTRUENAME
 70
     0
  0
APPID
  2
SYNERGY_EXCLUDED_FROM_SNAPSHOT
 70
     0
  0
ENDTAB
  0
TABLE
  2
DIMSTYLE
 70
     1
  0
DIMSTYLE
  2
LORO
 70
     0
  3

  4

  5

  6

  7

 40
1.0
 41
3.5
 42
1.0
 43
0.38
 44
1.0
 45
0.0
 46
0.0
 47
0.0
 48
0.000000001
140
3.5
141
0.09
142
0.0
143
25.3999999999999986
144
2.0
145
0.0
146
0.5
147
1.5
 71
     0
 72
     0
 73
     0
 74
     0
 75
     0
 76
     0
 77
     1
 78
     8
170
     0
171
     2
172
     1
173
     0
174
     0
175
     0
176
     0
177
     0
178
     1
  0
ENDTAB
  0
ENDSEC
  0
SECTION
  2
BLOCKS
  0
BLOCK
  8
0
  2
$MODEL_SPACE
 70
     0
 10
0.0
 20
0.0
 30
0.0
  3
$MODEL_SPACE
  1

  0
ENDBLK
  5
38
  8
0
  0
BLOCK
 67
     1
  8
0
  2
$PAPER_SPACE
 70
     0
 10
0.0
 20
0.0
 30
0.0
  3
$PAPER_SPACE
  1

  0
ENDBLK
  5
36
 67
     1
  8
0
  0
BLOCK
  8
0
  2
*S0
 70
     1
 10
0.0
 20
0.0
 30
0.0
  3
*S0
  1

  0
ENDBLK
  5
7128
  8
0
  0
BLOCK
  8
0
  2
A$C92877371
 70
     0
 10
0.0
 20
0.0
 30
0.0
  3
A$C92877371
  1

  0
POLYLINE
  8
0
  5
26D98
  62
3
  66
     1
 10
0.000000
 20
0.000000
 30
0.000000
  70
     8
  0
VERTEX
  8
0
  5
26D99
 10
-5.00000
 20
36.1559
 30
-1.10000e-15
  70
    32
  0
VERTEX
  8
0
  5
26D9A
 10
-5.00000
 20
36.1914
 30
-1.10000e-15
  70
    32
  0
VERTEX
  8
0
  5
26D9B
 10
-5.00000
 20
36.2270
 30
-1.10000e-15
  70
    32
  0
VERTEX
  8
0
  5
26D9C
 10
-5.00000
 20
36.2626
 30
-1.10000e-15
  70
    32
  0
VERTEX
  8
0
  5
26D9D
 10
-5.00000
 20
36.2982
 30
-1.10000e-15
  70
    32
  0
VERTEX
  8
0
  5
26D9E
 10
-5.00000
 20
36.3338
 30
-1.10000e-15
  70
    32
  0
VERTEX
  8
0
  5
26D9F
 10
-5.00000
 20
36.3695
 30
-1.10000e-15
  70
    32
  0
VERTEX
  8
0
  5
26DA0
 10
-5.00000
 20
36.4052
 30
-1.10000e-15
  70
    32
  0
VERTEX
  8
0
  5
26DA1
 10
-5.00000
 20
36.4410
 30
-1.10000e-15
  70
    32
  0
VERTEX
  8
0
  5
26DA2
 10
-5.00000
 20
36.4768
 30
-1.10000e-15
  70
    32
  0
VERTEX
  8
0
  5
26DA3
 10
-5.00000
 20
36.5126
 30
-1.10000e-15
  70
    32
  0
VERTEX
  8
0
  5
26DA4
 10
-5.00000
 20
36.5484
 30
-1.10000e-15
  70
    32
  0
VERTEX
  8
0
  5
26DA5
 10
-5.00000
 20
36.5843
 30
-1.10000e-15
  70
    32
  0
VERTEX
  8
0
  5
26DA6
 10
-5.00000
 20
36.6202
 30
-1.10000e-15
  70
    32
  0
VERTEX
  8
0
  5
26DA7
 10
-5.00000
 20
36.6562
 30
-1.10000e-15
  70
    32
  0
VERTEX
  8
0
  5
26DA8
 10
-5.00000
 20
36.6922
 30
-1.10000e-15
  70
    32
  0
VERTEX
  8
0
  5
26DA9
 10
-5.00000
 20
36.7282
 30
-1.10000e-15
  70
    32
  0
VERTEX
  8
0
  5
26DAA
 10
-5.00000
 20
36.7643
 30
-1.10000e-15
  70
    32
  0
VERTEX
  8
0
  5
26DAB
 10
-5.00000
 20
36.8004
 30
-1.10000e-15
  70
    32
  0
VERTEX
  8
0
  5
26DAC
 10
-5.00000
 20
36.8365
 30
-1.10000e-15
  70
    32
  0
VERTEX
  8
0
  5
26DAD
 10
-5.00000
 20
36.8726
 30
-1.10000e-15
  70
    32
  0
VERTEX
  8
0
  5
26DAE
 10
-5.00000
 20
36.9088
 30
-1.10000e-15
  70
    32
  0
VERTEX
  8
0
  5
26DAF
 10
-5.00000
 20
36.9451
 30
-1.10000e-15
  70
    32
  0
VERTEX
  8
0
  5
26DB0
 10
-5.00000
 20
36.9813
 30
-1.10000e-15
  70
    32
  0
VERTEX
  8
0
  5
26DB1
 10
-5.00000
 20
37.0176
 30
-1.10000e-15
  70
    32
  0
VERTEX
  8
0
  5
26DB2
 10
-5.00000
 20
37.0540
 30
-1.10000e-15
  70
    32
  0
VERTEX
  8
0
  5
26DB3
 10
-5.00000
 20
37.0903
 30
-1.10000e-15
  70
    32
  0
VERTEX
  8
0
  5
26DB4
 10
-5.00000
 20
37.1267
 30
-1.10000e-15
  70
    32
  0
VERTEX
  8
0
  5
26DB5
 10
-5.00000
 20
37.1632
 30
-1.10000e-15
  70
    32
  0
VERTEX
  8
0
  5
26DB6
 10
-5.00000
 20
37.1996
 30
-1.10000e-15
  70
    32
  0
VERTEX
  8
0
  5
26DB7
 10
-5.00000
 20
37.2361
 30
-1.10000e-15
  70
    32
  0
VERTEX
  8
0
  5
26DB8
 10
-5.00000
 20
37.2727
 30
-1.10000e-15
  70
    32
  0
VERTEX
  8
0
  5
26DB9
 10
-5.00000
 20
37.3093
 30
-1.10000e-15
  70
    32
  0
VERTEX
  8
0
  5
26DBA
 10
-5.00000
 20
37.3459
 30
-1.10000e-15
  70
    32
  0
VERTEX
  8
0
  5
26DBB
 10
-5.00000
 20
37.3825
 30
-1.10000e-15
  70
    32
  0
VERTEX
  8
0
  5
26DBC
 10
-5.00000
 20
37.4192
 30
-1.10000e-15
  70
    32
  0
VERTEX
  8
0
  5
26DBD
 10
-5.00000
 20
37.4559
 30
-1.10000e-15
  70
    32
  0
VERTEX
  8
0
  5
26DBE
 10
-5.00000
 20
37.4927
 30
-1.10000e-15
  70
    32
  0
VERTEX
  8
0
  5
26DBF
 10
-5.00000
 20
37.5294
 30
-1.10000e-15
  70
    32
  0
VERTEX
  8
0
  5
26DC0
 10
-5.00000
 20
37.5663
 30
-1.10000e-15
  70
    32
  0
VERTEX
  8
0
  5
26DC1
 10
-5.00000
 20
37.6031
 30
-1.10000e-15
  70
    32
  0
VERTEX
  8
0
  5
26DC2
 10
-5.00000
 20
37.6400
 30
-1.10000e-15
  70
    32
  0
VERTEX
  8
0
  5
26DC3
 10
-5.00000
 20
37.6769
 30
-1.10000e-15
  70
    32
  0
VERTEX
  8
0
  5
26DC4
 10
-5.00000
 20
37.7139
 30
-1.10000e-15
  70
    32
  0
VERTEX
  8
0
  5
26DC5
 10
-5.00000
 20
37.7509
 30
-1.10000e-15
  70
    32
  0
VERTEX
  8
0
  5
26DC6
 10
-5.00000
 20
37.7879
 30
-1.10000e-15
  70
    32
  0
VERTEX
  8
0
  5
26DC7
 10
-5.00000
 20
37.8250
 30
-1.10000e-15
  70
    32
  0
VERTEX
  8
0
  5
26DC8
 10
-5.00000
 20
37.8621
 30
-1.10000e-15
  70
    32
  0
VERTEX
  8
0
  5
26DC9
 10
-5.00000
 20
37.8993
 30
-1.10000e-15
  70
    32
  0
VERTEX
  8
0
  5
26DCA
 10
-5.00000
 20
37.9364
 30
-1.10000e-15
  70
    32
  0
VERTEX
  8
0
  5
26DCB
 10
-5.00000
 20
37.9737
 30
-1.10000e-15
  70
    32
  0
VERTEX
  8
0
  5
26DCC
 10
-5.00000
 20
38.0109
 30
-1.10000e-15
  70
    32
  0
VERTEX
  8
0
  5
26DCD
 10
-5.00000
 20
38.0482
 30
-1.10000e-15
  70
    32
  0
VERTEX
  8
0
  5
26DCE
 10
-5.00000
 20
38.0855
 30
-1.10000e-15
  70
    32
  0
VERTEX
  8
0
  5
26DCF
 10
-5.00000
 20
38.1229
 30
-1.10000e-15
  70
    32
  0
VERTEX
  8
0
  5
26DD0
 10
-5.00000
 20
38.1603
 30
-1.10000e-15
  70
    32
  0
VERTEX
  8
0
  5
26DD1
 10
-5.00000
 20
38.1977
 30
-1.10000e-15
  70
    32
  0
VERTEX
  8
0
  5
26DD2
 10
-5.00000
 20
38.2352
 30
-1.10000e-15
  70
    32
  0
VERTEX
  8
0
  5
26DD3
 10
-5.00000
 20
38.2727
 30
-1.10000e-15
  70
    32
  0
VERTEX
  8
0
  5
26DD4
 10
-5.00000
 20
38.3102
 30
-1.10000e-15
  70
    32
  0
VERTEX
  8
0
  5
26DD5
 10
-5.00000
 20
38.3478
 30
-1.10000e-15
  70
    32
  0
VERTEX
  8
0
  5
26DD6
 10
-5.00000
 20
38.3854
 30
-1.10000e-15
  70
    32
  0
VERTEX
  8
0
  5
26DD7
 10
-5.00000
 20
38.4230
 30
-1.10000e-15
  70
    32
  0
VERTEX
  8
0
  5
26DD8
 10
-5.00000
 20
38.4607
 30
-1.10000e-15
  70
    32
  0
VERTEX
  8
0
  5
26DD9
 10
-5.00000
 20
38.4984
 30
-1.10000e-15
  70
    32
  0
VERTEX
  8
0
  5
26DDA
 10
-5.00000
 20
38.5362
 30
-1.10000e-15
  70
    32
  0
VERTEX
  8
0
  5
26DDB
 10
-5.00000
 20
38.5740
 30
-1.10000e-15
  70
    32
  0
VERTEX
  8
0
  5
26DDC
 10
-5.00000
 20
38.6118
 30
-1.10000e-15
  70
    32
  0
VERTEX
  8
0
  5
26DDD
 10
-5.00000
 20
38.6497
 30
-1.10000e-15
  70
    32
  0
VERTEX
  8
0
  5
26DDE
 10
-5.00000
 20
38.6876
 30
-1.10000e-15
  70
    32
  0
VERTEX
  8
0
  5
26DDF
 10
-5.00000
 20
38.7255
 30
-1.10000e-15
  70
    32
  0
VERTEX
  8
0
  5
26DE0
 10
-5.00000
 20
38.7635
 30
-1.10000e-15
  70
    32
  0
VERTEX
  8
0
  5
26DE1
 10
-5.00000
 20
38.8015
 30
-1.10000e-15
  70
    32
  0
VERTEX
  8
0
  5
26DE2
 10
-5.00000
 20
38.8396
 30
-1.10000e-15
  70
    32
  0
VERTEX
  8
0
  5
26DE3
 10
-5.00000
 20
38.8777
 30
-1.10000e-15
  70
    32
  0
VERTEX
  8
0
  5
26DE4
 10
-5.00000
 20
38.9158
 30
-1.10000e-15
  70
    32
  0
VERTEX
  8
0
  5
26DE5
 10
-5.00000
 20
38.9540
 30
-1.10000e-15
  70
    32
  0
VERTEX
  8
0
  5
26DE6
 10
-5.00000
 20
38.9922
 30
-1.10000e-15
  70
    32
  0
VERTEX
  8
0
  5
26DE7
 10
-5.00000
 20
39.0304
 30
-1.10000e-15
  70
    32
  0
VERTEX
  8
0
  5
26DE8
 10
-5.00000
 20
39.0687
 30
-1.10000e-15
  70
    32
  0
VERTEX
  8
0
  5
26DE9
 10
-5.00000
 20
39.1070
 30
-1.10000e-15
  70
    32
  0
VERTEX
  8
0
  5
26DEA
 10
-5.00000
 20
39.1454
 30
-1.10000e-15
  70
    32
  0
VERTEX
  8
0
  5
26DEB
 10
-5.00000
 20
39.1838
 30
-1.10000e-15
  70
    32
  0
VERTEX
  8
0
  5
26DEC
 10
-5.00000
 20
39.2222
 30
-1.10000e-15
  70
    32
  0
VERTEX
  8
0
  5
26DED
 10
-5.00000
 20
39.2606
 30
-1.10000e-15
  70
    32
  0
VERTEX
  8
0
  5
26DEE
 10
-5.00000
 20
39.2991
 30
-1.10000e-15
  70
    32
  0
VERTEX
  8
0
  5
26DEF
 10
-5.00000
 20
39.3377
 30
-1.10000e-15
  70
    32
  0
VERTEX
  8
0
  5
26DF0
 10
-5.00000
 20
39.3763
 30
-1.10000e-15
  70
    32
  0
VERTEX
  8
0
  5
26DF1
 10
-5.00000
 20
39.4149
 30
-1.10000e-15
  70
    32
  0
VERTEX
  8
0
  5
26DF2
 10
-5.00000
 20
39.4535
 30
-1.10000e-15
  70
    32
  0
VERTEX
  8
0
  5
26DF3
 10
-5.00000
 20
39.4922
 30
-1.10000e-15
  70
    32
  0
VERTEX
  8
0
  5
26DF4
 10
-5.00000
 20
39.5310
 30
-1.10000e-15
  70
    32
  0
VERTEX
  8
0
  5
26DF5
 10
-5.00000
 20
39.5697
 30
-1.10000e-15
  70
    32
  0
VERTEX
  8
0
  5
26DF6
 10
-5.00000
 20
39.6085
 30
-1.10000e-15
  70
    32
  0
VERTEX
  8
0
  5
26DF7
 10
-5.00000
 20
39.6474
 30
-1.10000e-15
  70
    32
  0
VERTEX
  8
0
  5
26DF8
 10
-5.00000
 20
39.6863
 30
-1.10000e-15
  70
    32
  0
SEQEND
  8
0
  5
26DF9
  0
POLYLINE
  8
0
  5
26DFA
  62
3
  66
     1
 10
0.000000
 20
0.000000
 30
0.000000
  70
     8
  0
VERTEX
  8
0
  5
26DFB
 10
-5.00000
 20
39.6863
 30
-1.10000e-15
  70
    32
  0
VERTEX
  8
0
  5
26DFC
 10
-5.00000
 20
39.7837
 30
-1.10000e-15
  70
    32
  0
VERTEX
  8
0
  5
26DFD
 10
-5.00000
 20
39.8813
 30
-1.10000e-15
  70
    32
  0
VERTEX
  8
0
  5
26DFE
 10
-5.00000
 20
39.9792
 30
-1.10000e-15
  70
    32
  0
VERTEX
  8
0
  5
26DFF
 10
-5.00000
 20
40.0772
 30
-1.10000e-15
  70
    32
  0
VERTEX
  8
0
  5
26E00
 10
-5.00000
 20
40.1755
 30
-1.10000e-15
  70
    32
  0
VERTEX
  8
0
  5
26E01
 10
-5.00000
 20
40.2740
 30
-1.10000e-15
  70
    32
  0
VERTEX
  8
0
  5
26E02
 10
-5.00000
 20
40.3727
 30
-1.10000e-15
  70
    32
  0
VERTEX
  8
0
  5
26E03
 10
-5.00000
 20
40.4717
 30
-1.10000e-15
  70
    32
  0
VERTEX
  8
0
  5
26E04
 10
-5.00000
 20
40.5708
 30
-1.10000e-15
  70
    32
  0
VERTEX
  8
0
  5
26E05
 10
-5.00000
 20
40.6702
 30
-1.10000e-15
  70
    32
  0
VERTEX
  8
0
  5
26E06
 10
-5.00000
 20
40.7698
 30
-1.10000e-15
  70
    32
  0
VERTEX
  8
0
  5
26E07
 10
-5.00000
 20
40.8696
 30
-1.10000e-15
  70
    32
  0
VERTEX
  8
0
  5
26E08
 10
-5.00000
 20
40.9696
 30
-1.10000e-15
  70
    32
  0
VERTEX
  8
0
  5
26E09
 10
-5.00000
 20
41.0698
 30
-1.10000e-15
  70
    32
  0
VERTEX
  8
0
  5
26E0A
 10
-5.00000
 20
41.1703
 30
-1.10000e-15
  70
    32
  0
VERTEX
  8
0
  5
26E0B
 10
-5.00000
 20
41.2710
 30
-1.10000e-15
  70
    32
  0
VERTEX
  8
0
  5
26E0C
 10
-5.00000
 20
41.3719
 30
-1.10000e-15
  70
    32
  0
VERTEX
  8
0
  5
26E0D
 10
-5.00000
 20
41.4730
 30
-1.10000e-15
  70
    32
  0
VERTEX
  8
0
  5
26E0E
 10
-5.00000
 20
41.5744
 30
-1.10000e-15
  70
    32
  0
VERTEX
  8
0
  5
26E0F
 10
-5.00000
 20
41.6760
 30
-1.10000e-15
  70
    32
  0
VERTEX
  8
0
  5
26E10
 10
-5.00000
 20
41.7778
 30
-1.10000e-15
  70
    32
  0
VERTEX
  8
0
  5
26E11
 10
-5.00000
 20
41.8798
 30
-1.10000e-15
  70
    32
  0
VERTEX
  8
0
  5
26E12
 10
-5.00000
 20
41.9821
 30
-1.10000e-15
  70
    32
  0
VERTEX
  8
0
  5
26E13
 10
-5.00000
 20
42.0846
 30
-1.10000e-15
  70
    32
  0
VERTEX
  8
0
  5
26E14
 10
-5.00000
 20
42.1873
 30
-1.10000e-15
  70
    32
  0
VERTEX
  8
0
  5
26E15
 10
-5.00000
 20
42.2903
 30
-1.10000e-15
  70
    32
  0
VERTEX
  8
0
  5
26E16
 10
-5.00000
 20
42.3935
 30
-1.10000e-15
  70
    32
  0
VERTEX
  8
0
  5
26E17
 10
-5.00000
 20
42.4969
 30
-1.10000e-15
  70
    32
  0
VERTEX
  8
0
  5
26E18
 10
-5.00000
 20
42.6006
 30
-1.10000e-15
  70
    32
  0
VERTEX
  8
0
  5
26E19
 10
-5.00000
 20
42.7045
 30
-1.10000e-15
  70
    32
  0
VERTEX
  8
0
  5
26E1A
 10
-5.00000
 20
42.8086
 30
-1.10000e-15
  70
    32
  0
VERTEX
  8
0
  5
26E1B
 10
-5.00000
 20
42.9129
 30
-1.10000e-15
  70
    32
  0
VERTEX
  8
0
  5
26E1C
 10
-5.00000
 20
43.0175
 30
-1.10000e-15
  70
    32
  0
VERTEX
  8
0
  5
26E1D
 10
-5.00000
 20
43.1224
 30
-1.10000e-15
  70
    32
  0
VERTEX
  8
0
  5
26E1E
 10
-5.00000
 20
43.2274
 30
-1.10000e-15
  70
    32
  0
VERTEX
  8
0
  5
26E1F
 10
-5.00000
 20
43.3328
 30
-1.10000e-15
  70
    32
  0
VERTEX
  8
0
  5
26E20
 10
-5.00000
 20
43.4383
 30
-1.10000e-15
  70
    32
  0
VERTEX
  8
0
  5
26E21
 10
-5.00000
 20
43.5441
 30
-1.10000e-15
  70
    32
  0
VERTEX
  8
0
  5
26E22
 10
-5.00000
 20
43.6501
 30
-1.10000e-15
  70
    32
  0
VERTEX
  8
0
  5
26E23
 10
-5.00000
 20
43.7564
 30
-1.10000e-15
  70
    32
  0
VERTEX
  8
0
  5
26E24
 10
-5.00000
 20
43.8629
 30
-1.10000e-15
  70
    32
  0
VERTEX
  8
0
  5
26E25
 10
-5.00000
 20
43.9697
 30
-1.10000e-15
  70
    32
  0
VERTEX
  8
0
  5
26E26
 10
-5.00000
 20
44.0767
 30
-1.10000e-15
  70
    32
  0
VERTEX
  8
0
  5
26E27
 10
-5.00000
 20
44.1839
 30
-1.10000e-15
  70
    32
  0
VERTEX
  8
0
  5
26E28
 10
-5.00000
 20
44.2914
 30
-1.10000e-15
  70
    32
  0
VERTEX
  8
0
  5
26E29
 10
-5.00000
 20
44.3991
 30
-1.10000e-15
  70
    32
  0
VERTEX
  8
0
  5
26E2A
 10
-5.00000
 20
44.5071
 30
-1.10000e-15
  70
    32
  0
VERTEX
  8
0
  5
26E2B
 10
-5.00000
 20
44.6154
 30
-1.10000e-15
  70
    32
  0
VERTEX
  8
0
  5
26E2C
 10
-5.00000
 20
44.7239
 30
-1.10000e-15
  70
    32
  0
VERTEX
  8
0
  5
26E2D
 10
-5.00000
 20
44.8326
 30
-1.10000e-15
  70
    32
  0
VERTEX
  8
0
  5
26E2E
 10
-5.00000
 20
44.9416
 30
-1.10000e-15
  70
    32
  0
VERTEX
  8
0
  5
26E2F
 10
-5.00000
 20
45.0508
 30
-1.10000e-15
  70
    32
  0
VERTEX
  8
0
  5
26E30
 10
-5.00000
 20
45.1603
 30
-1.10000e-15
  70
    32
  0
VERTEX
  8
0
  5
26E31
 10
-5.00000
 20
45.2701
 30
-1.10000e-15
  70
    32
  0
VERTEX
  8
0
  5
26E32
 10
-5.00000
 20
45.3801
 30
-1.10000e-15
  70
    32
  0
VERTEX
  8
0
  5
26E33
 10
-5.00000
 20
45.4903
 30
-1.10000e-15
  70
    32
  0
VERTEX
  8
0
  5
26E34
 10
-5.00000
 20
45.6008
 30
-1.10000e-15
  70
    32
  0
VERTEX
  8
0
  5
26E35
 10
-5.00000
 20
45.7116
 30
-1.10000e-15
  70
    32
  0
VERTEX
  8
0
  5
26E36
 10
-5.00000
 20
45.8226
 30
-1.10000e-15
  70
    32
  0
VERTEX
  8
0
  5
26E37
 10
-5.00000
 20
45.9339
 30
-1.10000e-15
  70
    32
  0
VERTEX
  8
0
  5
26E38
 10
-5.00000
 20
46.0455
 30
-1.10000e-15
  70
    32
  0
VERTEX
  8
0
  5
26E39
 10
-5.00000
 20
46.1573
 30
-1.10000e-15
  70
    32
  0
VERTEX
  8
0
  5
26E3A
 10
-5.00000
 20
46.2694
 30
-1.10000e-15
  70
    32
  0
VERTEX
  8
0
  5
26E3B
 10
-5.00000
 20
46.3817
 30
-1.10000e-15
  70
    32
  0
VERTEX
  8
0
  5
26E3C
 10
-5.00000
 20
46.4943
 30
-1.10000e-15
  70
    32
  0
VERTEX
  8
0
  5
26E3D
 10
-5.00000
 20
46.6072
 30
-1.10000e-15
  70
    32
  0
VERTEX
  8
0
  5
26E3E
 10
-5.00000
 20
46.7203
 30
-1.10000e-15
  70
    32
  0
VERTEX
  8
0
  5
26E3F
 10
-5.00000
 20
46.8337
 30
-1.10000e-15
  70
    32
  0
VERTEX
  8
0
  5
26E40
 10
-5.00000
 20
46.9474
 30
-1.10000e-15
  70
    32
  0
VERTEX
  8
0
  5
26E41
 10
-5.00000
 20
47.0613
 30
-1.10000e-15
  70
    32
  0
VERTEX
  8
0
  5
26E42
 10
-5.00000
 20
47.1755
 30
-1.10000e-15
  70
    32
  0
VERTEX
  8
0
  5
26E43
 10
-5.00000
 20
47.2900
 30
-1.10000e-15
  70
    32
  0
VERTEX
  8
0
  5
26E44
 10
-5.00000
 20
47.4047
 30
-1.10000e-15
  70
    32
  0
VERTEX
  8
0
  5
26E45
 10
-5.00000
 20
47.5198
 30
-1.10000e-15
  70
    32
  0
VERTEX
  8
0
  5
26E46
 10
-5.00000
 20
47.6351
 30
-1.10000e-15
  70
    32
  0
VERTEX
  8
0
  5
26E47
 10
-5.00000
 20
47.7506
 30
-1.10000e-15
  70
    32
  0
VERTEX
  8
0
  5
26E48
 10
-5.00000
 20
47.8665
 30
-1.10000e-15
  70
    32
  0
VERTEX
  8
0
  5
26E49
 10
-5.00000
 20
47.9826
 30
-1.10000e-15
  70
    32
  0
VERTEX
  8
0
  5
26E4A
 10
-5.00000
 20
48.0990
 30
-1.10000e-15
  70
    32
  0
VERTEX
  8
0
  5
26E4B
 10
-5.00000
 20
48.2157
 30
-1.10000e-15
  70
    32
  0
VERTEX
  8
0
  5
26E4C
 10
-5.00000
 20
48.3326
 30
-1.10000e-15
  70
    32
  0
VERTEX
  8
0
  5
26E4D
 10
-5.00000
 20
48.4499
 30
-1.10000e-15
  70
    32
  0
VERTEX
  8
0
  5
26E4E
 10
-5.00000
 20
48.5674
 30
-1.10000e-15
  70
    32
  0
VERTEX
  8
0
  5
26E4F
 10
-5.00000
 20
48.6852
 30
-1.10000e-15
  70
    32
  0
VERTEX
  8
0
  5
26E50
 10
-5.00000
 20
48.8033
 30
-1.10000e-15
  70
    32
  0
VERTEX
  8
0
  5
26E51
 10
-5.00000
 20
48.9217
 30
-1.10000e-15
  70
    32
  0
VERTEX
  8
0
  5
26E52
 10
-5.00000
 20
49.0403
 30
-1.10000e-15
  70
    32
  0
VERTEX
  8
0
  5
26E53
 10
-5.00000
 20
49.1593
 30
-1.10000e-15
  70
    32
  0
VERTEX
  8
0
  5
26E54
 10
-5.00000
 20
49.2785
 30
-1.10000e-15
  70
    32
  0
VERTEX
  8
0
  5
26E55
 10
-5.00000
 20
49.3980
 30
-1.10000e-15
  70
    32
  0
VERTEX
  8
0
  5
26E56
 10
-5.00000
 20
49.5178
 30
-1.10000e-15
  70
    32
  0
VERTEX
  8
0
  5
26E57
 10
-5.00000
 20
49.6379
 30
-1.10000e-15
  70
    32
  0
VERTEX
  8
0
  5
26E58
 10
-5.00000
 20
49.7583
 30
-1.10000e-15
  70
    32
  0
VERTEX
  8
0
  5
26E59
 10
-5.00000
 20
49.8790
 30
-1.10000e-15
  70
    32
  0
VERTEX
  8
0
  5
26E5A
 10
-5.00000
 20
50.0000
 30
-1.10000e-15
  70
    32
  0
SEQEND
  8
0
  5
26E5B
  0
POLYLINE
  8
0
  5
26E5C
  62
3
  66
     1
 10
0.000000
 20
0.000000
 30
0.000000
  70
     8
  0
VERTEX
  8
0
  5
26E5D
 10
-5.00000
 20
50.0000
 30
-1.10000e-15
  70
    32
  0
VERTEX
  8
0
  5
26E5E
 10
-4.89423
 20
50.0000
 30
-1.07673e-15
  70
    32
  0
VERTEX
  8
0
  5
26E5F
 10
-4.78849
 20
50.0000
 30
-1.05347e-15
  70
    32
  0
VERTEX
  8
0
  5
26E60
 10
-4.68278
 20
50.0000
 30
-1.03021e-15
  70
    32
  0
VERTEX
  8
0
  5
26E61
 10
-4.57711
 20
50.0000
 30
-1.00696e-15
  70
    32
  0
VERTEX
  8
0
  5
26E62
 10
-4.47146
 20
50.0000
 30
-9.83721e-16
  70
    32
  0
VERTEX
  8
0
  5
26E63
 10
-4.36584
 20
50.0000
 30
-9.60486e-16
  70
    32
  0
VERTEX
  8
0
  5
26E64
 10
-4.26026
 20
50.0000
 30
-9.37257e-16
  70
    32
  0
VERTEX
  8
0
  5
26E65
 10
-4.15470
 20
50.0000
 30
-9.14034e-16
  70
    32
  0
VERTEX
  8
0
  5
26E66
 10
-4.04917
 20
50.0000
 30
-8.90817e-16
  70
    32
  0
VERTEX
  8
0
  5
26E67
 10
-3.94366
 20
50.0000
 30
-8.67606e-16
  70
    32
  0
VERTEX
  8
0
  5
26E68
 10
-3.83819
 20
50.0000
 30
-8.44401e-16
  70
    32
  0
VERTEX
  8
0
  5
26E69
 10
-3.73273
 20
50.0000
 30
-8.21201e-16
  70
    32
  0
VERTEX
  8
0
  5
26E6A
 10
-3.62731
 20
50.0000
 30
-7.98007e-16
  70
    32
  0
VERTEX
  8
0
  5
26E6B
 10
-3.52190
 20
50.0000
 30
-7.74818e-16
  70
    32
  0
VERTEX
  8
0
  5
26E6C
 10
-3.41652
 20
50.0000
 30
-7.51635e-16
  70
    32
  0
VERTEX
  8
0
  5
26E6D
 10
-3.31116
 20
50.0000
 30
-7.28456e-16
  70
    32
  0
VERTEX
  8
0
  5
26E6E
 10
-3.20583
 20
50.0000
 30
-7.05282e-16
  70
    32
  0
VERTEX
  8
0
  5
26E6F
 10
-3.10051
 20
50.0000
 30
-6.82113e-16
  70
    32
  0
VERTEX
  8
0
  5
26E70
 10
-2.99522
 20
50.0000
 30
-6.58948e-16
  70
    32
  0
VERTEX
  8
0
  5
26E71
 10
-2.88995
 20
50.0000
 30
-6.35788e-16
  70
    32
  0
VERTEX
  8
0
  5
26E72
 10
-2.78469
 20
50.0000
 30
-6.12632e-16
  70
    32
  0
VERTEX
  8
0
  5
26E73
 10
-2.67945
 20
50.0000
 30
-5.89480e-16
  70
    32
  0
VERTEX
  8
0
  5
26E74
 10
-2.57424
 20
50.0000
 30
-5.66332e-16
  70
    32
  0
VERTEX
  8
0
  5
26E75
 10
-2.46903
 20
50.0000
 30
-5.43187e-16
  70
    32
  0
VERTEX
  8
0
  5
26E76
 10
-2.36385
 20
50.0000
 30
-5.20047e-16
  70
    32
  0
VERTEX
  8
0
  5
26E77
 10
-2.25868
 20
50.0000
 30
-4.96909e-16
  70
    32
  0
VERTEX
  8
0
  5
26E78
 10
-2.15352
 20
50.0000
 30
-4.73775e-16
  70
    32
  0
VERTEX
  8
0
  5
26E79
 10
-2.04838
 20
50.0000
 30
-4.50645e-16
  70
    32
  0
VERTEX
  8
0
  5
26E7A
 10
-1.94326
 20
50.0000
 30
-4.27517e-16
  70
    32
  0
VERTEX
  8
0
  5
26E7B
 10
-1.83814
 20
50.0000
 30
-4.04392e-16
  70
    32
  0
VERTEX
  8
0
  5
26E7C
 10
-1.73304
 20
50.0000
 30
-3.81269e-16
  70
    32
  0
VERTEX
  8
0
  5
26E7D
 10
-1.62795
 20
50.0000
 30
-3.58149e-16
  70
    32
  0
VERTEX
  8
0
  5
26E7E
 10
-1.52287
 20
50.0000
 30
-3.35032e-16
  70
    32
  0
VERTEX
  8
0
  5
26E7F
 10
-1.41780
 20
50.0000
 30
-3.11917e-16
  70
    32
  0
VERTEX
  8
0
  5
26E80
 10
-1.31274
 20
50.0000
 30
-2.88803e-16
  70
    32
  0
VERTEX
  8
0
  5
26E81
 10
-1.20769
 20
50.0000
 30
-2.65692e-16
  70
    32
  0
VERTEX
  8
0
  5
26E82
 10
-1.10265
 20
50.0000
 30
-2.42583e-16
  70
    32
  0
VERTEX
  8
0
  5
26E83
 10
-0.997612
 20
50.0000
 30
-2.19475e-16
  70
    32
  0
VERTEX
  8
0
  5
26E84
 10
-0.892582
 20
50.0000
 30
-1.96368e-16
  70
    32
  0
VERTEX
  8
0
  5
26E85
 10
-0.787559
 20
50.0000
 30
-1.73263e-16
  70
    32
  0
VERTEX
  8
0
  5
26E86
 10
-0.682540
 20
50.0000
 30
-1.50159e-16
  70
    32
  0
VERTEX
  8
0
  5
26E87
 10
-0.577526
 20
50.0000
 30
-1.27056e-16
  70
    32
  0
VERTEX
  8
0
  5
26E88
 10
-0.472516
 20
50.0000
 30
-1.03954e-16
  70
    32
  0
VERTEX
  8
0
  5
26E89
 10
-0.367510
 20
50.0000
 30
-8.08521e-17
  70
    32
  0
VERTEX
  8
0
  5
26E8A
 10
-0.262505
 20
50.0000
 30
-5.77511e-17
  70
    32
  0
VERTEX
  8
0
  5
26E8B
 10
-0.157502
 20
50.0000
 30
-3.46505e-17
  70
    32
  0
VERTEX
  8
0
  5
26E8C
 10
-0.0525007
 20
50.0000
 30
-1.15501e-17
  70
    32
  0
VERTEX
  8
0
  5
26E8D
 10
0.0525007
 20
50.0000
 30
1.15501e-17
  70
    32
  0
VERTEX
  8
0
  5
26E8E
 10
0.157502
 20
50.0000
 30
3.46505e-17
  70
    32
  0
VERTEX
  8
0
  5
26E8F
 10
0.262505
 20
50.0000
 30
5.77511e-17
  70
    32
  0
VERTEX
  8
0
  5
26E90
 10
0.367510
 20
50.0000
 30
8.08521e-17
  70
    32
  0
VERTEX
  8
0
  5
26E91
 10
0.472516
 20
50.0000
 30
1.03954e-16
  70
    32
  0
VERTEX
  8
0
  5
26E92
 10
0.577526
 20
50.0000
 30
1.27056e-16
  70
    32
  0
VERTEX
  8
0
  5
26E93
 10
0.682540
 20
50.0000
 30
1.50159e-16
  70
    32
  0
VERTEX
  8
0
  5
26E94
 10
0.787559
 20
50.0000
 30
1.73263e-16
  70
    32
  0
VERTEX
  8
0
  5
26E95
 10
0.892582
 20
50.0000
 30
1.96368e-16
  70
    32
  0
VERTEX
  8
0
  5
26E96
 10
0.997612
 20
50.0000
 30
2.19475e-16
  70
    32
  0
VERTEX
  8
0
  5
26E97
 10
1.10265
 20
50.0000
 30
2.42583e-16
  70
    32
  0
VERTEX
  8
0
  5
26E98
 10
1.20769
 20
50.0000
 30
2.65692e-16
  70
    32
  0
VERTEX
  8
0
  5
26E99
 10
1.31274
 20
50.0000
 30
2.88803e-16
  70
    32
  0
VERTEX
  8
0
  5
26E9A
 10
1.41780
 20
50.0000
 30
3.11917e-16
  70
    32
  0
VERTEX
  8
0
  5
26E9B
 10
1.52287
 20
50.0000
 30
3.35032e-16
  70
    32
  0
VERTEX
  8
0
  5
26E9C
 10
1.62795
 20
50.0000
 30
3.58149e-16
  70
    32
  0
VERTEX
  8
0
  5
26E9D
 10
1.73304
 20
50.0000
 30
3.81269e-16
  70
    32
  0
VERTEX
  8
0
  5
26E9E
 10
1.83814
 20
50.0000
 30
4.04392e-16
  70
    32
  0
VERTEX
  8
0
  5
26E9F
 10
1.94326
 20
50.0000
 30
4.27517e-16
  70
    32
  0
VERTEX
  8
0
  5
26EA0
 10
2.04838
 20
50.0000
 30
4.50645e-16
  70
    32
  0
VERTEX
  8
0
  5
26EA1
 10
2.15352
 20
50.0000
 30
4.73775e-16
  70
    32
  0
VERTEX
  8
0
  5
26EA2
 10
2.25868
 20
50.0000
 30
4.96909e-16
  70
    32
  0
VERTEX
  8
0
  5
26EA3
 10
2.36385
 20
50.0000
 30
5.20047e-16
  70
    32
  0
VERTEX
  8
0
  5
26EA4
 10
2.46903
 20
50.0000
 30
5.43187e-16
  70
    32
  0
VERTEX
  8
0
  5
26EA5
 10
2.57424
 20
50.0000
 30
5.66332e-16
  70
    32
  0
VERTEX
  8
0
  5
26EA6
 10
2.67945
 20
50.0000
 30
5.89480e-16
  70
    32
  0
VERTEX
  8
0
  5
26EA7
 10
2.78469
 20
50.0000
 30
6.12632e-16
  70
    32
  0
VERTEX
  8
0
  5
26EA8
 10
2.88995
 20
50.0000
 30
6.35788e-16
  70
    32
  0
VERTEX
  8
0
  5
26EA9
 10
2.99522
 20
50.0000
 30
6.58948e-16
  70
    32
  0
VERTEX
  8
0
  5
26EAA
 10
3.10051
 20
50.0000
 30
6.82113e-16
  70
    32
  0
VERTEX
  8
0
  5
26EAB
 10
3.20583
 20
50.0000
 30
7.05282e-16
  70
    32
  0
VERTEX
  8
0
  5
26EAC
 10
3.31116
 20
50.0000
 30
7.28456e-16
  70
    32
  0
VERTEX
  8
0
  5
26EAD
 10
3.41652
 20
50.0000
 30
7.51635e-16
  70
    32
  0
VERTEX
  8
0
  5
26EAE
 10
3.52190
 20
50.0000
 30
7.74818e-16
  70
    32
  0
VERTEX
  8
0
  5
26EAF
 10
3.62731
 20
50.0000
 30
7.98007e-16
  70
    32
  0
VERTEX
  8
0
  5
26EB0
 10
3.73273
 20
50.0000
 30
8.21201e-16
  70
    32
  0
VERTEX
  8
0
  5
26EB1
 10
3.83819
 20
50.0000
 30
8.44401e-16
  70
    32
  0
VERTEX
  8
0
  5
26EB2
 10
3.94366
 20
50.0000
 30
8.67606e-16
  70
    32
  0
VERTEX
  8
0
  5
26EB3
 10
4.04917
 20
50.0000
 30
8.90817e-16
  70
    32
  0
VERTEX
  8
0
  5
26EB4
 10
4.15470
 20
50.0000
 30
9.14034e-16
  70
    32
  0
VERTEX
  8
0
  5
26EB5
 10
4.26026
 20
50.0000
 30
9.37257e-16
  70
    32
  0
VERTEX
  8
0
  5
26EB6
 10
4.36584
 20
50.0000
 30
9.60486e-16
  70
    32
  0
VERTEX
  8
0
  5
26EB7
 10
4.47146
 20
50.0000
 30
9.83721e-16
  70
    32
  0
VERTEX
  8
0
  5
26EB8
 10
4.57711
 20
50.0000
 30
1.00696e-15
  70
    32
  0
VERTEX
  8
0
  5
26EB9
 10
4.68278
 20
50.0000
 30
1.03021e-15
  70
    32
  0
VERTEX
  8
0
  5
26EBA
 10
4.78849
 20
50.0000
 30
1.05347e-15
  70
    32
  0
VERTEX
  8
0
  5
26EBB
 10
4.89423
 20
50.0000
 30
1.07673e-15
  70
    32
  0
VERTEX
  8
0
  5
26EBC
 10
5.00000
 20
50.0000
 30
1.10000e-15
  70
    32
  0
SEQEND
  8
0
  5
26EBD
  0
POLYLINE
  8
0
  5
26EBE
  62
3
  66
     1
 10
0.000000
 20
0.000000
 30
0.000000
  70
     8
  0
VERTEX
  8
0
  5
26EBF
 10
5.00000
 20
39.6863
 30
1.10000e-15
  70
    32
  0
VERTEX
  8
0
  5
26EC0
 10
5.00000
 20
39.6474
 30
1.10000e-15
  70
    32
  0
VERTEX
  8
0
  5
26EC1
 10
5.00000
 20
39.6085
 30
1.10000e-15
  70
    32
  0
VERTEX
  8
0
  5
26EC2
 10
5.00000
 20
39.5697
 30
1.10000e-15
  70
    32
  0
VERTEX
  8
0
  5
26EC3
 10
5.00000
 20
39.5310
 30
1.10000e-15
  70
    32
  0
VERTEX
  8
0
  5
26EC4
 10
5.00000
 20
39.4922
 30
1.10000e-15
  70
    32
  0
VERTEX
  8
0
  5
26EC5
 10
5.00000
 20
39.4535
 30
1.10000e-15
  70
    32
  0
VERTEX
  8
0
  5
26EC6
 10
5.00000
 20
39.4149
 30
1.10000e-15
  70
    32
  0
VERTEX
  8
0
  5
26EC7
 10
5.00000
 20
39.3763
 30
1.10000e-15
  70
    32
  0
VERTEX
  8
0
  5
26EC8
 10
5.00000
 20
39.3377
 30
1.10000e-15
  70
    32
  0
VERTEX
  8
0
  5
26EC9
 10
5.00000
 20
39.2991
 30
1.10000e-15
  70
    32
  0
VERTEX
  8
0
  5
26ECA
 10
5.00000
 20
39.2606
 30
1.10000e-15
  70
    32
  0
VERTEX
  8
0
  5
26ECB
 10
5.00000
 20
39.2222
 30
1.10000e-15
  70
    32
  0
VERTEX
  8
0
  5
26ECC
 10
5.00000
 20
39.1838
 30
1.10000e-15
  70
    32
  0
VERTEX
  8
0
  5
26ECD
 10
5.00000
 20
39.1454
 30
1.10000e-15
  70
    32
  0
VERTEX
  8
0
  5
26ECE
 10
5.00000
 20
39.1070
 30
1.10000e-15
  70
    32
  0
VERTEX
  8
0
  5
26ECF
 10
5.00000
 20
39.0687
 30
1.10000e-15
  70
    32
  0
VERTEX
  8
0
  5
26ED0
 10
5.00000
 20
39.0304
 30
1.10000e-15
  70
    32
  0
VERTEX
  8
0
  5
26ED1
 10
5.00000
 20
38.9922
 30
1.10000e-15
  70
    32
  0
VERTEX
  8
0
  5
26ED2
 10
5.00000
 20
38.9540
 30
1.10000e-15
  70
    32
  0
VERTEX
  8
0
  5
26ED3
 10
5.00000
 20
38.9158
 30
1.10000e-15
  70
    32
  0
VERTEX
  8
0
  5
26ED4
 10
5.00000
 20
38.8777
 30
1.10000e-15
  70
    32
  0
VERTEX
  8
0
  5
26ED5
 10
5.00000
 20
38.8396
 30
1.10000e-15
  70
    32
  0
VERTEX
  8
0
  5
26ED6
 10
5.00000
 20
38.8015
 30
1.10000e-15
  70
    32
  0
VERTEX
  8
0
  5
26ED7
 10
5.00000
 20
38.7635
 30
1.10000e-15
  70
    32
  0
VERTEX
  8
0
  5
26ED8
 10
5.00000
 20
38.7255
 30
1.10000e-15
  70
    32
  0
VERTEX
  8
0
  5
26ED9
 10
5.00000
 20
38.6876
 30
1.10000e-15
  70
    32
  0
VERTEX
  8
0
  5
26EDA
 10
5.00000
 20
38.6497
 30
1.10000e-15
  70
    32
  0
VERTEX
  8
0
  5
26EDB
 10
5.00000
 20
38.6118
 30
1.10000e-15
  70
    32
  0
VERTEX
  8
0
  5
26EDC
 10
5.00000
 20
38.5740
 30
1.10000e-15
  70
    32
  0
VERTEX
  8
0
  5
26EDD
 10
5.00000
 20
38.5362
 30
1.10000e-15
  70
    32
  0
VERTEX
  8
0
  5
26EDE
 10
5.00000
 20
38.4984
 30
1.10000e-15
  70
    32
  0
VERTEX
  8
0
  5
26EDF
 10
5.00000
 20
38.4607
 30
1.10000e-15
  70
    32
  0
VERTEX
  8
0
  5
26EE0
 10
5.00000
 20
38.4230
 30
1.10000e-15
  70
    32
  0
VERTEX
  8
0
  5
26EE1
 10
5.00000
 20
38.3854
 30
1.10000e-15
  70
    32
  0
VERTEX
  8
0
  5
26EE2
 10
5.00000
 20
38.3478
 30
1.10000e-15
  70
    32
  0
VERTEX
  8
0
  5
26EE3
 10
5.00000
 20
38.3102
 30
1.10000e-15
  70
    32
  0
VERTEX
  8
0
  5
26EE4
 10
5.00000
 20
38.2727
 30
1.10000e-15
  70
    32
  0
VERTEX
  8
0
  5
26EE5
 10
5.00000
 20
38.2352
 30
1.10000e-15
  70
    32
  0
VERTEX
  8
0
  5
26EE6
 10
5.00000
 20
38.1977
 30
1.10000e-15
  70
    32
  0
VERTEX
  8
0
  5
26EE7
 10
5.00000
 20
38.1603
 30
1.10000e-15
  70
    32
  0
VERTEX
  8
0
  5
26EE8
 10
5.00000
 20
38.1229
 30
1.10000e-15
  70
    32
  0
VERTEX
  8
0
  5
26EE9
 10
5.00000
 20
38.0855
 30
1.10000e-15
  70
    32
  0
VERTEX
  8
0
  5
26EEA
 10
5.00000
 20
38.0482
 30
1.10000e-15
  70
    32
  0
VERTEX
  8
0
  5
26EEB
 10
5.00000
 20
38.0109
 30
1.10000e-15
  70
    32
  0
VERTEX
  8
0
  5
26EEC
 10
5.00000
 20
37.9737
 30
1.10000e-15
  70
    32
  0
VERTEX
  8
0
  5
26EED
 10
5.00000
 20
37.9364
 30
1.10000e-15
  70
    32
  0
VERTEX
  8
0
  5
26EEE
 10
5.00000
 20
37.8993
 30
1.10000e-15
  70
    32
  0
VERTEX
  8
0
  5
26EEF
 10
5.00000
 20
37.8621
 30
1.10000e-15
  70
    32
  0
VERTEX
  8
0
  5
26EF0
 10
5.00000
 20
37.8250
 30
1.10000e-15
  70
    32
  0
VERTEX
  8
0
  5
26EF1
 10
5.00000
 20
37.7879
 30
1.10000e-15
  70
    32
  0
VERTEX
  8
0
  5
26EF2
 10
5.00000
 20
37.7509
 30
1.10000e-15
  70
    32
  0
VERTEX
  8
0
  5
26EF3
 10
5.00000
 20
37.7139
 30
1.10000e-15
  70
    32
  0
VERTEX
  8
0
  5
26EF4
 10
5.00000
 20
37.6769
 30
1.10000e-15
  70
    32
  0
VERTEX
  8
0
  5
26EF5
 10
5.00000
 20
37.6400
 30
1.10000e-15
  70
    32
  0
VERTEX
  8
0
  5
26EF6
 10
5.00000
 20
37.6031
 30
1.10000e-15
  70
    32
  0
VERTEX
  8
0
  5
26EF7
 10
5.00000
 20
37.5663
 30
1.10000e-15
  70
    32
  0
VERTEX
  8
0
  5
26EF8
 10
5.00000
 20
37.5294
 30
1.10000e-15
  70
    32
  0
VERTEX
  8
0
  5
26EF9
 10
5.00000
 20
37.4927
 30
1.10000e-15
  70
    32
  0
VERTEX
  8
0
  5
26EFA
 10
5.00000
 20
37.4559
 30
1.10000e-15
  70
    32
  0
VERTEX
  8
0
  5
26EFB
 10
5.00000
 20
37.4192
 30
1.10000e-15
  70
    32
  0
VERTEX
  8
0
  5
26EFC
 10
5.00000
 20
37.3825
 30
1.10000e-15
  70
    32
  0
VERTEX
  8
0
  5
26EFD
 10
5.00000
 20
37.3459
 30
1.10000e-15
  70
    32
  0
VERTEX
  8
0
  5
26EFE
 10
5.00000
 20
37.3093
 30
1.10000e-15
  70
    32
  0
VERTEX
  8
0
  5
26EFF
 10
5.00000
 20
37.2727
 30
1.10000e-15
  70
    32
  0
VERTEX
  8
0
  5
26F00
 10
5.00000
 20
37.2361
 30
1.10000e-15
  70
    32
  0
VERTEX
  8
0
  5
26F01
 10
5.00000
 20
37.1996
 30
1.10000e-15
  70
    32
  0
VERTEX
  8
0
  5
26F02
 10
5.00000
 20
37.1632
 30
1.10000e-15
  70
    32
  0
VERTEX
  8
0
  5
26F03
 10
5.00000
 20
37.1267
 30
1.10000e-15
  70
    32
  0
VERTEX
  8
0
  5
26F04
 10
5.00000
 20
37.0903
 30
1.10000e-15
  70
    32
  0
VERTEX
  8
0
  5
26F05
 10
5.00000
 20
37.0540
 30
1.10000e-15
  70
    32
  0
VERTEX
  8
0
  5
26F06
 10
5.00000
 20
37.0176
 30
1.10000e-15
  70
    32
  0
VERTEX
  8
0
  5
26F07
 10
5.00000
 20
36.9813
 30
1.10000e-15
  70
    32
  0
VERTEX
  8
0
  5
26F08
 10
5.00000
 20
36.9451
 30
1.10000e-15
  70
    32
  0
VERTEX
  8
0
  5
26F09
 10
5.00000
 20
36.9088
 30
1.10000e-15
  70
    32
  0
VERTEX
  8
0
  5
26F0A
 10
5.00000
 20
36.8726
 30
1.10000e-15
  70
    32
  0
VERTEX
  8
0
  5
26F0B
 10
5.00000
 20
36.8365
 30
1.10000e-15
  70
    32
  0
VERTEX
  8
0
  5
26F0C
 10
5.00000
 20
36.8004
 30
1.10000e-15
  70
    32
  0
VERTEX
  8
0
  5
26F0D
 10
5.00000
 20
36.7643
 30
1.10000e-15
  70
    32
  0
VERTEX
  8
0
  5
26F0E
 10
5.00000
 20
36.7282
 30
1.10000e-15
  70
    32
  0
VERTEX
  8
0
  5
26F0F
 10
5.00000
 20
36.6922
 30
1.10000e-15
  70
    32
  0
VERTEX
  8
0
  5
26F10
 10
5.00000
 20
36.6562
 30
1.10000e-15
  70
    32
  0
VERTEX
  8
0
  5
26F11
 10
5.00000
 20
36.6202
 30
1.10000e-15
  70
    32
  0
VERTEX
  8
0
  5
26F12
 10
5.00000
 20
36.5843
 30
1.10000e-15
  70
    32
  0
VERTEX
  8
0
  5
26F13
 10
5.00000
 20
36.5484
 30
1.10000e-15
  70
    32
  0
VERTEX
  8
0
  5
26F14
 10
5.00000
 20
36.5126
 30
1.10000e-15
  70
    32
  0
VERTEX
  8
0
  5
26F15
 10
5.00000
 20
36.4768
 30
1.10000e-15
  70
    32
  0
VERTEX
  8
0
  5
26F16
 10
5.00000
 20
36.4410
 30
1.10000e-15
  70
    32
  0
VERTEX
  8
0
  5
26F17
 10
5.00000
 20
36.4052
 30
1.10000e-15
  70
    32
  0
VERTEX
  8
0
  5
26F18
 10
5.00000
 20
36.3695
 30
1.10000e-15
  70
    32
  0
VERTEX
  8
0
  5
26F19
 10
5.00000
 20
36.3338
 30
1.10000e-15
  70
    32
  0
VERTEX
  8
0
  5
26F1A
 10
5.00000
 20
36.2982
 30
1.10000e-15
  70
    32
  0
VERTEX
  8
0
  5
26F1B
 10
5.00000
 20
36.2626
 30
1.10000e-15
  70
    32
  0
VERTEX
  8
0
  5
26F1C
 10
5.00000
 20
36.2270
 30
1.10000e-15
  70
    32
  0
VERTEX
  8
0
  5
26F1D
 10
5.00000
 20
36.1914
 30
1.10000e-15
  70
    32
  0
VERTEX
  8
0
  5
26F1E
 10
5.00000
 20
36.1559
 30
1.10000e-15
  70
    32
  0
SEQEND
  8
0
  5
26F1F
  0
POLYLINE
  8
0
  5
26F20
  62
3
  66
     1
 10
0.000000
 20
0.000000
 30
0.000000
  70
     8
  0
VERTEX
  8
0
  5
26F21
 10
5.00000
 20
50.0000
 30
1.10000e-15
  70
    32
  0
VERTEX
  8
0
  5
26F22
 10
5.00000
 20
49.8790
 30
1.10000e-15
  70
    32
  0
VERTEX
  8
0
  5
26F23
 10
5.00000
 20
49.7583
 30
1.10000e-15
  70
    32
  0
VERTEX
  8
0
  5
26F24
 10
5.00000
 20
49.6379
 30
1.10000e-15
  70
    32
  0
VERTEX
  8
0
  5
26F25
 10
5.00000
 20
49.5178
 30
1.10000e-15
  70
    32
  0
VERTEX
  8
0
  5
26F26
 10
5.00000
 20
49.3980
 30
1.10000e-15
  70
    32
  0
VERTEX
  8
0
  5
26F27
 10
5.00000
 20
49.2785
 30
1.10000e-15
  70
    32
  0
VERTEX
  8
0
  5
26F28
 10
5.00000
 20
49.1593
 30
1.10000e-15
  70
    32
  0
VERTEX
  8
0
  5
26F29
 10
5.00000
 20
49.0403
 30
1.10000e-15
  70
    32
  0
VERTEX
  8
0
  5
26F2A
 10
5.00000
 20
48.9217
 30
1.10000e-15
  70
    32
  0
VERTEX
  8
0
  5
26F2B
 10
5.00000
 20
48.8033
 30
1.10000e-15
  70
    32
  0
VERTEX
  8
0
  5
26F2C
 10
5.00000
 20
48.6852
 30
1.10000e-15
  70
    32
  0
VERTEX
  8
0
  5
26F2D
 10
5.00000
 20
48.5674
 30
1.10000e-15
  70
    32
  0
VERTEX
  8
0
  5
26F2E
 10
5.00000
 20
48.4499
 30
1.10000e-15
  70
    32
  0
VERTEX
  8
0
  5
26F2F
 10
5.00000
 20
48.3326
 30
1.10000e-15
  70
    32
  0
VERTEX
  8
0
  5
26F30
 10
5.00000
 20
48.2157
 30
1.10000e-15
  70
    32
  0
VERTEX
  8
0
  5
26F31
 10
5.00000
 20
48.0990
 30
1.10000e-15
  70
    32
  0
VERTEX
  8
0
  5
26F32
 10
5.00000
 20
47.9826
 30
1.10000e-15
  70
    32
  0
VERTEX
  8
0
  5
26F33
 10
5.00000
 20
47.8665
 30
1.10000e-15
  70
    32
  0
VERTEX
  8
0
  5
26F34
 10
5.00000
 20
47.7506
 30
1.10000e-15
  70
    32
  0
VERTEX
  8
0
  5
26F35
 10
5.00000
 20
47.6351
 30
1.10000e-15
  70
    32
  0
VERTEX
  8
0
  5
26F36
 10
5.00000
 20
47.5198
 30
1.10000e-15
  70
    32
  0
VERTEX
  8
0
  5
26F37
 10
5.00000
 20
47.4047
 30
1.10000e-15
  70
    32
  0
VERTEX
  8
0
  5
26F38
 10
5.00000
 20
47.2900
 30
1.10000e-15
  70
    32
  0
VERTEX
  8
0
  5
26F39
 10
5.00000
 20
47.1755
 30
1.10000e-15
  70
    32
  0
VERTEX
  8
0
  5
26F3A
 10
5.00000
 20
47.0613
 30
1.10000e-15
  70
    32
  0
VERTEX
  8
0
  5
26F3B
 10
5.00000
 20
46.9474
 30
1.10000e-15
  70
    32
  0
VERTEX
  8
0
  5
26F3C
 10
5.00000
 20
46.8337
 30
1.10000e-15
  70
    32
  0
VERTEX
  8
0
  5
26F3D
 10
5.00000
 20
46.7203
 30
1.10000e-15
  70
    32
  0
VERTEX
  8
0
  5
26F3E
 10
5.00000
 20
46.6072
 30
1.10000e-15
  70
    32
  0
VERTEX
  8
0
  5
26F3F
 10
5.00000
 20
46.4943
 30
1.10000e-15
  70
    32
  0
VERTEX
  8
0
  5
26F40
 10
5.00000
 20
46.3817
 30
1.10000e-15
  70
    32
  0
VERTEX
  8
0
  5
26F41
 10
5.00000
 20
46.2694
 30
1.10000e-15
  70
    32
  0
VERTEX
  8
0
  5
26F42
 10
5.00000
 20
46.1573
 30
1.10000e-15
  70
    32
  0
VERTEX
  8
0
  5
26F43
 10
5.00000
 20
46.0455
 30
1.10000e-15
  70
    32
  0
VERTEX
  8
0
  5
26F44
 10
5.00000
 20
45.9339
 30
1.10000e-15
  70
    32
  0
VERTEX
  8
0
  5
26F45
 10
5.00000
 20
45.8226
 30
1.10000e-15
  70
    32
  0
VERTEX
  8
0
  5
26F46
 10
5.00000
 20
45.7116
 30
1.10000e-15
  70
    32
  0
VERTEX
  8
0
  5
26F47
 10
5.00000
 20
45.6008
 30
1.10000e-15
  70
    32
  0
VERTEX
  8
0
  5
26F48
 10
5.00000
 20
45.4903
 30
1.10000e-15
  70
    32
  0
VERTEX
  8
0
  5
26F49
 10
5.00000
 20
45.3801
 30
1.10000e-15
  70
    32
  0
VERTEX
  8
0
  5
26F4A
 10
5.00000
 20
45.2701
 30
1.10000e-15
  70
    32
  0
VERTEX
  8
0
  5
26F4B
 10
5.00000
 20
45.1603
 30
1.10000e-15
  70
    32
  0
VERTEX
  8
0
  5
26F4C
 10
5.00000
 20
45.0508
 30
1.10000e-15
  70
    32
  0
VERTEX
  8
0
  5
26F4D
 10
5.00000
 20
44.9416
 30
1.10000e-15
  70
    32
  0
VERTEX
  8
0
  5
26F4E
 10
5.00000
 20
44.8326
 30
1.10000e-15
  70
    32
  0
VERTEX
  8
0
  5
26F4F
 10
5.00000
 20
44.7239
 30
1.10000e-15
  70
    32
  0
VERTEX
  8
0
  5
26F50
 10
5.00000
 20
44.6154
 30
1.10000e-15
  70
    32
  0
VERTEX
  8
0
  5
26F51
 10
5.00000
 20
44.5071
 30
1.10000e-15
  70
    32
  0
VERTEX
  8
0
  5
26F52
 10
5.00000
 20
44.3991
 30
1.10000e-15
  70
    32
  0
VERTEX
  8
0
  5
26F53
 10
5.00000
 20
44.2914
 30
1.10000e-15
  70
    32
  0
VERTEX
  8
0
  5
26F54
 10
5.00000
 20
44.1839
 30
1.10000e-15
  70
    32
  0
VERTEX
  8
0
  5
26F55
 10
5.00000
 20
44.0767
 30
1.10000e-15
  70
    32
  0
VERTEX
  8
0
  5
26F56
 10
5.00000
 20
43.9697
 30
1.10000e-15
  70
    32
  0
VERTEX
  8
0
  5
26F57
 10
5.00000
 20
43.8629
 30
1.10000e-15
  70
    32
  0
VERTEX
  8
0
  5
26F58
 10
5.00000
 20
43.7564
 30
1.10000e-15
  70
    32
  0
VERTEX
  8
0
  5
26F59
 10
5.00000
 20
43.6501
 30
1.10000e-15
  70
    32
  0
VERTEX
  8
0
  5
26F5A
 10
5.00000
 20
43.5441
 30
1.10000e-15
  70
    32
  0
VERTEX
  8
0
  5
26F5B
 10
5.00000
 20
43.4383
 30
1.10000e-15
  70
    32
  0
VERTEX
  8
0
  5
26F5C
 10
5.00000
 20
43.3328
 30
1.10000e-15
  70
    32
  0
VERTEX
  8
0
  5
26F5D
 10
5.00000
 20
43.2274
 30
1.10000e-15
  70
    32
  0
VERTEX
  8
0
  5
26F5E
 10
5.00000
 20
43.1224
 30
1.10000e-15
  70
    32
  0
VERTEX
  8
0
  5
26F5F
 10
5.00000
 20
43.0175
 30
1.10000e-15
  70
    32
  0
VERTEX
  8
0
  5
26F60
 10
5.00000
 20
42.9129
 30
1.10000e-15
  70
    32
  0
VERTEX
  8
0
  5
26F61
 10
5.00000
 20
42.8086
 30
1.10000e-15
  70
    32
  0
VERTEX
  8
0
  5
26F62
 10
5.00000
 20
42.7045
 30
1.10000e-15
  70
    32
  0
VERTEX
  8
0
  5
26F63
 10
5.00000
 20
42.6006
 30
1.10000e-15
  70
    32
  0
VERTEX
  8
0
  5
26F64
 10
5.00000
 20
42.4969
 30
1.10000e-15
  70
    32
  0
VERTEX
  8
0
  5
26F65
 10
5.00000
 20
42.3935
 30
1.10000e-15
  70
    32
  0
VERTEX
  8
0
  5
26F66
 10
5.00000
 20
42.2903
 30
1.10000e-15
  70
    32
  0
VERTEX
  8
0
  5
26F67
 10
5.00000
 20
42.1873
 30
1.10000e-15
  70
    32
  0
VERTEX
  8
0
  5
26F68
 10
5.00000
 20
42.0846
 30
1.10000e-15
  70
    32
  0
VERTEX
  8
0
  5
26F69
 10
5.00000
 20
41.9821
 30
1.10000e-15
  70
    32
  0
VERTEX
  8
0
  5
26F6A
 10
5.00000
 20
41.8798
 30
1.10000e-15
  70
    32
  0
VERTEX
  8
0
  5
26F6B
 10
5.00000
 20
41.7778
 30
1.10000e-15
  70
    32
  0
VERTEX
  8
0
  5
26F6C
 10
5.00000
 20
41.6760
 30
1.10000e-15
  70
    32
  0
VERTEX
  8
0
  5
26F6D
 10
5.00000
 20
41.5744
 30
1.10000e-15
  70
    32
  0
VERTEX
  8
0
  5
26F6E
 10
5.00000
 20
41.4730
 30
1.10000e-15
  70
    32
  0
VERTEX
  8
0
  5
26F6F
 10
5.00000
 20
41.3719
 30
1.10000e-15
  70
    32
  0
VERTEX
  8
0
  5
26F70
 10
5.00000
 20
41.2710
 30
1.10000e-15
  70
    32
  0
VERTEX
  8
0
  5
26F71
 10
5.00000
 20
41.1703
 30
1.10000e-15
  70
    32
  0
VERTEX
  8
0
  5
26F72
 10
5.00000
 20
41.0698
 30
1.10000e-15
  70
    32
  0
VERTEX
  8
0
  5
26F73
 10
5.00000
 20
40.9696
 30
1.10000e-15
  70
    32
  0
VERTEX
  8
0
  5
26F74
 10
5.00000
 20
40.8696
 30
1.10000e-15
  70
    32
  0
VERTEX
  8
0
  5
26F75
 10
5.00000
 20
40.7698
 30
1.10000e-15
  70
    32
  0
VERTEX
  8
0
  5
26F76
 10
5.00000
 20
40.6702
 30
1.10000e-15
  70
    32
  0
VERTEX
  8
0
  5
26F77
 10
5.00000
 20
40.5708
 30
1.10000e-15
  70
    32
  0
VERTEX
  8
0
  5
26F78
 10
5.00000
 20
40.4717
 30
1.10000e-15
  70
    32
  0
VERTEX
  8
0
  5
26F79
 10
5.00000
 20
40.3727
 30
1.10000e-15
  70
    32
  0
VERTEX
  8
0
  5
26F7A
 10
5.00000
 20
40.2740
 30
1.10000e-15
  70
    32
  0
VERTEX
  8
0
  5
26F7B
 10
5.00000
 20
40.1755
 30
1.10000e-15
  70
    32
  0
VERTEX
  8
0
  5
26F7C
 10
5.00000
 20
40.0772
 30
1.10000e-15
  70
    32
  0
VERTEX
  8
0
  5
26F7D
 10
5.00000
 20
39.9792
 30
1.10000e-15
  70
    32
  0
VERTEX
  8
0
  5
26F7E
 10
5.00000
 20
39.8813
 30
1.10000e-15
  70
    32
  0
VERTEX
  8
0
  5
26F7F
 10
5.00000
 20
39.7837
 30
1.10000e-15
  70
    32
  0
VERTEX
  8
0
  5
26F80
 10
5.00000
 20
39.6863
 30
1.10000e-15
  70
    32
  0
SEQEND
  8
0
  5
26F81
  0
ARC
  5
26CC3
  8
0
  6
CONTINUOUS
 62
     3
 10
0.000000000000042
 20
-0.0000000000000001
 30
0.0
 40
36.5
 50
97.8734937982556232
 51
82.1265062017443341
  0
ARC
  5
26CC4
  8
0
  6
CONTINUOUS
 62
     3
 10
-0.0000000000000013
 20
-0.0000000000000005
 30
0.0
 40
40.0
 50
97.180755781458231
 51
82.8192442185416411
  0
CIRCLE
  5
26CC5
  8
0
  6
CONTINUOUS
 62
     3
 10
0.0000000000000666
 20
0.0
 30
0.0
 40
90.5000000000000142
  0
CIRCLE
  5
26CC6
  8
0
  6
CONTINUOUS
 62
     3
 10
0.000000000000058
 20
0.0
 30
0.0
 40
59.0
  0
CIRCLE
  5
26CC7
  8
0
  6
CONTINUOUS
 62
     3
 10
0.0000000000000666
 20
0.0
 30
0.0
 40
76.5
  0
ARC
  5
26CC8
  8
0
  6
VERDECKT
 62
     1
 10
0.0000000000001514
 20
0.0000000000000043
 30
0.0
 40
65.0
 50
96.3793702084428929
 51
83.6206297915572065
  0
ARC
  5
26CC9
  8
0
  6
VERDECKT
 62
     1
 10
0.0000000000000231
 20
-0.0000000000000012
 30
0.0
 40
66.9999999999999858
 50
96.3793702084428361
 51
83.6206297915571639
  0
ARC
  5
26CCA
  8
0
  6
VERDECKT
 62
     1
 10
-7.4999999999999369
 20
67.0820393249936728
 30
0.0
 40
2.499999999999984
 50
276.3793702084415145
 51
0.0
  0
ARC
  5
26CCB
  8
0
  6
VERDECKT
 62
     1
 10
-7.4999999999999458
 20
67.0820393249936728
 30
0.0
 40
0.4999999999999964
 50
276.3793702084382176
 51
0.0
  0
LINE
  5
26CCC
  8
0
  6
VERDECKT
 62
     1
 10
-4.999999999999952
 20
72.1110255092797843
 30
0.0
 11
-4.9999999999999538
 21
67.0820393249936728
 31
0.0
  0
LINE
  5
26CCD
  8
0
  6
VERDECKT
 62
     1
 10
-6.9999999999999529
 20
67.0820393249936728
 30
0.0
 11
-6.9999999999999512
 21
72.1110255092797843
 31
0.0
  0
ARC
  5
26CCE
  8
0
  6
VERDECKT
 62
     1
 10
-7.499999999999952
 20
72.1110255092797701
 30
0.0
 40
2.5000000000000062
 50
0.0
 51
95.9377724516053547
  0
ARC
  5
26CCF
  8
0
  6
VERDECKT
 62
     1
 10
-7.4999999999999734
 20
72.1110255092797416
 30
0.0
 40
0.5000000000000187
 50
0.0000000000032442
 51
95.9377724516027257
  0
ARC
  5
26CD0
  8
0
  6
VERDECKT
 62
     1
 10
-0.0000000000000973
 20
-0.0000000000000042
 30
0.0
 40
75.0000000000000142
 50
95.9377724516053547
 51
84.0622275483944463
  0
ARC
  5
26CD1
  8
0
  6
VERDECKT
 62
     1
 10
0.0000000000000386
 20
0.0000000000000087
 30
0.0
 40
72.9999999999999858
 50
95.9377724516053974
 51
84.0622275483945174
  0
ARC
  5
26CD2
  8
0
  6
VERDECKT
 62
     1
 10
7.5000000000000488
 20
72.1110255092797701
 30
0.0
 40
2.5000000000000009
 50
84.0622275483946169
 51
180.0
  0
ARC
  5
26CD3
  8
0
  6
VERDECKT
 62
     1
 10
7.5000000000000639
 20
72.1110255092797559
 30
0.0
 40
0.5000000000000158
 50
84.0622275483975869
 51
179.9999999999984084
  0
LINE
  5
26CD4
  8
0
  6
VERDECKT
 62
     1
 10
5.0000000000000471
 20
67.0820393249936728
 30
0.0
 11
5.000000000000048
 21
72.1110255092797843
 31
0.0
  0
LINE
  5
26CD5
  8
0
  6
VERDECKT
 62
     1
 10
7.0000000000000471
 20
72.1110255092797843
 30
0.0
 11
7.0000000000000462
 21
67.0820393249936728
 31
0.0
  0
ARC
  5
26CD6
  8
0
  6
VERDECKT
 62
     1
 10
7.5000000000000098
 20
67.0820393249936444
 30
0.0
 40
2.4999999999999569
 50
179.9999999999992895
 51
263.6206297915579171
  0
ARC
  5
26CD7
  8
0
  6
VERDECKT
 62
     1
 10
7.5000000000000684
 20
67.0820393249937013
 30
0.0
 40
0.5000000000000197
 50
180.0000000000032117
 51
263.6206297915563255
  0
CIRCLE
  5
26CD8
  8
0
  6
VERDECKT
 62
     1
 10
0.0000000000000333
 20
0.0
 30
0.0
 40
90.0
  0
ARC
  5
26CD9
  8
0
  6
VERDECKT
 62
     1
 10
-0.0000000000000618
 20
-0.0000000000000009
 30
0.0
 40
38.7580889184183519
 50
97.4121178572011956
 51
82.587882142798577
  0
ARC
  5
26CDA
  8
0
  6
VERDECKT
 62
     1
 10
0.0000000000000275
 20
-0.0000000000000019
 30
0.0
 40
67.0
 50
96.3793702084428077
 51
83.6206297915572065
  0
ARC
  5
26CDB
  8
0
  6
VERDECKT
 62
     1
 10
-0.0000000000000999
 20
0.0000000000000036
 30
0.0
 40
65.0000000000000284
 50
96.379370208442694
 51
83.6206297915570644
  0
ARC
  5
26CDC
  8
0
  6
VERDECKT
 62
     1
 10
-7.4999999999999813
 20
67.0820393249937155
 30
0.0
 40
0.5000000000000169
 50
276.3793702084440724
 51
359.9999999999984084
  0
ARC
  5
26CDD
  8
0
  6
VERDECKT
 62
     1
 10
-7.4999999999999547
 20
67.082039324993687
 30
0.0
 40
2.4999999999999889
 50
276.3793702084427082
 51
0.0000000000002672
  0
LINE
  5
26CDE
  8
0
  6
VERDECKT
 62
     1
 10
-6.9999999999999574
 20
72.1110255092797843
 30
0.0
 11
-6.99999999999996
 21
67.0820393249937013
 31
0.0
  0
LINE
  5
26CDF
  8
0
  6
VERDECKT
 62
     1
 10
-4.9999999999999618
 20
67.0820393249937013
 30
0.0
 11
-4.99999999999996
 21
72.1110255092797843
 31
0.0
  0
ARC
  5
26CE0
  8
0
  6
VERDECKT
 62
     1
 10
-7.499999999999976
 20
72.1110255092797843
 30
0.0
 40
0.5000000000000023
 50
0.0
 51
95.9377724516034363
  0
ARC
  5
26CE1
  8
0
  6
VERDECKT
 62
     1
 10
-7.4999999999999636
 20
72.1110255092797843
 30
0.0
 40
2.500000000000004
 50
0.0
 51
95.9377724516052837
  0
ARC
  5
26CE2
  8
0
  6
VERDECKT
 62
     1
 10
0.0000000000000249
 20
0.0000000000000087
 30
0.0
 40
73.0
 50
95.9377724516054684
 51
84.06222754839456
  0
ARC
  5
26CE3
  8
0
  6
VERDECKT
 62
     1
 10
0.000000000000159
 20
-0.0000000000000042
 30
0.0
 40
75.0000000000000142
 50
95.9377724516055252
 51
84.0622275483946311
  0
ARC
  5
26CE4
  8
0
  6
VERDECKT
 62
     1
 10
7.5000000000000391
 20
72.1110255092797843
 30
0.0
 40
0.5
 50
84.0622275483946737
 51
180.0
  0
ARC
  5
26CE5
  8
0
  6
VERDECKT
 62
     1
 10
7.5000000000000417
 20
72.1110255092797843
 30
0.0
 40
2.5000000000000062
 50
84.0622275483946311
 51
180.0
  0
LINE
  5
26CE6
  8
0
  6
VERDECKT
 62
     1
 10
7.00000000000004
 20
67.0820393249937013
 30
0.0
 11
7.0000000000000409
 21
72.1110255092797843
 31
0.0
  0
LINE
  5
26CE7
  8
0
  6
VERDECKT
 62
     1
 10
5.00000000000004
 20
72.1110255092797843
 30
0.0
 11
5.0000000000000391
 21
67.0820393249937013
 31
0.0
  0
ARC
  5
26CE8
  8
0
  6
VERDECKT
 62
     1
 10
7.5000000000000622
 20
67.0820393249937155
 30
0.0
 40
0.5000000000000303
 50
180.0000000000032117
 51
263.6206297915562118
  0
ARC
  5
26CE9
  8
0
  6
VERDECKT
 62
     1
 10
7.5000000000000329
 20
67.082039324993687
 30
0.0
 40
2.4999999999999929
 50
179.9999999999996021
 51
263.6206297915572918
  0
CIRCLE
  5
26CEA
  8
0
  6
VERDECKT
 62
     1
 10
0.0000000000000333
 20
0.0
 30
0.0
 40
90.0
  0
ENDBLK
  5
26CEC
  8
0
  0
BLOCK
  8
0
  2
A$CBB12F258
 70
     0
 10
0.0
 20
0.0
 30
0.0
  3
A$CBB12F258
  1

  0
LINE
  5
26CF0
  8
0
  6
CONTINUOUS
 62
     3
 10
90.5000000000000142
 20
300.0
 30
-0.0000000000000666
 11
0.0
 21
300.0
 31
-0.0000000000000666
210
0.0
220
1.0
230
-0.0000000000000002
  0
LINE
  5
26CF1
  8
0
  6
CONTINUOUS
 62
     3
 10
-0.00000000000003
 20
300.0
 30
-0.0000000000000666
 11
-90.5000000000000142
 21
300.0
 31
-0.0000000000000666
210
0.0
220
1.0
230
-0.0000000000000002
  0
LINE
  5
26CF2
  8
0
  6
CONTINUOUS
 62
     3
 10
-90.0
 20
150.0
 30
-0.0000000000000333
 11
-0.0000000000000142
 21
150.0
 31
-0.0000000000000333
210
0.0
220
1.0
230
-0.0000000000000002
  0
LINE
  5
26CF3
  8
0
  6
CONTINUOUS
 62
     3
 10
0.0000000000000033
 20
150.0
 30
-0.0000000000000333
 11
90.0
 21
150.0
 31
-0.0000000000000333
210
0.0
220
1.0
230
-0.0000000000000002
  0
LINE
  5
26CF4
  8
0
  6
CONTINUOUS
 62
     3
 10
-90.0000000000000142
 20
150.0
 30
-0.0000000000000333
 11
-90.5000000000000426
 21
300.0
 31
-0.0000000000000666
210
0.0
220
1.0
230
-0.0000000000000002
  0
LINE
  5
26CF5
  8
0
  6
CONTINUOUS
 62
     3
 10
90.0000000000000142
 20
150.0
 30
-0.0000000000000333
 11
90.5000000000000426
 21
300.0
 31
-0.0000000000000666
210
0.0
220
1.0
230
-0.0000000000000002
  0
LINE
  5
26CF6
  8
0
  6
CONTINUOUS
 62
     3
 10
84.5166388889660141
 20
0.0
 30
0.0
 11
0.0
 21
0.0
 31
0.0
210
0.0
220
1.0
230
-0.0000000000000002
  0
LINE
  5
26CF7
  8
0
  6
CONTINUOUS
 62
     3
 10
-0.0000000000000155
 20
0.0
 30
0.0
 11
-84.5166388889660141
 21
0.0
 31
0.0
210
0.0
220
1.0
230
-0.0000000000000002
  0
LINE
  5
26CF8
  8
0
  6
CONTINUOUS
 62
     3
 10
-89.9999999999999858
 20
150.0
 30
-0.0000000000000333
 11
-0.0000000000000284
 21
150.0
 31
-0.0000000000000333
210
0.0
220
1.0
230
-0.0000000000000002
  0
LINE
  5
26CF9
  8
0
  6
CONTINUOUS
 62
     3
 10
-0.0000000000000068
 20
150.0
 30
-0.0000000000000333
 11
90.0
 21
150.0
 31
-0.0000000000000333
210
0.0
220
1.0
230
-0.0000000000000002
  0
ARC
  5
26CFA
  8
0
  6
CONTINUOUS
 62
     3
 10
84.5166388889660141
 20
5.0000000000000018
 30
0.0
 40
5.0000000000000009
210
0.0
220
-0.0000000000000002
230
-1.0
 50
270.0
 51
359.809014775640378
  0
ARC
  5
26CFB
  8
0
  6
CONTINUOUS
 62
     3
 10
-84.5166388889660141
 20
5.0000000000000027
 30
0.0
 40
5.0000000000000053
210
0.0
220
-0.0000000000000002
230
-1.0
 50
180.1909852243595083
 51
270.0
  0
LINE
  5
26CFC
  8
0
  6
CONTINUOUS
 62
     3
 10
-89.5166111114197065
 20
4.983333425925168
 30
-0.0000000000000011
 11
-89.9999999999999858
 21
150.0
 31
-0.0000000000000333
210
0.0
220
1.0
230
-0.0000000000000002
  0
LINE
  5
26CFD
  8
0
  6
CONTINUOUS
 62
     3
 10
89.5166111114197065
 20
4.983333425925168
 30
-0.0000000000000011
 11
89.9999999999999858
 21
150.0
 31
-0.0000000000000333
210
0.0
220
1.0
230
-0.0000000000000002
  0
LINE
  5
26CFE
  8
0
  6
VERDECKT
 62
     1
 10
-6.999999999999984
 20
160.0
 30
-0.0000000000000355
 11
-4.9999999999999867
 21
158.0
 31
-0.0000000000000351
210
0.0
220
1.0
230
-0.0000000000000002
  0
LINE
  5
26CFF
  8
0
  6
VERDECKT
 62
     1
 10
-75.0000000000000426
 20
158.0
 30
-0.0000000000000351
 11
75.0000000000000142
 21
158.0
 31
-0.0000000000000351
210
0.0
220
1.0
230
-0.0000000000000002
  0
LINE
  5
26D00
  8
0
  6
VERDECKT
 62
     1
 10
73.0
 20
160.0
 30
-0.0000000000000355
 11
-73.0
 21
160.0
 31
-0.0000000000000355
210
0.0
220
1.0
230
-0.0000000000000002
  0
LINE
  5
26D01
  8
0
  6
VERDECKT
 62
     1
 10
7.0000000000000098
 20
160.0
 30
-0.0000000000000355
 11
5.0000000000000107
 21
158.0
 31
-0.0000000000000351
210
0.0
220
1.0
230
-0.0000000000000002
  0
POLYLINE
  8
0
  5
26F82
  62
1
  66
     1
 10
0.000000
 20
0.000000
 30
0.000000
  70
     8
  0
VERTEX
  8
0
  5
26F83
 10
-5.00000
 20
155.000
 30
-3.44000e-14
  70
    32
  0
VERTEX
  8
0
  5
26F84
 10
-5.00000
 20
155.020
 30
-3.44042e-14
  70
    32
  0
VERTEX
  8
0
  5
26F85
 10
-5.00000
 20
155.041
 30
-3.44085e-14
  70
    32
  0
VERTEX
  8
0
  5
26F86
 10
-5.00000
 20
155.061
 30
-3.44127e-14
  70
    32
  0
VERTEX
  8
0
  5
26F87
 10
-5.00000
 20
155.081
 30
-3.44170e-14
  70
    32
  0
VERTEX
  8
0
  5
26F88
 10
-5.00000
 20
155.102
 30
-3.44213e-14
  70
    32
  0
VERTEX
  8
0
  5
26F89
 10
-5.00000
 20
155.122
 30
-3.44257e-14
  70
    32
  0
VERTEX
  8
0
  5
26F8A
 10
-5.00000
 20
155.143
 30
-3.44300e-14
  70
    32
  0
VERTEX
  8
0
  5
26F8B
 10
-5.00000
 20
155.163
 30
-3.44344e-14
  70
    32
  0
VERTEX
  8
0
  5
26F8C
 10
-5.00000
 20
155.184
 30
-3.44388e-14
  70
    32
  0
VERTEX
  8
0
  5
26F8D
 10
-5.00000
 20
155.204
 30
-3.44432e-14
  70
    32
  0
VERTEX
  8
0
  5
26F8E
 10
-5.00000
 20
155.225
 30
-3.44477e-14
  70
    32
  0
VERTEX
  8
0
  5
26F8F
 10
-5.00000
 20
155.245
 30
-3.44522e-14
  70
    32
  0
VERTEX
  8
0
  5
26F90
 10
-5.00000
 20
155.266
 30
-3.44566e-14
  70
    32
  0
VERTEX
  8
0
  5
26F91
 10
-5.00000
 20
155.286
 30
-3.44612e-14
  70
    32
  0
VERTEX
  8
0
  5
26F92
 10
-5.00000
 20
155.307
 30
-3.44657e-14
  70
    32
  0
VERTEX
  8
0
  5
26F93
 10
-5.00000
 20
155.327
 30
-3.44702e-14
  70
    32
  0
VERTEX
  8
0
  5
26F94
 10
-5.00000
 20
155.348
 30
-3.44748e-14
  70
    32
  0
VERTEX
  8
0
  5
26F95
 10
-5.00000
 20
155.369
 30
-3.44794e-14
  70
    32
  0
VERTEX
  8
0
  5
26F96
 10
-5.00000
 20
155.389
 30
-3.44840e-14
  70
    32
  0
VERTEX
  8
0
  5
26F97
 10
-5.00000
 20
155.410
 30
-3.44887e-14
  70
    32
  0
VERTEX
  8
0
  5
26F98
 10
-5.00000
 20
155.431
 30
-3.44933e-14
  70
    32
  0
VERTEX
  8
0
  5
26F99
 10
-5.00000
 20
155.451
 30
-3.44980e-14
  70
    32
  0
VERTEX
  8
0
  5
26F9A
 10
-5.00000
 20
155.472
 30
-3.45027e-14
  70
    32
  0
VERTEX
  8
0
  5
26F9B
 10
-5.00000
 20
155.493
 30
-3.45075e-14
  70
    32
  0
VERTEX
  8
0
  5
26F9C
 10
-5.00000
 20
155.514
 30
-3.45122e-14
  70
    32
  0
VERTEX
  8
0
  5
26F9D
 10
-5.00000
 20
155.535
 30
-3.45170e-14
  70
    32
  0
VERTEX
  8
0
  5
26F9E
 10
-5.00000
 20
155.555
 30
-3.45218e-14
  70
    32
  0
VERTEX
  8
0
  5
26F9F
 10
-5.00000
 20
155.576
 30
-3.45266e-14
  70
    32
  0
VERTEX
  8
0
  5
26FA0
 10
-5.00000
 20
155.597
 30
-3.45315e-14
  70
    32
  0
VERTEX
  8
0
  5
26FA1
 10
-5.00000
 20
155.618
 30
-3.45363e-14
  70
    32
  0
VERTEX
  8
0
  5
26FA2
 10
-5.00000
 20
155.639
 30
-3.45412e-14
  70
    32
  0
VERTEX
  8
0
  5
26FA3
 10
-5.00000
 20
155.660
 30
-3.45461e-14
  70
    32
  0
VERTEX
  8
0
  5
26FA4
 10
-5.00000
 20
155.681
 30
-3.45510e-14
  70
    32
  0
VERTEX
  8
0
  5
26FA5
 10
-5.00000
 20
155.702
 30
-3.45560e-14
  70
    32
  0
VERTEX
  8
0
  5
26FA6
 10
-5.00000
 20
155.723
 30
-3.45610e-14
  70
    32
  0
VERTEX
  8
0
  5
26FA7
 10
-5.00000
 20
155.744
 30
-3.45660e-14
  70
    32
  0
VERTEX
  8
0
  5
26FA8
 10
-5.00000
 20
155.765
 30
-3.45710e-14
  70
    32
  0
VERTEX
  8
0
  5
26FA9
 10
-5.00000
 20
155.786
 30
-3.45760e-14
  70
    32
  0
VERTEX
  8
0
  5
26FAA
 10
-5.00000
 20
155.807
 30
-3.45811e-14
  70
    32
  0
VERTEX
  8
0
  5
26FAB
 10
-5.00000
 20
155.828
 30
-3.45862e-14
  70
    32
  0
VERTEX
  8
0
  5
26FAC
 10
-5.00000
 20
155.849
 30
-3.45913e-14
  70
    32
  0
VERTEX
  8
0
  5
26FAD
 10
-5.00000
 20
155.870
 30
-3.45964e-14
  70
    32
  0
VERTEX
  8
0
  5
26FAE
 10
-5.00000
 20
155.891
 30
-3.46015e-14
  70
    32
  0
VERTEX
  8
0
  5
26FAF
 10
-5.00000
 20
155.913
 30
-3.46067e-14
  70
    32
  0
VERTEX
  8
0
  5
26FB0
 10
-5.00000
 20
155.934
 30
-3.46119e-14
  70
    32
  0
VERTEX
  8
0
  5
26FB1
 10
-5.00000
 20
155.955
 30
-3.46171e-14
  70
    32
  0
VERTEX
  8
0
  5
26FB2
 10
-5.00000
 20
155.976
 30
-3.46224e-14
  70
    32
  0
VERTEX
  8
0
  5
26FB3
 10
-5.00000
 20
155.997
 30
-3.46276e-14
  70
    32
  0
VERTEX
  8
0
  5
26FB4
 10
-5.00000
 20
156.019
 30
-3.46329e-14
  70
    32
  0
VERTEX
  8
0
  5
26FB5
 10
-5.00000
 20
156.040
 30
-3.46382e-14
  70
    32
  0
VERTEX
  8
0
  5
26FB6
 10
-5.00000
 20
156.061
 30
-3.46435e-14
  70
    32
  0
VERTEX
  8
0
  5
26FB7
 10
-5.00000
 20
156.083
 30
-3.46489e-14
  70
    32
  0
VERTEX
  8
0
  5
26FB8
 10
-5.00000
 20
156.104
 30
-3.46543e-14
  70
    32
  0
VERTEX
  8
0
  5
26FB9
 10
-5.00000
 20
156.125
 30
-3.46596e-14
  70
    32
  0
VERTEX
  8
0
  5
26FBA
 10
-5.00000
 20
156.147
 30
-3.46651e-14
  70
    32
  0
VERTEX
  8
0
  5
26FBB
 10
-5.00000
 20
156.168
 30
-3.46705e-14
  70
    32
  0
VERTEX
  8
0
  5
26FBC
 10
-5.00000
 20
156.190
 30
-3.46760e-14
  70
    32
  0
VERTEX
  8
0
  5
26FBD
 10
-5.00000
 20
156.211
 30
-3.46814e-14
  70
    32
  0
VERTEX
  8
0
  5
26FBE
 10
-5.00000
 20
156.233
 30
-3.46869e-14
  70
    32
  0
VERTEX
  8
0
  5
26FBF
 10
-5.00000
 20
156.254
 30
-3.46925e-14
  70
    32
  0
VERTEX
  8
0
  5
26FC0
 10
-5.00000
 20
156.276
 30
-3.46980e-14
  70
    32
  0
VERTEX
  8
0
  5
26FC1
 10
-5.00000
 20
156.297
 30
-3.47036e-14
  70
    32
  0
VERTEX
  8
0
  5
26FC2
 10
-5.00000
 20
156.319
 30
-3.47092e-14
  70
    32
  0
VERTEX
  8
0
  5
26FC3
 10
-5.00000
 20
156.340
 30
-3.47148e-14
  70
    32
  0
VERTEX
  8
0
  5
26FC4
 10
-5.00000
 20
156.362
 30
-3.47204e-14
  70
    32
  0
VERTEX
  8
0
  5
26FC5
 10
-5.00000
 20
156.384
 30
-3.47261e-14
  70
    32
  0
VERTEX
  8
0
  5
26FC6
 10
-5.00000
 20
156.405
 30
-3.47318e-14
  70
    32
  0
VERTEX
  8
0
  5
26FC7
 10
-5.00000
 20
156.427
 30
-3.47375e-14
  70
    32
  0
VERTEX
  8
0
  5
26FC8
 10
-5.00000
 20
156.449
 30
-3.47432e-14
  70
    32
  0
VERTEX
  8
0
  5
26FC9
 10
-5.00000
 20
156.471
 30
-3.47490e-14
  70
    32
  0
VERTEX
  8
0
  5
26FCA
 10
-5.00000
 20
156.492
 30
-3.47547e-14
  70
    32
  0
VERTEX
  8
0
  5
26FCB
 10
-5.00000
 20
156.514
 30
-3.47605e-14
  70
    32
  0
VERTEX
  8
0
  5
26FCC
 10
-5.00000
 20
156.536
 30
-3.47664e-14
  70
    32
  0
VERTEX
  8
0
  5
26FCD
 10
-5.00000
 20
156.558
 30
-3.47722e-14
  70
    32
  0
VERTEX
  8
0
  5
26FCE
 10
-5.00000
 20
156.579
 30
-3.47781e-14
  70
    32
  0
VERTEX
  8
0
  5
26FCF
 10
-5.00000
 20
156.601
 30
-3.47839e-14
  70
    32
  0
VERTEX
  8
0
  5
26FD0
 10
-5.00000
 20
156.623
 30
-3.47898e-14
  70
    32
  0
VERTEX
  8
0
  5
26FD1
 10
-5.00000
 20
156.645
 30
-3.47958e-14
  70
    32
  0
VERTEX
  8
0
  5
26FD2
 10
-5.00000
 20
156.667
 30
-3.48017e-14
  70
    32
  0
VERTEX
  8
0
  5
26FD3
 10
-5.00000
 20
156.689
 30
-3.48077e-14
  70
    32
  0
VERTEX
  8
0
  5
26FD4
 10
-5.00000
 20
156.711
 30
-3.48137e-14
  70
    32
  0
VERTEX
  8
0
  5
26FD5
 10
-5.00000
 20
156.733
 30
-3.48197e-14
  70
    32
  0
VERTEX
  8
0
  5
26FD6
 10
-5.00000
 20
156.755
 30
-3.48258e-14
  70
    32
  0
VERTEX
  8
0
  5
26FD7
 10
-5.00000
 20
156.777
 30
-3.48318e-14
  70
    32
  0
VERTEX
  8
0
  5
26FD8
 10
-5.00000
 20
156.799
 30
-3.48379e-14
  70
    32
  0
VERTEX
  8
0
  5
26FD9
 10
-5.00000
 20
156.821
 30
-3.48440e-14
  70
    32
  0
VERTEX
  8
0
  5
26FDA
 10
-5.00000
 20
156.843
 30
-3.48501e-14
  70
    32
  0
VERTEX
  8
0
  5
26FDB
 10
-5.00000
 20
156.865
 30
-3.48563e-14
  70
    32
  0
VERTEX
  8
0
  5
26FDC
 10
-5.00000
 20
156.887
 30
-3.48625e-14
  70
    32
  0
VERTEX
  8
0
  5
26FDD
 10
-5.00000
 20
156.910
 30
-3.48687e-14
  70
    32
  0
VERTEX
  8
0
  5
26FDE
 10
-5.00000
 20
156.932
 30
-3.48749e-14
  70
    32
  0
VERTEX
  8
0
  5
26FDF
 10
-5.00000
 20
156.954
 30
-3.48811e-14
  70
    32
  0
VERTEX
  8
0
  5
26FE0
 10
-5.00000
 20
156.976
 30
-3.48874e-14
  70
    32
  0
VERTEX
  8
0
  5
26FE1
 10
-5.00000
 20
156.998
 30
-3.48937e-14
  70
    32
  0
VERTEX
  8
0
  5
26FE2
 10
-5.00000
 20
157.021
 30
-3.49000e-14
  70
    32
  0
SEQEND
  8
0
  5
26FE3
  0
LINE
  5
26D03
  8
0
  6
VERDECKT
 62
     1
 10
-4.9999999999998641
 20
150.0
 30
-0.0000000000000333
 11
-4.9999999999998641
 21
155.0
 31
-0.0000000000000344
210
0.0
220
1.0
230
-0.0000000000000002
  0
POLYLINE
  8
0
  5
26FE4
  62
1
  66
     1
 10
0.000000
 20
0.000000
 30
0.000000
  70
     8
  0
VERTEX
  8
0
  5
26FE5
 10
-5.00000
 20
208.000
 30
-4.62000e-14
  70
    32
  0
VERTEX
  8
0
  5
26FE6
 10
-5.00000
 20
208.137
 30
-4.62298e-14
  70
    32
  0
VERTEX
  8
0
  5
26FE7
 10
-5.00000
 20
208.275
 30
-4.62598e-14
  70
    32
  0
VERTEX
  8
0
  5
26FE8
 10
-5.00000
 20
208.413
 30
-4.62898e-14
  70
    32
  0
VERTEX
  8
0
  5
26FE9
 10
-5.00000
 20
208.551
 30
-4.63198e-14
  70
    32
  0
VERTEX
  8
0
  5
26FEA
 10
-5.00000
 20
208.690
 30
-4.63500e-14
  70
    32
  0
VERTEX
  8
0
  5
26FEB
 10
-5.00000
 20
208.829
 30
-4.63802e-14
  70
    32
  0
VERTEX
  8
0
  5
26FEC
 10
-5.00000
 20
208.968
 30
-4.64105e-14
  70
    32
  0
VERTEX
  8
0
  5
26FED
 10
-5.00000
 20
209.108
 30
-4.64408e-14
  70
    32
  0
VERTEX
  8
0
  5
26FEE
 10
-5.00000
 20
209.247
 30
-4.64713e-14
  70
    32
  0
VERTEX
  8
0
  5
26FEF
 10
-5.00000
 20
209.387
 30
-4.65018e-14
  70
    32
  0
VERTEX
  8
0
  5
26FF0
 10
-5.00000
 20
209.528
 30
-4.65324e-14
  70
    32
  0
VERTEX
  8
0
  5
26FF1
 10
-5.00000
 20
209.669
 30
-4.65631e-14
  70
    32
  0
VERTEX
  8
0
  5
26FF2
 10
-5.00000
 20
209.810
 30
-4.65938e-14
  70
    32
  0
VERTEX
  8
0
  5
26FF3
 10
-5.00000
 20
209.951
 30
-4.66246e-14
  70
    32
  0
VERTEX
  8
0
  5
26FF4
 10
-5.00000
 20
210.093
 30
-4.66555e-14
  70
    32
  0
VERTEX
  8
0
  5
26FF5
 10
-5.00000
 20
210.235
 30
-4.66865e-14
  70
    32
  0
VERTEX
  8
0
  5
26FF6
 10
-5.00000
 20
210.377
 30
-4.67176e-14
  70
    32
  0
VERTEX
  8
0
  5
26FF7
 10
-5.00000
 20
210.520
 30
-4.67487e-14
  70
    32
  0
VERTEX
  8
0
  5
26FF8
 10
-5.00000
 20
210.663
 30
-4.67799e-14
  70
    32
  0
VERTEX
  8
0
  5
26FF9
 10
-5.00000
 20
210.806
 30
-4.68112e-14
  70
    32
  0
VERTEX
  8
0
  5
26FFA
 10
-5.00000
 20
210.950
 30
-4.68426e-14
  70
    32
  0
VERTEX
  8
0
  5
26FFB
 10
-5.00000
 20
211.094
 30
-4.68740e-14
  70
    32
  0
VERTEX
  8
0
  5
26FFC
 10
-5.00000
 20
211.238
 30
-4.69056e-14
  70
    32
  0
VERTEX
  8
0
  5
26FFD
 10
-5.00000
 20
211.383
 30
-4.69372e-14
  70
    32
  0
VERTEX
  8
0
  5
26FFE
 10
-5.00000
 20
211.528
 30
-4.69689e-14
  70
    32
  0
VERTEX
  8
0
  5
26FFF
 10
-5.00000
 20
211.673
 30
-4.70006e-14
  70
    32
  0
VERTEX
  8
0
  5
27000
 10
-5.00000
 20
211.819
 30
-4.70325e-14
  70
    32
  0
VERTEX
  8
0
  5
27001
 10
-5.00000
 20
211.965
 30
-4.70644e-14
  70
    32
  0
VERTEX
  8
0
  5
27002
 10
-5.00000
 20
212.111
 30
-4.70964e-14
  70
    32
  0
VERTEX
  8
0
  5
27003
 10
-5.00000
 20
212.258
 30
-4.71285e-14
  70
    32
  0
VERTEX
  8
0
  5
27004
 10
-5.00000
 20
212.405
 30
-4.71607e-14
  70
    32
  0
VERTEX
  8
0
  5
27005
 10
-5.00000
 20
212.552
 30
-4.71929e-14
  70
    32
  0
VERTEX
  8
0
  5
27006
 10
-5.00000
 20
212.700
 30
-4.72252e-14
  70
    32
  0
VERTEX
  8
0
  5
27007
 10
-5.00000
 20
212.848
 30
-4.72577e-14
  70
    32
  0
VERTEX
  8
0
  5
27008
 10
-5.00000
 20
212.996
 30
-4.72902e-14
  70
    32
  0
VERTEX
  8
0
  5
27009
 10
-5.00000
 20
213.145
 30
-4.73227e-14
  70
    32
  0
VERTEX
  8
0
  5
2700A
 10
-5.00000
 20
213.294
 30
-4.73554e-14
  70
    32
  0
VERTEX
  8
0
  5
2700B
 10
-5.00000
 20
213.443
 30
-4.73881e-14
  70
    32
  0
VERTEX
  8
0
  5
2700C
 10
-5.00000
 20
213.593
 30
-4.74210e-14
  70
    32
  0
VERTEX
  8
0
  5
2700D
 10
-5.00000
 20
213.743
 30
-4.74539e-14
  70
    32
  0
VERTEX
  8
0
  5
2700E
 10
-5.00000
 20
213.893
 30
-4.74869e-14
  70
    32
  0
VERTEX
  8
0
  5
2700F
 10
-5.00000
 20
214.044
 30
-4.75199e-14
  70
    32
  0
VERTEX
  8
0
  5
27010
 10
-5.00000
 20
214.195
 30
-4.75531e-14
  70
    32
  0
VERTEX
  8
0
  5
27011
 10
-5.00000
 20
214.346
 30
-4.75863e-14
  70
    32
  0
VERTEX
  8
0
  5
27012
 10
-5.00000
 20
214.498
 30
-4.76197e-14
  70
    32
  0
VERTEX
  8
0
  5
27013
 10
-5.00000
 20
214.650
 30
-4.76531e-14
  70
    32
  0
VERTEX
  8
0
  5
27014
 10
-5.00000
 20
214.803
 30
-4.76866e-14
  70
    32
  0
VERTEX
  8
0
  5
27015
 10
-5.00000
 20
214.956
 30
-4.77202e-14
  70
    32
  0
VERTEX
  8
0
  5
27016
 10
-5.00000
 20
215.109
 30
-4.77538e-14
  70
    32
  0
VERTEX
  8
0
  5
27017
 10
-5.00000
 20
215.262
 30
-4.77876e-14
  70
    32
  0
VERTEX
  8
0
  5
27018
 10
-5.00000
 20
215.416
 30
-4.78214e-14
  70
    32
  0
VERTEX
  8
0
  5
27019
 10
-5.00000
 20
215.571
 30
-4.78553e-14
  70
    32
  0
VERTEX
  8
0
  5
2701A
 10
-5.00000
 20
215.725
 30
-4.78894e-14
  70
    32
  0
VERTEX
  8
0
  5
2701B
 10
-5.00000
 20
215.880
 30
-4.79235e-14
  70
    32
  0
VERTEX
  8
0
  5
2701C
 10
-5.00000
 20
216.036
 30
-4.79576e-14
  70
    32
  0
VERTEX
  8
0
  5
2701D
 10
-5.00000
 20
216.191
 30
-4.79919e-14
  70
    32
  0
VERTEX
  8
0
  5
2701E
 10
-5.00000
 20
216.347
 30
-4.80263e-14
  70
    32
  0
VERTEX
  8
0
  5
2701F
 10
-5.00000
 20
216.504
 30
-4.80607e-14
  70
    32
  0
VERTEX
  8
0
  5
27020
 10
-5.00000
 20
216.661
 30
-4.80953e-14
  70
    32
  0
VERTEX
  8
0
  5
27021
 10
-5.00000
 20
216.818
 30
-4.81299e-14
  70
    32
  0
VERTEX
  8
0
  5
27022
 10
-5.00000
 20
216.976
 30
-4.81646e-14
  70
    32
  0
VERTEX
  8
0
  5
27023
 10
-5.00000
 20
217.134
 30
-4.81994e-14
  70
    32
  0
VERTEX
  8
0
  5
27024
 10
-5.00000
 20
217.292
 30
-4.82343e-14
  70
    32
  0
VERTEX
  8
0
  5
27025
 10
-5.00000
 20
217.451
 30
-4.82693e-14
  70
    32
  0
VERTEX
  8
0
  5
27026
 10
-5.00000
 20
217.610
 30
-4.83044e-14
  70
    32
  0
VERTEX
  8
0
  5
27027
 10
-5.00000
 20
217.769
 30
-4.83395e-14
  70
    32
  0
VERTEX
  8
0
  5
27028
 10
-5.00000
 20
217.929
 30
-4.83748e-14
  70
    32
  0
VERTEX
  8
0
  5
27029
 10
-5.00000
 20
218.089
 30
-4.84101e-14
  70
    32
  0
VERTEX
  8
0
  5
2702A
 10
-5.00000
 20
218.250
 30
-4.84456e-14
  70
    32
  0
VERTEX
  8
0
  5
2702B
 10
-5.00000
 20
218.411
 30
-4.84811e-14
  70
    32
  0
VERTEX
  8
0
  5
2702C
 10
-5.00000
 20
218.572
 30
-4.85167e-14
  70
    32
  0
VERTEX
  8
0
  5
2702D
 10
-5.00000
 20
218.734
 30
-4.85525e-14
  70
    32
  0
VERTEX
  8
0
  5
2702E
 10
-5.00000
 20
218.896
 30
-4.85883e-14
  70
    32
  0
VERTEX
  8
0
  5
2702F
 10
-5.00000
 20
219.059
 30
-4.86242e-14
  70
    32
  0
VERTEX
  8
0
  5
27030
 10
-5.00000
 20
219.222
 30
-4.86601e-14
  70
    32
  0
VERTEX
  8
0
  5
27031
 10
-5.00000
 20
219.385
 30
-4.86962e-14
  70
    32
  0
VERTEX
  8
0
  5
27032
 10
-5.00000
 20
219.549
 30
-4.87324e-14
  70
    32
  0
VERTEX
  8
0
  5
27033
 10
-5.00000
 20
219.713
 30
-4.87687e-14
  70
    32
  0
VERTEX
  8
0
  5
27034
 10
-5.00000
 20
219.877
 30
-4.88050e-14
  70
    32
  0
VERTEX
  8
0
  5
27035
 10
-5.00000
 20
220.042
 30
-4.88415e-14
  70
    32
  0
VERTEX
  8
0
  5
27036
 10
-5.00000
 20
220.208
 30
-4.88781e-14
  70
    32
  0
VERTEX
  8
0
  5
27037
 10
-5.00000
 20
220.373
 30
-4.89147e-14
  70
    32
  0
VERTEX
  8
0
  5
27038
 10
-5.00000
 20
220.539
 30
-4.89515e-14
  70
    32
  0
VERTEX
  8
0
  5
27039
 10
-5.00000
 20
220.706
 30
-4.89883e-14
  70
    32
  0
VERTEX
  8
0
  5
2703A
 10
-5.00000
 20
220.873
 30
-4.90252e-14
  70
    32
  0
VERTEX
  8
0
  5
2703B
 10
-5.00000
 20
221.040
 30
-4.90623e-14
  70
    32
  0
VERTEX
  8
0
  5
2703C
 10
-5.00000
 20
221.208
 30
-4.90994e-14
  70
    32
  0
VERTEX
  8
0
  5
2703D
 10
-5.00000
 20
221.376
 30
-4.91366e-14
  70
    32
  0
VERTEX
  8
0
  5
2703E
 10
-5.00000
 20
221.545
 30
-4.91740e-14
  70
    32
  0
VERTEX
  8
0
  5
2703F
 10
-5.00000
 20
221.714
 30
-4.92114e-14
  70
    32
  0
VERTEX
  8
0
  5
27040
 10
-5.00000
 20
221.883
 30
-4.92489e-14
  70
    32
  0
VERTEX
  8
0
  5
27041
 10
-5.00000
 20
222.053
 30
-4.92865e-14
  70
    32
  0
VERTEX
  8
0
  5
27042
 10
-5.00000
 20
222.223
 30
-4.93243e-14
  70
    32
  0
VERTEX
  8
0
  5
27043
 10
-5.00000
 20
222.394
 30
-4.93621e-14
  70
    32
  0
VERTEX
  8
0
  5
27044
 10
-5.00000
 20
222.565
 30
-4.94000e-14
  70
    32
  0
SEQEND
  8
0
  5
27045
  0
LINE
  5
26D05
  8
0
  6
VERDECKT
 62
     1
 10
-4.999999999999976
 20
157.0207259421636934
 30
-0.0000000000000349
 11
-4.999999999999976
 21
208.0
 31
-0.0000000000000462
210
0.0
220
1.0
230
-0.0000000000000002
  0
POLYLINE
  8
0
  5
27046
  62
1
  66
     1
 10
0.000000
 20
0.000000
 30
0.000000
  70
     8
  0
VERTEX
  8
0
  5
27047
 10
-5.00000
 20
222.565
 30
-4.94000e-14
  70
    32
  0
VERTEX
  8
0
  5
27048
 10
-4.89423
 20
222.550
 30
-4.93979e-14
  70
    32
  0
VERTEX
  8
0
  5
27049
 10
-4.78849
 20
222.536
 30
-4.93959e-14
  70
    32
  0
VERTEX
  8
0
  5
2704A
 10
-4.68278
 20
222.521
 30
-4.93939e-14
  70
    32
  0
VERTEX
  8
0
  5
2704B
 10
-4.57711
 20
222.508
 30
-4.93919e-14
  70
    32
  0
VERTEX
  8
0
  5
2704C
 10
-4.47146
 20
222.494
 30
-4.93900e-14
  70
    32
  0
VERTEX
  8
0
  5
2704D
 10
-4.36584
 20
222.481
 30
-4.93881e-14
  70
    32
  0
VERTEX
  8
0
  5
2704E
 10
-4.26026
 20
222.468
 30
-4.93863e-14
  70
    32
  0
VERTEX
  8
0
  5
2704F
 10
-4.15470
 20
222.455
 30
-4.93845e-14
  70
    32
  0
VERTEX
  8
0
  5
27050
 10
-4.04917
 20
222.443
 30
-4.93828e-14
  70
    32
  0
VERTEX
  8
0
  5
27051
 10
-3.94366
 20
222.431
 30
-4.93811e-14
  70
    32
  0
VERTEX
  8
0
  5
27052
 10
-3.83819
 20
222.420
 30
-4.93794e-14
  70
    32
  0
VERTEX
  8
0
  5
27053
 10
-3.73273
 20
222.408
 30
-4.93778e-14
  70
    32
  0
VERTEX
  8
0
  5
27054
 10
-3.62731
 20
222.397
 30
-4.93763e-14
  70
    32
  0
VERTEX
  8
0
  5
27055
 10
-3.52190
 20
222.387
 30
-4.93748e-14
  70
    32
  0
VERTEX
  8
0
  5
27056
 10
-3.41652
 20
222.376
 30
-4.93733e-14
  70
    32
  0
VERTEX
  8
0
  5
27057
 10
-3.31116
 20
222.366
 30
-4.93719e-14
  70
    32
  0
VERTEX
  8
0
  5
27058
 10
-3.20583
 20
222.356
 30
-4.93705e-14
  70
    32
  0
VERTEX
  8
0
  5
27059
 10
-3.10051
 20
222.347
 30
-4.93692e-14
  70
    32
  0
VERTEX
  8
0
  5
2705A
 10
-2.99522
 20
222.338
 30
-4.93679e-14
  70
    32
  0
VERTEX
  8
0
  5
2705B
 10
-2.88995
 20
222.329
 30
-4.93666e-14
  70
    32
  0
VERTEX
  8
0
  5
2705C
 10
-2.78469
 20
222.321
 30
-4.93654e-14
  70
    32
  0
VERTEX
  8
0
  5
2705D
 10
-2.67945
 20
222.312
 30
-4.93643e-14
  70
    32
  0
VERTEX
  8
0
  5
2705E
 10
-2.57424
 20
222.305
 30
-4.93632e-14
  70
    32
  0
VERTEX
  8
0
  5
2705F
 10
-2.46903
 20
222.297
 30
-4.93621e-14
  70
    32
  0
VERTEX
  8
0
  5
27060
 10
-2.36385
 20
222.290
 30
-4.93611e-14
  70
    32
  0
VERTEX
  8
0
  5
27061
 10
-2.25868
 20
222.283
 30
-4.93601e-14
  70
    32
  0
VERTEX
  8
0
  5
27062
 10
-2.15352
 20
222.276
 30
-4.93592e-14
  70
    32
  0
VERTEX
  8
0
  5
27063
 10
-2.04838
 20
222.270
 30
-4.93583e-14
  70
    32
  0
VERTEX
  8
0
  5
27064
 10
-1.94326
 20
222.264
 30
-4.93575e-14
  70
    32
  0
VERTEX
  8
0
  5
27065
 10
-1.83814
 20
222.259
 30
-4.93567e-14
  70
    32
  0
VERTEX
  8
0
  5
27066
 10
-1.73304
 20
222.253
 30
-4.93559e-14
  70
    32
  0
VERTEX
  8
0
  5
27067
 10
-1.62795
 20
222.248
 30
-4.93552e-14
  70
    32
  0
VERTEX
  8
0
  5
27068
 10
-1.52287
 20
222.243
 30
-4.93545e-14
  70
    32
  0
VERTEX
  8
0
  5
27069
 10
-1.41780
 20
222.239
 30
-4.93539e-14
  70
    32
  0
VERTEX
  8
0
  5
2706A
 10
-1.31274
 20
222.235
 30
-4.93533e-14
  70
    32
  0
VERTEX
  8
0
  5
2706B
 10
-1.20769
 20
222.231
 30
-4.93528e-14
  70
    32
  0
VERTEX
  8
0
  5
2706C
 10
-1.10265
 20
222.228
 30
-4.93523e-14
  70
    32
  0
VERTEX
  8
0
  5
2706D
 10
-0.997612
 20
222.225
 30
-4.93519e-14
  70
    32
  0
VERTEX
  8
0
  5
2706E
 10
-0.892582
 20
222.222
 30
-4.93515e-14
  70
    32
  0
VERTEX
  8
0
  5
2706F
 10
-0.787559
 20
222.219
 30
-4.93511e-14
  70
    32
  0
VERTEX
  8
0
  5
27070
 10
-0.682540
 20
222.217
 30
-4.93508e-14
  70
    32
  0
VERTEX
  8
0
  5
27071
 10
-0.577526
 20
222.215
 30
-4.93505e-14
  70
    32
  0
VERTEX
  8
0
  5
27072
 10
-0.472516
 20
222.214
 30
-4.93503e-14
  70
    32
  0
VERTEX
  8
0
  5
27073
 10
-0.367510
 20
222.212
 30
-4.93501e-14
  70
    32
  0
VERTEX
  8
0
  5
27074
 10
-0.262505
 20
222.212
 30
-4.93500e-14
  70
    32
  0
VERTEX
  8
0
  5
27075
 10
-0.157502
 20
222.211
 30
-4.93499e-14
  70
    32
  0
VERTEX
  8
0
  5
27076
 10
-0.0525007
 20
222.211
 30
-4.93499e-14
  70
    32
  0
VERTEX
  8
0
  5
27077
 10
0.0525007
 20
222.211
 30
-4.93499e-14
  70
    32
  0
VERTEX
  8
0
  5
27078
 10
0.157502
 20
222.211
 30
-4.93499e-14
  70
    32
  0
VERTEX
  8
0
  5
27079
 10
0.262505
 20
222.212
 30
-4.93500e-14
  70
    32
  0
VERTEX
  8
0
  5
2707A
 10
0.367510
 20
222.212
 30
-4.93501e-14
  70
    32
  0
VERTEX
  8
0
  5
2707B
 10
0.472516
 20
222.214
 30
-4.93503e-14
  70
    32
  0
VERTEX
  8
0
  5
2707C
 10
0.577526
 20
222.215
 30
-4.93505e-14
  70
    32
  0
VERTEX
  8
0
  5
2707D
 10
0.682540
 20
222.217
 30
-4.93508e-14
  70
    32
  0
VERTEX
  8
0
  5
2707E
 10
0.787559
 20
222.219
 30
-4.93511e-14
  70
    32
  0
VERTEX
  8
0
  5
2707F
 10
0.892582
 20
222.222
 30
-4.93515e-14
  70
    32
  0
VERTEX
  8
0
  5
27080
 10
0.997612
 20
222.225
 30
-4.93519e-14
  70
    32
  0
VERTEX
  8
0
  5
27081
 10
1.10265
 20
222.228
 30
-4.93523e-14
  70
    32
  0
VERTEX
  8
0
  5
27082
 10
1.20769
 20
222.231
 30
-4.93528e-14
  70
    32
  0
VERTEX
  8
0
  5
27083
 10
1.31274
 20
222.235
 30
-4.93533e-14
  70
    32
  0
VERTEX
  8
0
  5
27084
 10
1.41780
 20
222.239
 30
-4.93539e-14
  70
    32
  0
VERTEX
  8
0
  5
27085
 10
1.52287
 20
222.243
 30
-4.93545e-14
  70
    32
  0
VERTEX
  8
0
  5
27086
 10
1.62795
 20
222.248
 30
-4.93552e-14
  70
    32
  0
VERTEX
  8
0
  5
27087
 10
1.73304
 20
222.253
 30
-4.93559e-14
  70
    32
  0
VERTEX
  8
0
  5
27088
 10
1.83814
 20
222.259
 30
-4.93567e-14
  70
    32
  0
VERTEX
  8
0
  5
27089
 10
1.94326
 20
222.264
 30
-4.93575e-14
  70
    32
  0
VERTEX
  8
0
  5
2708A
 10
2.04838
 20
222.270
 30
-4.93583e-14
  70
    32
  0
VERTEX
  8
0
  5
2708B
 10
2.15352
 20
222.276
 30
-4.93592e-14
  70
    32
  0
VERTEX
  8
0
  5
2708C
 10
2.25868
 20
222.283
 30
-4.93601e-14
  70
    32
  0
VERTEX
  8
0
  5
2708D
 10
2.36385
 20
222.290
 30
-4.93611e-14
  70
    32
  0
VERTEX
  8
0
  5
2708E
 10
2.46903
 20
222.297
 30
-4.93621e-14
  70
    32
  0
VERTEX
  8
0
  5
2708F
 10
2.57424
 20
222.305
 30
-4.93632e-14
  70
    32
  0
VERTEX
  8
0
  5
27090
 10
2.67945
 20
222.312
 30
-4.93643e-14
  70
    32
  0
VERTEX
  8
0
  5
27091
 10
2.78469
 20
222.321
 30
-4.93654e-14
  70
    32
  0
VERTEX
  8
0
  5
27092
 10
2.88995
 20
222.329
 30
-4.93666e-14
  70
    32
  0
VERTEX
  8
0
  5
27093
 10
2.99522
 20
222.338
 30
-4.93679e-14
  70
    32
  0
VERTEX
  8
0
  5
27094
 10
3.10051
 20
222.347
 30
-4.93692e-14
  70
    32
  0
VERTEX
  8
0
  5
27095
 10
3.20583
 20
222.356
 30
-4.93705e-14
  70
    32
  0
VERTEX
  8
0
  5
27096
 10
3.31116
 20
222.366
 30
-4.93719e-14
  70
    32
  0
VERTEX
  8
0
  5
27097
 10
3.41652
 20
222.376
 30
-4.93733e-14
  70
    32
  0
VERTEX
  8
0
  5
27098
 10
3.52190
 20
222.387
 30
-4.93748e-14
  70
    32
  0
VERTEX
  8
0
  5
27099
 10
3.62731
 20
222.397
 30
-4.93763e-14
  70
    32
  0
VERTEX
  8
0
  5
2709A
 10
3.73273
 20
222.408
 30
-4.93778e-14
  70
    32
  0
VERTEX
  8
0
  5
2709B
 10
3.83819
 20
222.420
 30
-4.93794e-14
  70
    32
  0
VERTEX
  8
0
  5
2709C
 10
3.94366
 20
222.431
 30
-4.93811e-14
  70
    32
  0
VERTEX
  8
0
  5
2709D
 10
4.04917
 20
222.443
 30
-4.93828e-14
  70
    32
  0
VERTEX
  8
0
  5
2709E
 10
4.15470
 20
222.455
 30
-4.93845e-14
  70
    32
  0
VERTEX
  8
0
  5
2709F
 10
4.26026
 20
222.468
 30
-4.93863e-14
  70
    32
  0
VERTEX
  8
0
  5
270A0
 10
4.36584
 20
222.481
 30
-4.93881e-14
  70
    32
  0
VERTEX
  8
0
  5
270A1
 10
4.47146
 20
222.494
 30
-4.93900e-14
  70
    32
  0
VERTEX
  8
0
  5
270A2
 10
4.57711
 20
222.508
 30
-4.93919e-14
  70
    32
  0
VERTEX
  8
0
  5
270A3
 10
4.68278
 20
222.521
 30
-4.93939e-14
  70
    32
  0
VERTEX
  8
0
  5
270A4
 10
4.78849
 20
222.536
 30
-4.93959e-14
  70
    32
  0
VERTEX
  8
0
  5
270A5
 10
4.89423
 20
222.550
 30
-4.93979e-14
  70
    32
  0
VERTEX
  8
0
  5
270A6
 10
5.00000
 20
222.565
 30
-4.94000e-14
  70
    32
  0
SEQEND
  8
0
  5
270A7
  0
POLYLINE
  8
0
  5
270A8
  62
1
  66
     1
 10
0.000000
 20
0.000000
 30
0.000000
  70
     8
  0
VERTEX
  8
0
  5
270A9
 10
5.00000
 20
157.021
 30
-3.49000e-14
  70
    32
  0
VERTEX
  8
0
  5
270AA
 10
5.00000
 20
156.998
 30
-3.48937e-14
  70
    32
  0
VERTEX
  8
0
  5
270AB
 10
5.00000
 20
156.976
 30
-3.48874e-14
  70
    32
  0
VERTEX
  8
0
  5
270AC
 10
5.00000
 20
156.954
 30
-3.48811e-14
  70
    32
  0
VERTEX
  8
0
  5
270AD
 10
5.00000
 20
156.932
 30
-3.48749e-14
  70
    32
  0
VERTEX
  8
0
  5
270AE
 10
5.00000
 20
156.910
 30
-3.48687e-14
  70
    32
  0
VERTEX
  8
0
  5
270AF
 10
5.00000
 20
156.887
 30
-3.48625e-14
  70
    32
  0
VERTEX
  8
0
  5
270B0
 10
5.00000
 20
156.865
 30
-3.48563e-14
  70
    32
  0
VERTEX
  8
0
  5
270B1
 10
5.00000
 20
156.843
 30
-3.48501e-14
  70
    32
  0
VERTEX
  8
0
  5
270B2
 10
5.00000
 20
156.821
 30
-3.48440e-14
  70
    32
  0
VERTEX
  8
0
  5
270B3
 10
5.00000
 20
156.799
 30
-3.48379e-14
  70
    32
  0
VERTEX
  8
0
  5
270B4
 10
5.00000
 20
156.777
 30
-3.48318e-14
  70
    32
  0
VERTEX
  8
0
  5
270B5
 10
5.00000
 20
156.755
 30
-3.48258e-14
  70
    32
  0
VERTEX
  8
0
  5
270B6
 10
5.00000
 20
156.733
 30
-3.48197e-14
  70
    32
  0
VERTEX
  8
0
  5
270B7
 10
5.00000
 20
156.711
 30
-3.48137e-14
  70
    32
  0
VERTEX
  8
0
  5
270B8
 10
5.00000
 20
156.689
 30
-3.48077e-14
  70
    32
  0
VERTEX
  8
0
  5
270B9
 10
5.00000
 20
156.667
 30
-3.48017e-14
  70
    32
  0
VERTEX
  8
0
  5
270BA
 10
5.00000
 20
156.645
 30
-3.47958e-14
  70
    32
  0
VERTEX
  8
0
  5
270BB
 10
5.00000
 20
156.623
 30
-3.47898e-14
  70
    32
  0
VERTEX
  8
0
  5
270BC
 10
5.00000
 20
156.601
 30
-3.47839e-14
  70
    32
  0
VERTEX
  8
0
  5
270BD
 10
5.00000
 20
156.579
 30
-3.47781e-14
  70
    32
  0
VERTEX
  8
0
  5
270BE
 10
5.00000
 20
156.558
 30
-3.47722e-14
  70
    32
  0
VERTEX
  8
0
  5
270BF
 10
5.00000
 20
156.536
 30
-3.47664e-14
  70
    32
  0
VERTEX
  8
0
  5
270C0
 10
5.00000
 20
156.514
 30
-3.47605e-14
  70
    32
  0
VERTEX
  8
0
  5
270C1
 10
5.00000
 20
156.492
 30
-3.47547e-14
  70
    32
  0
VERTEX
  8
0
  5
270C2
 10
5.00000
 20
156.471
 30
-3.47490e-14
  70
    32
  0
VERTEX
  8
0
  5
270C3
 10
5.00000
 20
156.449
 30
-3.47432e-14
  70
    32
  0
VERTEX
  8
0
  5
270C4
 10
5.00000
 20
156.427
 30
-3.47375e-14
  70
    32
  0
VERTEX
  8
0
  5
270C5
 10
5.00000
 20
156.405
 30
-3.47318e-14
  70
    32
  0
VERTEX
  8
0
  5
270C6
 10
5.00000
 20
156.384
 30
-3.47261e-14
  70
    32
  0
VERTEX
  8
0
  5
270C7
 10
5.00000
 20
156.362
 30
-3.47204e-14
  70
    32
  0
VERTEX
  8
0
  5
270C8
 10
5.00000
 20
156.340
 30
-3.47148e-14
  70
    32
  0
VERTEX
  8
0
  5
270C9
 10
5.00000
 20
156.319
 30
-3.47092e-14
  70
    32
  0
VERTEX
  8
0
  5
270CA
 10
5.00000
 20
156.297
 30
-3.47036e-14
  70
    32
  0
VERTEX
  8
0
  5
270CB
 10
5.00000
 20
156.276
 30
-3.46980e-14
  70
    32
  0
VERTEX
  8
0
  5
270CC
 10
5.00000
 20
156.254
 30
-3.46925e-14
  70
    32
  0
VERTEX
  8
0
  5
270CD
 10
5.00000
 20
156.233
 30
-3.46869e-14
  70
    32
  0
VERTEX
  8
0
  5
270CE
 10
5.00000
 20
156.211
 30
-3.46814e-14
  70
    32
  0
VERTEX
  8
0
  5
270CF
 10
5.00000
 20
156.190
 30
-3.46760e-14
  70
    32
  0
VERTEX
  8
0
  5
270D0
 10
5.00000
 20
156.168
 30
-3.46705e-14
  70
    32
  0
VERTEX
  8
0
  5
270D1
 10
5.00000
 20
156.147
 30
-3.46651e-14
  70
    32
  0
VERTEX
  8
0
  5
270D2
 10
5.00000
 20
156.125
 30
-3.46596e-14
  70
    32
  0
VERTEX
  8
0
  5
270D3
 10
5.00000
 20
156.104
 30
-3.46543e-14
  70
    32
  0
VERTEX
  8
0
  5
270D4
 10
5.00000
 20
156.083
 30
-3.46489e-14
  70
    32
  0
VERTEX
  8
0
  5
270D5
 10
5.00000
 20
156.061
 30
-3.46435e-14
  70
    32
  0
VERTEX
  8
0
  5
270D6
 10
5.00000
 20
156.040
 30
-3.46382e-14
  70
    32
  0
VERTEX
  8
0
  5
270D7
 10
5.00000
 20
156.019
 30
-3.46329e-14
  70
    32
  0
VERTEX
  8
0
  5
270D8
 10
5.00000
 20
155.997
 30
-3.46276e-14
  70
    32
  0
VERTEX
  8
0
  5
270D9
 10
5.00000
 20
155.976
 30
-3.46224e-14
  70
    32
  0
VERTEX
  8
0
  5
270DA
 10
5.00000
 20
155.955
 30
-3.46171e-14
  70
    32
  0
VERTEX
  8
0
  5
270DB
 10
5.00000
 20
155.934
 30
-3.46119e-14
  70
    32
  0
VERTEX
  8
0
  5
270DC
 10
5.00000
 20
155.913
 30
-3.46067e-14
  70
    32
  0
VERTEX
  8
0
  5
270DD
 10
5.00000
 20
155.891
 30
-3.46015e-14
  70
    32
  0
VERTEX
  8
0
  5
270DE
 10
5.00000
 20
155.870
 30
-3.45964e-14
  70
    32
  0
VERTEX
  8
0
  5
270DF
 10
5.00000
 20
155.849
 30
-3.45913e-14
  70
    32
  0
VERTEX
  8
0
  5
270E0
 10
5.00000
 20
155.828
 30
-3.45862e-14
  70
    32
  0
VERTEX
  8
0
  5
270E1
 10
5.00000
 20
155.807
 30
-3.45811e-14
  70
    32
  0
VERTEX
  8
0
  5
270E2
 10
5.00000
 20
155.786
 30
-3.45760e-14
  70
    32
  0
VERTEX
  8
0
  5
270E3
 10
5.00000
 20
155.765
 30
-3.45710e-14
  70
    32
  0
VERTEX
  8
0
  5
270E4
 10
5.00000
 20
155.744
 30
-3.45660e-14
  70
    32
  0
VERTEX
  8
0
  5
270E5
 10
5.00000
 20
155.723
 30
-3.45610e-14
  70
    32
  0
VERTEX
  8
0
  5
270E6
 10
5.00000
 20
155.702
 30
-3.45560e-14
  70
    32
  0
VERTEX
  8
0
  5
270E7
 10
5.00000
 20
155.681
 30
-3.45510e-14
  70
    32
  0
VERTEX
  8
0
  5
270E8
 10
5.00000
 20
155.660
 30
-3.45461e-14
  70
    32
  0
VERTEX
  8
0
  5
270E9
 10
5.00000
 20
155.639
 30
-3.45412e-14
  70
    32
  0
VERTEX
  8
0
  5
270EA
 10
5.00000
 20
155.618
 30
-3.45363e-14
  70
    32
  0
VERTEX
  8
0
  5
270EB
 10
5.00000
 20
155.597
 30
-3.45315e-14
  70
    32
  0
VERTEX
  8
0
  5
270EC
 10
5.00000
 20
155.576
 30
-3.45266e-14
  70
    32
  0
VERTEX
  8
0
  5
270ED
 10
5.00000
 20
155.555
 30
-3.45218e-14
  70
    32
  0
VERTEX
  8
0
  5
270EE
 10
5.00000
 20
155.535
 30
-3.45170e-14
  70
    32
  0
VERTEX
  8
0
  5
270EF
 10
5.00000
 20
155.514
 30
-3.45122e-14
  70
    32
  0
VERTEX
  8
0
  5
270F0
 10
5.00000
 20
155.493
 30
-3.45075e-14
  70
    32
  0
VERTEX
  8
0
  5
270F1
 10
5.00000
 20
155.472
 30
-3.45027e-14
  70
    32
  0
VERTEX
  8
0
  5
270F2
 10
5.00000
 20
155.451
 30
-3.44980e-14
  70
    32
  0
VERTEX
  8
0
  5
270F3
 10
5.00000
 20
155.431
 30
-3.44933e-14
  70
    32
  0
VERTEX
  8
0
  5
270F4
 10
5.00000
 20
155.410
 30
-3.44887e-14
  70
    32
  0
VERTEX
  8
0
  5
270F5
 10
5.00000
 20
155.389
 30
-3.44840e-14
  70
    32
  0
VERTEX
  8
0
  5
270F6
 10
5.00000
 20
155.369
 30
-3.44794e-14
  70
    32
  0
VERTEX
  8
0
  5
270F7
 10
5.00000
 20
155.348
 30
-3.44748e-14
  70
    32
  0
VERTEX
  8
0
  5
270F8
 10
5.00000
 20
155.327
 30
-3.44702e-14
  70
    32
  0
VERTEX
  8
0
  5
270F9
 10
5.00000
 20
155.307
 30
-3.44657e-14
  70
    32
  0
VERTEX
  8
0
  5
270FA
 10
5.00000
 20
155.286
 30
-3.44612e-14
  70
    32
  0
VERTEX
  8
0
  5
270FB
 10
5.00000
 20
155.266
 30
-3.44566e-14
  70
    32
  0
VERTEX
  8
0
  5
270FC
 10
5.00000
 20
155.245
 30
-3.44522e-14
  70
    32
  0
VERTEX
  8
0
  5
270FD
 10
5.00000
 20
155.225
 30
-3.44477e-14
  70
    32
  0
VERTEX
  8
0
  5
270FE
 10
5.00000
 20
155.204
 30
-3.44432e-14
  70
    32
  0
VERTEX
  8
0
  5
270FF
 10
5.00000
 20
155.184
 30
-3.44388e-14
  70
    32
  0
VERTEX
  8
0
  5
27100
 10
5.00000
 20
155.163
 30
-3.44344e-14
  70
    32
  0
VERTEX
  8
0
  5
27101
 10
5.00000
 20
155.143
 30
-3.44300e-14
  70
    32
  0
VERTEX
  8
0
  5
27102
 10
5.00000
 20
155.122
 30
-3.44257e-14
  70
    32
  0
VERTEX
  8
0
  5
27103
 10
5.00000
 20
155.102
 30
-3.44213e-14
  70
    32
  0
VERTEX
  8
0
  5
27104
 10
5.00000
 20
155.081
 30
-3.44170e-14
  70
    32
  0
VERTEX
  8
0
  5
27105
 10
5.00000
 20
155.061
 30
-3.44127e-14
  70
    32
  0
VERTEX
  8
0
  5
27106
 10
5.00000
 20
155.041
 30
-3.44085e-14
  70
    32
  0
VERTEX
  8
0
  5
27107
 10
5.00000
 20
155.020
 30
-3.44042e-14
  70
    32
  0
VERTEX
  8
0
  5
27108
 10
5.00000
 20
155.000
 30
-3.44000e-14
  70
    32
  0
SEQEND
  8
0
  5
27109
  0
LINE
  5
26D08
  8
0
  6
VERDECKT
 62
     1
 10
5.0000000000000098
 20
208.0
 30
-0.0000000000000462
 11
5.0000000000000098
 21
157.0207259421636934
 31
-0.0000000000000349
210
0.0
220
1.0
230
-0.0000000000000002
  0
POLYLINE
  8
0
  5
2710A
  62
1
  66
     1
 10
0.000000
 20
0.000000
 30
0.000000
  70
     8
  0
VERTEX
  8
0
  5
2710B
 10
5.00000
 20
222.565
 30
-4.94000e-14
  70
    32
  0
VERTEX
  8
0
  5
2710C
 10
5.00000
 20
222.394
 30
-4.93621e-14
  70
    32
  0
VERTEX
  8
0
  5
2710D
 10
5.00000
 20
222.223
 30
-4.93243e-14
  70
    32
  0
VERTEX
  8
0
  5
2710E
 10
5.00000
 20
222.053
 30
-4.92865e-14
  70
    32
  0
VERTEX
  8
0
  5
2710F
 10
5.00000
 20
221.883
 30
-4.92489e-14
  70
    32
  0
VERTEX
  8
0
  5
27110
 10
5.00000
 20
221.714
 30
-4.92114e-14
  70
    32
  0
VERTEX
  8
0
  5
27111
 10
5.00000
 20
221.545
 30
-4.91740e-14
  70
    32
  0
VERTEX
  8
0
  5
27112
 10
5.00000
 20
221.376
 30
-4.91366e-14
  70
    32
  0
VERTEX
  8
0
  5
27113
 10
5.00000
 20
221.208
 30
-4.90994e-14
  70
    32
  0
VERTEX
  8
0
  5
27114
 10
5.00000
 20
221.040
 30
-4.90623e-14
  70
    32
  0
VERTEX
  8
0
  5
27115
 10
5.00000
 20
220.873
 30
-4.90252e-14
  70
    32
  0
VERTEX
  8
0
  5
27116
 10
5.00000
 20
220.706
 30
-4.89883e-14
  70
    32
  0
VERTEX
  8
0
  5
27117
 10
5.00000
 20
220.539
 30
-4.89515e-14
  70
    32
  0
VERTEX
  8
0
  5
27118
 10
5.00000
 20
220.373
 30
-4.89147e-14
  70
    32
  0
VERTEX
  8
0
  5
27119
 10
5.00000
 20
220.208
 30
-4.88781e-14
  70
    32
  0
VERTEX
  8
0
  5
2711A
 10
5.00000
 20
220.042
 30
-4.88415e-14
  70
    32
  0
VERTEX
  8
0
  5
2711B
 10
5.00000
 20
219.877
 30
-4.88050e-14
  70
    32
  0
VERTEX
  8
0
  5
2711C
 10
5.00000
 20
219.713
 30
-4.87687e-14
  70
    32
  0
VERTEX
  8
0
  5
2711D
 10
5.00000
 20
219.549
 30
-4.87324e-14
  70
    32
  0
VERTEX
  8
0
  5
2711E
 10
5.00000
 20
219.385
 30
-4.86962e-14
  70
    32
  0
VERTEX
  8
0
  5
2711F
 10
5.00000
 20
219.222
 30
-4.86601e-14
  70
    32
  0
VERTEX
  8
0
  5
27120
 10
5.00000
 20
219.059
 30
-4.86242e-14
  70
    32
  0
VERTEX
  8
0
  5
27121
 10
5.00000
 20
218.896
 30
-4.85883e-14
  70
    32
  0
VERTEX
  8
0
  5
27122
 10
5.00000
 20
218.734
 30
-4.85525e-14
  70
    32
  0
VERTEX
  8
0
  5
27123
 10
5.00000
 20
218.572
 30
-4.85167e-14
  70
    32
  0
VERTEX
  8
0
  5
27124
 10
5.00000
 20
218.411
 30
-4.84811e-14
  70
    32
  0
VERTEX
  8
0
  5
27125
 10
5.00000
 20
218.250
 30
-4.84456e-14
  70
    32
  0
VERTEX
  8
0
  5
27126
 10
5.00000
 20
218.089
 30
-4.84101e-14
  70
    32
  0
VERTEX
  8
0
  5
27127
 10
5.00000
 20
217.929
 30
-4.83748e-14
  70
    32
  0
VERTEX
  8
0
  5
27128
 10
5.00000
 20
217.769
 30
-4.83395e-14
  70
    32
  0
VERTEX
  8
0
  5
27129
 10
5.00000
 20
217.610
 30
-4.83044e-14
  70
    32
  0
VERTEX
  8
0
  5
2712A
 10
5.00000
 20
217.451
 30
-4.82693e-14
  70
    32
  0
VERTEX
  8
0
  5
2712B
 10
5.00000
 20
217.292
 30
-4.82343e-14
  70
    32
  0
VERTEX
  8
0
  5
2712C
 10
5.00000
 20
217.134
 30
-4.81994e-14
  70
    32
  0
VERTEX
  8
0
  5
2712D
 10
5.00000
 20
216.976
 30
-4.81646e-14
  70
    32
  0
VERTEX
  8
0
  5
2712E
 10
5.00000
 20
216.818
 30
-4.81299e-14
  70
    32
  0
VERTEX
  8
0
  5
2712F
 10
5.00000
 20
216.661
 30
-4.80953e-14
  70
    32
  0
VERTEX
  8
0
  5
27130
 10
5.00000
 20
216.504
 30
-4.80607e-14
  70
    32
  0
VERTEX
  8
0
  5
27131
 10
5.00000
 20
216.347
 30
-4.80263e-14
  70
    32
  0
VERTEX
  8
0
  5
27132
 10
5.00000
 20
216.191
 30
-4.79919e-14
  70
    32
  0
VERTEX
  8
0
  5
27133
 10
5.00000
 20
216.036
 30
-4.79576e-14
  70
    32
  0
VERTEX
  8
0
  5
27134
 10
5.00000
 20
215.880
 30
-4.79235e-14
  70
    32
  0
VERTEX
  8
0
  5
27135
 10
5.00000
 20
215.725
 30
-4.78894e-14
  70
    32
  0
VERTEX
  8
0
  5
27136
 10
5.00000
 20
215.571
 30
-4.78553e-14
  70
    32
  0
VERTEX
  8
0
  5
27137
 10
5.00000
 20
215.416
 30
-4.78214e-14
  70
    32
  0
VERTEX
  8
0
  5
27138
 10
5.00000
 20
215.262
 30
-4.77876e-14
  70
    32
  0
VERTEX
  8
0
  5
27139
 10
5.00000
 20
215.109
 30
-4.77538e-14
  70
    32
  0
VERTEX
  8
0
  5
2713A
 10
5.00000
 20
214.956
 30
-4.77202e-14
  70
    32
  0
VERTEX
  8
0
  5
2713B
 10
5.00000
 20
214.803
 30
-4.76866e-14
  70
    32
  0
VERTEX
  8
0
  5
2713C
 10
5.00000
 20
214.650
 30
-4.76531e-14
  70
    32
  0
VERTEX
  8
0
  5
2713D
 10
5.00000
 20
214.498
 30
-4.76197e-14
  70
    32
  0
VERTEX
  8
0
  5
2713E
 10
5.00000
 20
214.346
 30
-4.75863e-14
  70
    32
  0
VERTEX
  8
0
  5
2713F
 10
5.00000
 20
214.195
 30
-4.75531e-14
  70
    32
  0
VERTEX
  8
0
  5
27140
 10
5.00000
 20
214.044
 30
-4.75199e-14
  70
    32
  0
VERTEX
  8
0
  5
27141
 10
5.00000
 20
213.893
 30
-4.74869e-14
  70
    32
  0
VERTEX
  8
0
  5
27142
 10
5.00000
 20
213.743
 30
-4.74539e-14
  70
    32
  0
VERTEX
  8
0
  5
27143
 10
5.00000
 20
213.593
 30
-4.74210e-14
  70
    32
  0
VERTEX
  8
0
  5
27144
 10
5.00000
 20
213.443
 30
-4.73881e-14
  70
    32
  0
VERTEX
  8
0
  5
27145
 10
5.00000
 20
213.294
 30
-4.73554e-14
  70
    32
  0
VERTEX
  8
0
  5
27146
 10
5.00000
 20
213.145
 30
-4.73227e-14
  70
    32
  0
VERTEX
  8
0
  5
27147
 10
5.00000
 20
212.996
 30
-4.72902e-14
  70
    32
  0
VERTEX
  8
0
  5
27148
 10
5.00000
 20
212.848
 30
-4.72577e-14
  70
    32
  0
VERTEX
  8
0
  5
27149
 10
5.00000
 20
212.700
 30
-4.72252e-14
  70
    32
  0
VERTEX
  8
0
  5
2714A
 10
5.00000
 20
212.552
 30
-4.71929e-14
  70
    32
  0
VERTEX
  8
0
  5
2714B
 10
5.00000
 20
212.405
 30
-4.71607e-14
  70
    32
  0
VERTEX
  8
0
  5
2714C
 10
5.00000
 20
212.258
 30
-4.71285e-14
  70
    32
  0
VERTEX
  8
0
  5
2714D
 10
5.00000
 20
212.111
 30
-4.70964e-14
  70
    32
  0
VERTEX
  8
0
  5
2714E
 10
5.00000
 20
211.965
 30
-4.70644e-14
  70
    32
  0
VERTEX
  8
0
  5
2714F
 10
5.00000
 20
211.819
 30
-4.70325e-14
  70
    32
  0
VERTEX
  8
0
  5
27150
 10
5.00000
 20
211.673
 30
-4.70006e-14
  70
    32
  0
VERTEX
  8
0
  5
27151
 10
5.00000
 20
211.528
 30
-4.69689e-14
  70
    32
  0
VERTEX
  8
0
  5
27152
 10
5.00000
 20
211.383
 30
-4.69372e-14
  70
    32
  0
VERTEX
  8
0
  5
27153
 10
5.00000
 20
211.238
 30
-4.69056e-14
  70
    32
  0
VERTEX
  8
0
  5
27154
 10
5.00000
 20
211.094
 30
-4.68740e-14
  70
    32
  0
VERTEX
  8
0
  5
27155
 10
5.00000
 20
210.950
 30
-4.68426e-14
  70
    32
  0
VERTEX
  8
0
  5
27156
 10
5.00000
 20
210.806
 30
-4.68112e-14
  70
    32
  0
VERTEX
  8
0
  5
27157
 10
5.00000
 20
210.663
 30
-4.67799e-14
  70
    32
  0
VERTEX
  8
0
  5
27158
 10
5.00000
 20
210.520
 30
-4.67487e-14
  70
    32
  0
VERTEX
  8
0
  5
27159
 10
5.00000
 20
210.377
 30
-4.67176e-14
  70
    32
  0
VERTEX
  8
0
  5
2715A
 10
5.00000
 20
210.235
 30
-4.66865e-14
  70
    32
  0
VERTEX
  8
0
  5
2715B
 10
5.00000
 20
210.093
 30
-4.66555e-14
  70
    32
  0
VERTEX
  8
0
  5
2715C
 10
5.00000
 20
209.951
 30
-4.66246e-14
  70
    32
  0
VERTEX
  8
0
  5
2715D
 10
5.00000
 20
209.810
 30
-4.65938e-14
  70
    32
  0
VERTEX
  8
0
  5
2715E
 10
5.00000
 20
209.669
 30
-4.65631e-14
  70
    32
  0
VERTEX
  8
0
  5
2715F
 10
5.00000
 20
209.528
 30
-4.65324e-14
  70
    32
  0
VERTEX
  8
0
  5
27160
 10
5.00000
 20
209.387
 30
-4.65018e-14
  70
    32
  0
VERTEX
  8
0
  5
27161
 10
5.00000
 20
209.247
 30
-4.64713e-14
  70
    32
  0
VERTEX
  8
0
  5
27162
 10
5.00000
 20
209.108
 30
-4.64408e-14
  70
    32
  0
VERTEX
  8
0
  5
27163
 10
5.00000
 20
208.968
 30
-4.64105e-14
  70
    32
  0
VERTEX
  8
0
  5
27164
 10
5.00000
 20
208.829
 30
-4.63802e-14
  70
    32
  0
VERTEX
  8
0
  5
27165
 10
5.00000
 20
208.690
 30
-4.63500e-14
  70
    32
  0
VERTEX
  8
0
  5
27166
 10
5.00000
 20
208.551
 30
-4.63198e-14
  70
    32
  0
VERTEX
  8
0
  5
27167
 10
5.00000
 20
208.413
 30
-4.62898e-14
  70
    32
  0
VERTEX
  8
0
  5
27168
 10
5.00000
 20
208.275
 30
-4.62598e-14
  70
    32
  0
VERTEX
  8
0
  5
27169
 10
5.00000
 20
208.137
 30
-4.62298e-14
  70
    32
  0
VERTEX
  8
0
  5
2716A
 10
5.00000
 20
208.000
 30
-4.62000e-14
  70
    32
  0
SEQEND
  8
0
  5
2716B
  0
LINE
  5
26D0A
  8
0
  6
VERDECKT
 62
     1
 10
5.0000000000001243
 20
155.0
 30
-0.0000000000000344
 11
5.0000000000001243
 21
150.0
 31
-0.0000000000000333
210
0.0
220
1.0
230
-0.0000000000000002
  0
LINE
  5
26D0B
  8
0
  6
VERDECKT
 62
     1
 10
-39.9999999999999787
 20
157.0207259421636934
 30
-0.0000000000000349
 11
40.0
 21
157.0207259421636934
 31
-0.0000000000000349
210
0.0
220
1.0
230
-0.0000000000000002
  0
LINE
  5
26D0C
  8
0
  6
VERDECKT
 62
     1
 10
-36.5
 20
155.0
 30
-0.0000000000000344
 11
36.5
 21
155.0
 31
-0.0000000000000344
210
0.0
220
1.0
230
-0.0000000000000002
  0
LINE
  5
26D0D
  8
0
  6
VERDECKT
 62
     1
 10
-58.9999999999999929
 20
235.0
 30
-0.0000000000000522
 11
-0.0000000000000142
 21
235.0
 31
-0.0000000000000522
210
0.0
220
1.0
230
-0.0000000000000002
  0
LINE
  5
26D0E
  8
0
  6
VERDECKT
 62
     1
 10
-0.0000000000000024
 20
235.0
 30
-0.0000000000000522
 11
59.0
 21
235.0
 31
-0.0000000000000522
210
0.0
220
1.0
230
-0.0000000000000002
  0
LINE
  5
26D0F
  8
0
  6
VERDECKT
 62
     1
 10
-40.0
 20
208.0
 30
-0.0000000000000462
 11
40.0
 21
208.0
 31
-0.0000000000000462
210
0.0
220
1.0
230
-0.0000000000000002
  0
LINE
  5
26D10
  8
0
  6
VERDECKT
 62
     1
 10
-58.9999999999999929
 20
261.0000000000001137
 30
-0.000000000000058
 11
-0.0000000000000142
 21
261.0000000000001137
 31
-0.000000000000058
210
0.0
220
1.0
230
-0.0000000000000002
  0
LINE
  5
26D11
  8
0
  6
VERDECKT
 62
     1
 10
-0.0000000000000024
 20
261.0000000000001137
 30
-0.000000000000058
 11
59.0
 21
261.0000000000001137
 31
-0.000000000000058
210
0.0
220
1.0
230
-0.0000000000000002
  0
LINE
  5
26D12
  8
0
  6
VERDECKT
 62
     1
 10
-64.9999999999999858
 20
158.0
 30
-0.0000000000000351
 11
-66.9999999999999858
 21
160.0
 31
-0.0000000000000355
210
0.0
220
1.0
230
-0.0000000000000002
  0
LINE
  5
26D13
  8
0
  6
VERDECKT
 62
     1
 10
64.9999999999999858
 20
158.0
 30
-0.0000000000000351
 11
66.9999999999999858
 21
160.0
 31
-0.0000000000000355
210
0.0
220
1.0
230
-0.0000000000000002
  0
LINE
  5
26D14
  8
0
  6
VERDECKT
 62
     1
 10
73.0
 20
160.0
 30
-0.0000000000000355
 11
75.0000000000000142
 21
158.0
 31
-0.0000000000000351
210
0.0
220
1.0
230
-0.0000000000000002
  0
LINE
  5
26D15
  8
0
  6
VERDECKT
 62
     1
 10
-73.0
 20
160.0
 30
-0.0000000000000355
 11
-75.0000000000000142
 21
158.0
 31
-0.0000000000000351
210
0.0
220
1.0
230
-0.0000000000000002
  0
LINE
  5
26D16
  8
0
  6
VERDECKT
 62
     1
 10
-64.9999999999999858
 20
150.0
 30
-0.0000000000000333
 11
-64.9999999999999858
 21
158.0
 31
-0.0000000000000351
210
0.0
220
1.0
230
-0.0000000000000002
  0
LINE
  5
26D17
  8
0
  6
VERDECKT
 62
     1
 10
64.9999999999999858
 20
150.0
 30
-0.0000000000000333
 11
64.9999999999999858
 21
158.0
 31
-0.0000000000000351
210
0.0
220
1.0
230
-0.0000000000000002
  0
LINE
  5
26D18
  8
0
  6
VERDECKT
 62
     1
 10
-36.5000000000000071
 20
155.0
 30
-0.0000000000000344
 11
-39.9999999999999929
 21
157.0207259421636934
 31
-0.0000000000000349
210
0.0
220
1.0
230
-0.0000000000000002
  0
LINE
  5
26D19
  8
0
  6
VERDECKT
 62
     1
 10
36.5000000000000071
 20
155.0
 30
-0.0000000000000344
 11
39.9999999999999929
 21
157.0207259421636934
 31
-0.0000000000000349
210
0.0
220
1.0
230
-0.0000000000000002
  0
LINE
  5
26D1A
  8
0
  6
VERDECKT
 62
     1
 10
-40.0
 20
208.0
 30
-0.0000000000000462
 11
-59.0
 21
235.0
 31
-0.0000000000000522
210
0.0
220
1.0
230
-0.0000000000000002
  0
LINE
  5
26D1B
  8
0
  6
VERDECKT
 62
     1
 10
40.0
 20
208.0
 30
-0.0000000000000462
 11
59.0
 21
235.0
 31
-0.0000000000000522
210
0.0
220
1.0
230
-0.0000000000000002
  0
LINE
  5
26D1C
  8
0
  6
VERDECKT
 62
     1
 10
40.0
 20
208.0
 30
-0.0000000000000462
 11
40.0
 21
157.0207259421636934
 31
-0.0000000000000349
210
0.0
220
1.0
230
-0.0000000000000002
  0
LINE
  5
26D1D
  8
0
  6
VERDECKT
 62
     1
 10
-40.0
 20
208.0
 30
-0.0000000000000462
 11
-40.0
 21
157.0207259421636934
 31
-0.0000000000000349
210
0.0
220
1.0
230
-0.0000000000000002
  0
LINE
  5
26D1E
  8
0
  6
VERDECKT
 62
     1
 10
-75.0
 20
150.0
 30
-0.0000000000000333
 11
-75.0
 21
158.0
 31
-0.0000000000000351
210
0.0
220
1.0
230
-0.0000000000000002
  0
LINE
  5
26D1F
  8
0
  6
VERDECKT
 62
     1
 10
75.0
 20
150.0
 30
-0.0000000000000333
 11
75.0
 21
158.0
 31
-0.0000000000000351
210
0.0
220
1.0
230
-0.0000000000000002
  0
LINE
  5
26D20
  8
0
  6
VERDECKT
 62
     1
 10
-59.0
 20
261.0000000000001137
 30
-0.000000000000058
 11
-76.5
 21
300.0
 31
-0.0000000000000666
210
0.0
220
1.0
230
-0.0000000000000002
  0
LINE
  5
26D21
  8
0
  6
VERDECKT
 62
     1
 10
59.0
 20
261.0000000000001137
 30
-0.000000000000058
 11
76.5
 21
300.0
 31
-0.0000000000000666
210
0.0
220
1.0
230
-0.0000000000000002
  0
LINE
  5
26D22
  8
0
  6
VERDECKT
 62
     1
 10
59.0
 20
261.0000000000001137
 30
-0.000000000000058
 11
59.0
 21
235.0
 31
-0.0000000000000522
210
0.0
220
1.0
230
-0.0000000000000002
  0
LINE
  5
26D23
  8
0
  6
VERDECKT
 62
     1
 10
-59.0
 20
261.0000000000001137
 30
-0.000000000000058
 11
-59.0
 21
235.0
 31
-0.0000000000000522
210
0.0
220
1.0
230
-0.0000000000000002
  0
LINE
  5
26D24
  8
0
  6
VERDECKT
 62
     1
 10
36.5
 20
155.0
 30
-0.0000000000000344
 11
36.5
 21
150.0
 31
-0.0000000000000333
210
0.0
220
1.0
230
-0.0000000000000002
  0
LINE
  5
26D25
  8
0
  6
VERDECKT
 62
     1
 10
-36.5
 20
155.0
 30
-0.0000000000000344
 11
-36.5
 21
150.0
 31
-0.0000000000000333
210
0.0
220
1.0
230
-0.0000000000000002
  0
LINE
  5
26D26
  8
0
  6
VERDECKT
 62
     1
 10
-4.9999999999998641
 20
0.0
 30
0.0
 11
-4.9999999999998641
 21
5.0
 31
-0.0000000000000011
210
0.0
220
1.0
230
-0.0000000000000002
  0
LINE
  5
26D27
  8
0
  6
VERDECKT
 62
     1
 10
36.4999999999999574
 20
5.0
 30
-0.0000000000000011
 11
-36.4999999999999574
 21
5.0
 31
-0.0000000000000011
210
0.0
220
1.0
230
-0.0000000000000002
  0
LINE
  5
26D28
  8
0
  6
VERDECKT
 62
     1
 10
5.0000000000001243
 20
5.0
 30
-0.0000000000000011
 11
5.0000000000001243
 21
0.0
 31
0.0
210
0.0
220
1.0
230
-0.0000000000000002
  0
POLYLINE
  8
0
  5
2716C
  62
1
  66
     1
 10
0.000000
 20
0.000000
 30
0.000000
  70
     8
  0
VERTEX
  8
0
  5
2716D
 10
5.00000
 20
150.000
 30
-3.33000e-14
  70
    32
  0
VERTEX
  8
0
  5
2716E
 10
5.00000
 20
148.478
 30
-3.29632e-14
  70
    32
  0
VERTEX
  8
0
  5
2716F
 10
5.00000
 20
146.957
 30
-3.26264e-14
  70
    32
  0
VERTEX
  8
0
  5
27170
 10
5.00000
 20
145.436
 30
-3.22898e-14
  70
    32
  0
VERTEX
  8
0
  5
27171
 10
5.00000
 20
143.915
 30
-3.19532e-14
  70
    32
  0
VERTEX
  8
0
  5
27172
 10
5.00000
 20
142.396
 30
-3.16167e-14
  70
    32
  0
VERTEX
  8
0
  5
27173
 10
5.00000
 20
140.876
 30
-3.12803e-14
  70
    32
  0
VERTEX
  8
0
  5
27174
 10
5.00000
 20
139.357
 30
-3.09440e-14
  70
    32
  0
VERTEX
  8
0
  5
27175
 10
5.00000
 20
137.839
 30
-3.06078e-14
  70
    32
  0
VERTEX
  8
0
  5
27176
 10
5.00000
 20
136.321
 30
-3.02717e-14
  70
    32
  0
VERTEX
  8
0
  5
27177
 10
5.00000
 20
134.804
 30
-2.99357e-14
  70
    32
  0
VERTEX
  8
0
  5
27178
 10
5.00000
 20
133.287
 30
-2.95998e-14
  70
    32
  0
VERTEX
  8
0
  5
27179
 10
5.00000
 20
131.771
 30
-2.92639e-14
  70
    32
  0
VERTEX
  8
0
  5
2717A
 10
5.00000
 20
130.255
 30
-2.89282e-14
  70
    32
  0
VERTEX
  8
0
  5
2717B
 10
5.00000
 20
128.740
 30
-2.85925e-14
  70
    32
  0
VERTEX
  8
0
  5
2717C
 10
5.00000
 20
127.225
 30
-2.82570e-14
  70
    32
  0
VERTEX
  8
0
  5
2717D
 10
5.00000
 20
125.711
 30
-2.79215e-14
  70
    32
  0
VERTEX
  8
0
  5
2717E
 10
5.00000
 20
124.197
 30
-2.75861e-14
  70
    32
  0
VERTEX
  8
0
  5
2717F
 10
5.00000
 20
122.684
 30
-2.72508e-14
  70
    32
  0
VERTEX
  8
0
  5
27180
 10
5.00000
 20
121.172
 30
-2.69156e-14
  70
    32
  0
VERTEX
  8
0
  5
27181
 10
5.00000
 20
119.659
 30
-2.65805e-14
  70
    32
  0
VERTEX
  8
0
  5
27182
 10
5.00000
 20
118.148
 30
-2.62455e-14
  70
    32
  0
VERTEX
  8
0
  5
27183
 10
5.00000
 20
116.637
 30
-2.59105e-14
  70
    32
  0
VERTEX
  8
0
  5
27184
 10
5.00000
 20
115.126
 30
-2.55757e-14
  70
    32
  0
VERTEX
  8
0
  5
27185
 10
5.00000
 20
113.616
 30
-2.52409e-14
  70
    32
  0
VERTEX
  8
0
  5
27186
 10
5.00000
 20
112.106
 30
-2.49063e-14
  70
    32
  0
VERTEX
  8
0
  5
27187
 10
5.00000
 20
110.597
 30
-2.45717e-14
  70
    32
  0
VERTEX
  8
0
  5
27188
 10
5.00000
 20
109.089
 30
-2.42372e-14
  70
    32
  0
VERTEX
  8
0
  5
27189
 10
5.00000
 20
107.581
 30
-2.39028e-14
  70
    32
  0
VERTEX
  8
0
  5
2718A
 10
5.00000
 20
106.073
 30
-2.35685e-14
  70
    32
  0
VERTEX
  8
0
  5
2718B
 10
5.00000
 20
104.566
 30
-2.32343e-14
  70
    32
  0
VERTEX
  8
0
  5
2718C
 10
5.00000
 20
103.060
 30
-2.29002e-14
  70
    32
  0
VERTEX
  8
0
  5
2718D
 10
5.00000
 20
101.554
 30
-2.25661e-14
  70
    32
  0
VERTEX
  8
0
  5
2718E
 10
5.00000
 20
100.048
 30
-2.22322e-14
  70
    32
  0
VERTEX
  8
0
  5
2718F
 10
5.00000
 20
98.5430
 30
-2.18983e-14
  70
    32
  0
VERTEX
  8
0
  5
27190
 10
5.00000
 20
97.0385
 30
-2.15646e-14
  70
    32
  0
VERTEX
  8
0
  5
27191
 10
5.00000
 20
95.5346
 30
-2.12309e-14
  70
    32
  0
VERTEX
  8
0
  5
27192
 10
5.00000
 20
94.0311
 30
-2.08973e-14
  70
    32
  0
VERTEX
  8
0
  5
27193
 10
5.00000
 20
92.5281
 30
-2.05638e-14
  70
    32
  0
VERTEX
  8
0
  5
27194
 10
5.00000
 20
91.0257
 30
-2.02304e-14
  70
    32
  0
VERTEX
  8
0
  5
27195
 10
5.00000
 20
89.5237
 30
-1.98971e-14
  70
    32
  0
VERTEX
  8
0
  5
27196
 10
5.00000
 20
88.0223
 30
-1.95638e-14
  70
    32
  0
VERTEX
  8
0
  5
27197
 10
5.00000
 20
86.5214
 30
-1.92307e-14
  70
    32
  0
VERTEX
  8
0
  5
27198
 10
5.00000
 20
85.0209
 30
-1.88976e-14
  70
    32
  0
VERTEX
  8
0
  5
27199
 10
5.00000
 20
83.5210
 30
-1.85647e-14
  70
    32
  0
VERTEX
  8
0
  5
2719A
 10
5.00000
 20
82.0216
 30
-1.82318e-14
  70
    32
  0
VERTEX
  8
0
  5
2719B
 10
5.00000
 20
80.5227
 30
-1.78990e-14
  70
    32
  0
VERTEX
  8
0
  5
2719C
 10
5.00000
 20
79.0243
 30
-1.75663e-14
  70
    32
  0
VERTEX
  8
0
  5
2719D
 10
5.00000
 20
77.5264
 30
-1.72337e-14
  70
    32
  0
VERTEX
  8
0
  5
2719E
 10
5.00000
 20
76.0290
 30
-1.69012e-14
  70
    32
  0
VERTEX
  8
0
  5
2719F
 10
5.00000
 20
74.5321
 30
-1.65687e-14
  70
    32
  0
VERTEX
  8
0
  5
271A0
 10
5.00000
 20
73.0358
 30
-1.62364e-14
  70
    32
  0
VERTEX
  8
0
  5
271A1
 10
5.00000
 20
71.5399
 30
-1.59041e-14
  70
    32
  0
VERTEX
  8
0
  5
271A2
 10
5.00000
 20
70.0445
 30
-1.55720e-14
  70
    32
  0
VERTEX
  8
0
  5
271A3
 10
5.00000
 20
68.5497
 30
-1.52399e-14
  70
    32
  0
VERTEX
  8
0
  5
271A4
 10
5.00000
 20
67.0553
 30
-1.49079e-14
  70
    32
  0
VERTEX
  8
0
  5
271A5
 10
5.00000
 20
65.5614
 30
-1.45760e-14
  70
    32
  0
VERTEX
  8
0
  5
271A6
 10
5.00000
 20
64.0681
 30
-1.42442e-14
  70
    32
  0
VERTEX
  8
0
  5
271A7
 10
5.00000
 20
62.5752
 30
-1.39125e-14
  70
    32
  0
VERTEX
  8
0
  5
271A8
 10
5.00000
 20
61.0829
 30
-1.35808e-14
  70
    32
  0
VERTEX
  8
0
  5
271A9
 10
5.00000
 20
59.5910
 30
-1.32493e-14
  70
    32
  0
VERTEX
  8
0
  5
271AA
 10
5.00000
 20
58.0997
 30
-1.29178e-14
  70
    32
  0
VERTEX
  8
0
  5
271AB
 10
5.00000
 20
56.6089
 30
-1.25864e-14
  70
    32
  0
VERTEX
  8
0
  5
271AC
 10
5.00000
 20
55.1185
 30
-1.22551e-14
  70
    32
  0
VERTEX
  8
0
  5
271AD
 10
5.00000
 20
53.6287
 30
-1.19239e-14
  70
    32
  0
VERTEX
  8
0
  5
271AE
 10
5.00000
 20
52.1393
 30
-1.15928e-14
  70
    32
  0
VERTEX
  8
0
  5
271AF
 10
5.00000
 20
50.6505
 30
-1.12618e-14
  70
    32
  0
VERTEX
  8
0
  5
271B0
 10
5.00000
 20
49.1622
 30
-1.09309e-14
  70
    32
  0
VERTEX
  8
0
  5
271B1
 10
5.00000
 20
47.6743
 30
-1.06000e-14
  70
    32
  0
VERTEX
  8
0
  5
271B2
 10
5.00000
 20
46.1870
 30
-1.02693e-14
  70
    32
  0
VERTEX
  8
0
  5
271B3
 10
5.00000
 20
44.7002
 30
-9.93859e-15
  70
    32
  0
VERTEX
  8
0
  5
271B4
 10
5.00000
 20
43.2138
 30
-9.60800e-15
  70
    32
  0
VERTEX
  8
0
  5
271B5
 10
5.00000
 20
41.7280
 30
-9.27750e-15
  70
    32
  0
VERTEX
  8
0
  5
271B6
 10
5.00000
 20
40.2427
 30
-8.94709e-15
  70
    32
  0
VERTEX
  8
0
  5
271B7
 10
5.00000
 20
38.7578
 30
-8.61677e-15
  70
    32
  0
VERTEX
  8
0
  5
271B8
 10
5.00000
 20
37.2735
 30
-8.28653e-15
  70
    32
  0
VERTEX
  8
0
  5
271B9
 10
5.00000
 20
35.7896
 30
-7.95638e-15
  70
    32
  0
VERTEX
  8
0
  5
271BA
 10
5.00000
 20
34.3063
 30
-7.62631e-15
  70
    32
  0
VERTEX
  8
0
  5
271BB
 10
5.00000
 20
32.8235
 30
-7.29634e-15
  70
    32
  0
VERTEX
  8
0
  5
271BC
 10
5.00000
 20
31.3411
 30
-6.96645e-15
  70
    32
  0
VERTEX
  8
0
  5
271BD
 10
5.00000
 20
29.8593
 30
-6.63665e-15
  70
    32
  0
VERTEX
  8
0
  5
271BE
 10
5.00000
 20
28.3779
 30
-6.30693e-15
  70
    32
  0
VERTEX
  8
0
  5
271BF
 10
5.00000
 20
26.8971
 30
-5.97730e-15
  70
    32
  0
VERTEX
  8
0
  5
271C0
 10
5.00000
 20
25.4167
 30
-5.64776e-15
  70
    32
  0
VERTEX
  8
0
  5
271C1
 10
5.00000
 20
23.9368
 30
-5.31830e-15
  70
    32
  0
VERTEX
  8
0
  5
271C2
 10
5.00000
 20
22.4575
 30
-4.98894e-15
  70
    32
  0
VERTEX
  8
0
  5
271C3
 10
5.00000
 20
20.9786
 30
-4.65965e-15
  70
    32
  0
VERTEX
  8
0
  5
271C4
 10
5.00000
 20
19.5002
 30
-4.33046e-15
  70
    32
  0
VERTEX
  8
0
  5
271C5
 10
5.00000
 20
18.0224
 30
-4.00135e-15
  70
    32
  0
VERTEX
  8
0
  5
271C6
 10
5.00000
 20
16.5450
 30
-3.67233e-15
  70
    32
  0
VERTEX
  8
0
  5
271C7
 10
5.00000
 20
15.0681
 30
-3.34339e-15
  70
    32
  0
VERTEX
  8
0
  5
271C8
 10
5.00000
 20
13.5917
 30
-3.01454e-15
  70
    32
  0
VERTEX
  8
0
  5
271C9
 10
5.00000
 20
12.1158
 30
-2.68578e-15
  70
    32
  0
VERTEX
  8
0
  5
271CA
 10
5.00000
 20
10.6404
 30
-2.35710e-15
  70
    32
  0
VERTEX
  8
0
  5
271CB
 10
5.00000
 20
9.16550
 30
-2.02851e-15
  70
    32
  0
VERTEX
  8
0
  5
271CC
 10
5.00000
 20
7.69109
 30
-1.70000e-15
  70
    32
  0
SEQEND
  8
0
  5
271CD
  0
POLYLINE
  8
0
  5
271CE
  62
1
  66
     1
 10
0.000000
 20
0.000000
 30
0.000000
  70
     8
  0
VERTEX
  8
0
  5
271CF
 10
5.00000
 20
7.69109
 30
-1.70000e-15
  70
    32
  0
VERTEX
  8
0
  5
271D0
 10
5.00000
 20
7.66189
 30
-1.69368e-15
  70
    32
  0
VERTEX
  8
0
  5
271D1
 10
5.00000
 20
7.63271
 30
-1.68736e-15
  70
    32
  0
VERTEX
  8
0
  5
271D2
 10
5.00000
 20
7.60355
 30
-1.68104e-15
  70
    32
  0
VERTEX
  8
0
  5
271D3
 10
5.00000
 20
7.57441
 30
-1.67473e-15
  70
    32
  0
VERTEX
  8
0
  5
271D4
 10
5.00000
 20
7.54529
 30
-1.66841e-15
  70
    32
  0
VERTEX
  8
0
  5
271D5
 10
5.00000
 20
7.51619
 30
-1.66209e-15
  70
    32
  0
VERTEX
  8
0
  5
271D6
 10
5.00000
 20
7.48711
 30
-1.65577e-15
  70
    32
  0
VERTEX
  8
0
  5
271D7
 10
5.00000
 20
7.45805
 30
-1.64946e-15
  70
    32
  0
VERTEX
  8
0
  5
271D8
 10
5.00000
 20
7.42900
 30
-1.64314e-15
  70
    32
  0
VERTEX
  8
0
  5
271D9
 10
5.00000
 20
7.39998
 30
-1.63682e-15
  70
    32
  0
VERTEX
  8
0
  5
271DA
 10
5.00000
 20
7.37097
 30
-1.63050e-15
  70
    32
  0
VERTEX
  8
0
  5
271DB
 10
5.00000
 20
7.34198
 30
-1.62419e-15
  70
    32
  0
VERTEX
  8
0
  5
271DC
 10
5.00000
 20
7.31301
 30
-1.61787e-15
  70
    32
  0
VERTEX
  8
0
  5
271DD
 10
5.00000
 20
7.28406
 30
-1.61155e-15
  70
    32
  0
VERTEX
  8
0
  5
271DE
 10
5.00000
 20
7.25513
 30
-1.60524e-15
  70
    32
  0
VERTEX
  8
0
  5
271DF
 10
5.00000
 20
7.22622
 30
-1.59892e-15
  70
    32
  0
VERTEX
  8
0
  5
271E0
 10
5.00000
 20
7.19733
 30
-1.59261e-15
  70
    32
  0
VERTEX
  8
0
  5
271E1
 10
5.00000
 20
7.16845
 30
-1.58629e-15
  70
    32
  0
VERTEX
  8
0
  5
271E2
 10
5.00000
 20
7.13959
 30
-1.57997e-15
  70
    32
  0
VERTEX
  8
0
  5
271E3
 10
5.00000
 20
7.11076
 30
-1.57366e-15
  70
    32
  0
VERTEX
  8
0
  5
271E4
 10
5.00000
 20
7.08194
 30
-1.56734e-15
  70
    32
  0
VERTEX
  8
0
  5
271E5
 10
5.00000
 20
7.05314
 30
-1.56103e-15
  70
    32
  0
VERTEX
  8
0
  5
271E6
 10
5.00000
 20
7.02436
 30
-1.55471e-15
  70
    32
  0
VERTEX
  8
0
  5
271E7
 10
5.00000
 20
6.99559
 30
-1.54840e-15
  70
    32
  0
VERTEX
  8
0
  5
271E8
 10
5.00000
 20
6.96685
 30
-1.54208e-15
  70
    32
  0
VERTEX
  8
0
  5
271E9
 10
5.00000
 20
6.93812
 30
-1.53576e-15
  70
    32
  0
VERTEX
  8
0
  5
271EA
 10
5.00000
 20
6.90942
 30
-1.52945e-15
  70
    32
  0
VERTEX
  8
0
  5
271EB
 10
5.00000
 20
6.88073
 30
-1.52313e-15
  70
    32
  0
VERTEX
  8
0
  5
271EC
 10
5.00000
 20
6.85206
 30
-1.51682e-15
  70
    32
  0
VERTEX
  8
0
  5
271ED
 10
5.00000
 20
6.82341
 30
-1.51050e-15
  70
    32
  0
VERTEX
  8
0
  5
271EE
 10
5.00000
 20
6.79477
 30
-1.50419e-15
  70
    32
  0
VERTEX
  8
0
  5
271EF
 10
5.00000
 20
6.76616
 30
-1.49787e-15
  70
    32
  0
VERTEX
  8
0
  5
271F0
 10
5.00000
 20
6.73756
 30
-1.49156e-15
  70
    32
  0
VERTEX
  8
0
  5
271F1
 10
5.00000
 20
6.70899
 30
-1.48525e-15
  70
    32
  0
VERTEX
  8
0
  5
271F2
 10
5.00000
 20
6.68043
 30
-1.47893e-15
  70
    32
  0
VERTEX
  8
0
  5
271F3
 10
5.00000
 20
6.65189
 30
-1.47262e-15
  70
    32
  0
VERTEX
  8
0
  5
271F4
 10
5.00000
 20
6.62336
 30
-1.46630e-15
  70
    32
  0
VERTEX
  8
0
  5
271F5
 10
5.00000
 20
6.59486
 30
-1.45999e-15
  70
    32
  0
VERTEX
  8
0
  5
271F6
 10
5.00000
 20
6.56637
 30
-1.45367e-15
  70
    32
  0
VERTEX
  8
0
  5
271F7
 10
5.00000
 20
6.53791
 30
-1.44736e-15
  70
    32
  0
VERTEX
  8
0
  5
271F8
 10
5.00000
 20
6.50946
 30
-1.44104e-15
  70
    32
  0
VERTEX
  8
0
  5
271F9
 10
5.00000
 20
6.48103
 30
-1.43473e-15
  70
    32
  0
VERTEX
  8
0
  5
271FA
 10
5.00000
 20
6.45262
 30
-1.42841e-15
  70
    32
  0
VERTEX
  8
0
  5
271FB
 10
5.00000
 20
6.42422
 30
-1.42210e-15
  70
    32
  0
VERTEX
  8
0
  5
271FC
 10
5.00000
 20
6.39585
 30
-1.41579e-15
  70
    32
  0
VERTEX
  8
0
  5
271FD
 10
5.00000
 20
6.36749
 30
-1.40947e-15
  70
    32
  0
VERTEX
  8
0
  5
271FE
 10
5.00000
 20
6.33915
 30
-1.40316e-15
  70
    32
  0
VERTEX
  8
0
  5
271FF
 10
5.00000
 20
6.31083
 30
-1.39684e-15
  70
    32
  0
VERTEX
  8
0
  5
27200
 10
5.00000
 20
6.28253
 30
-1.39053e-15
  70
    32
  0
VERTEX
  8
0
  5
27201
 10
5.00000
 20
6.25424
 30
-1.38421e-15
  70
    32
  0
VERTEX
  8
0
  5
27202
 10
5.00000
 20
6.22598
 30
-1.37790e-15
  70
    32
  0
VERTEX
  8
0
  5
27203
 10
5.00000
 20
6.19773
 30
-1.37159e-15
  70
    32
  0
VERTEX
  8
0
  5
27204
 10
5.00000
 20
6.16950
 30
-1.36527e-15
  70
    32
  0
VERTEX
  8
0
  5
27205
 10
5.00000
 20
6.14129
 30
-1.35896e-15
  70
    32
  0
VERTEX
  8
0
  5
27206
 10
5.00000
 20
6.11309
 30
-1.35264e-15
  70
    32
  0
VERTEX
  8
0
  5
27207
 10
5.00000
 20
6.08492
 30
-1.34633e-15
  70
    32
  0
VERTEX
  8
0
  5
27208
 10
5.00000
 20
6.05676
 30
-1.34001e-15
  70
    32
  0
VERTEX
  8
0
  5
27209
 10
5.00000
 20
6.02862
 30
-1.33370e-15
  70
    32
  0
VERTEX
  8
0
  5
2720A
 10
5.00000
 20
6.00050
 30
-1.32738e-15
  70
    32
  0
VERTEX
  8
0
  5
2720B
 10
5.00000
 20
5.97240
 30
-1.32107e-15
  70
    32
  0
VERTEX
  8
0
  5
2720C
 10
5.00000
 20
5.94431
 30
-1.31475e-15
  70
    32
  0
VERTEX
  8
0
  5
2720D
 10
5.00000
 20
5.91624
 30
-1.30844e-15
  70
    32
  0
VERTEX
  8
0
  5
2720E
 10
5.00000
 20
5.88819
 30
-1.30213e-15
  70
    32
  0
VERTEX
  8
0
  5
2720F
 10
5.00000
 20
5.86016
 30
-1.29581e-15
  70
    32
  0
VERTEX
  8
0
  5
27210
 10
5.00000
 20
5.83215
 30
-1.28950e-15
  70
    32
  0
VERTEX
  8
0
  5
27211
 10
5.00000
 20
5.80415
 30
-1.28318e-15
  70
    32
  0
VERTEX
  8
0
  5
27212
 10
5.00000
 20
5.77618
 30
-1.27687e-15
  70
    32
  0
VERTEX
  8
0
  5
27213
 10
5.00000
 20
5.74822
 30
-1.27055e-15
  70
    32
  0
VERTEX
  8
0
  5
27214
 10
5.00000
 20
5.72027
 30
-1.26424e-15
  70
    32
  0
VERTEX
  8
0
  5
27215
 10
5.00000
 20
5.69235
 30
-1.25792e-15
  70
    32
  0
VERTEX
  8
0
  5
27216
 10
5.00000
 20
5.66444
 30
-1.25160e-15
  70
    32
  0
VERTEX
  8
0
  5
27217
 10
5.00000
 20
5.63656
 30
-1.24529e-15
  70
    32
  0
VERTEX
  8
0
  5
27218
 10
5.00000
 20
5.60869
 30
-1.23897e-15
  70
    32
  0
VERTEX
  8
0
  5
27219
 10
5.00000
 20
5.58083
 30
-1.23266e-15
  70
    32
  0
VERTEX
  8
0
  5
2721A
 10
5.00000
 20
5.55300
 30
-1.22634e-15
  70
    32
  0
VERTEX
  8
0
  5
2721B
 10
5.00000
 20
5.52518
 30
-1.22003e-15
  70
    32
  0
VERTEX
  8
0
  5
2721C
 10
5.00000
 20
5.49738
 30
-1.21371e-15
  70
    32
  0
VERTEX
  8
0
  5
2721D
 10
5.00000
 20
5.46960
 30
-1.20739e-15
  70
    32
  0
VERTEX
  8
0
  5
2721E
 10
5.00000
 20
5.44183
 30
-1.20108e-15
  70
    32
  0
VERTEX
  8
0
  5
2721F
 10
5.00000
 20
5.41409
 30
-1.19476e-15
  70
    32
  0
VERTEX
  8
0
  5
27220
 10
5.00000
 20
5.38636
 30
-1.18845e-15
  70
    32
  0
VERTEX
  8
0
  5
27221
 10
5.00000
 20
5.35865
 30
-1.18213e-15
  70
    32
  0
VERTEX
  8
0
  5
27222
 10
5.00000
 20
5.33095
 30
-1.17581e-15
  70
    32
  0
VERTEX
  8
0
  5
27223
 10
5.00000
 20
5.30328
 30
-1.16950e-15
  70
    32
  0
VERTEX
  8
0
  5
27224
 10
5.00000
 20
5.27562
 30
-1.16318e-15
  70
    32
  0
VERTEX
  8
0
  5
27225
 10
5.00000
 20
5.24798
 30
-1.15686e-15
  70
    32
  0
VERTEX
  8
0
  5
27226
 10
5.00000
 20
5.22036
 30
-1.15054e-15
  70
    32
  0
VERTEX
  8
0
  5
27227
 10
5.00000
 20
5.19275
 30
-1.14423e-15
  70
    32
  0
VERTEX
  8
0
  5
27228
 10
5.00000
 20
5.16516
 30
-1.13791e-15
  70
    32
  0
VERTEX
  8
0
  5
27229
 10
5.00000
 20
5.13759
 30
-1.13159e-15
  70
    32
  0
VERTEX
  8
0
  5
2722A
 10
5.00000
 20
5.11004
 30
-1.12527e-15
  70
    32
  0
VERTEX
  8
0
  5
2722B
 10
5.00000
 20
5.08250
 30
-1.11896e-15
  70
    32
  0
VERTEX
  8
0
  5
2722C
 10
5.00000
 20
5.05498
 30
-1.11264e-15
  70
    32
  0
VERTEX
  8
0
  5
2722D
 10
5.00000
 20
5.02748
 30
-1.10632e-15
  70
    32
  0
VERTEX
  8
0
  5
2722E
 10
5.00000
 20
5.00000
 30
-1.10000e-15
  70
    32
  0
SEQEND
  8
0
  5
2722F
  0
POLYLINE
  8
0
  5
27230
  62
1
  66
     1
 10
0.000000
 20
0.000000
 30
0.000000
  70
     8
  0
VERTEX
  8
0
  5
27231
 10
-5.00000
 20
7.69109
 30
-1.70000e-15
  70
    32
  0
VERTEX
  8
0
  5
27232
 10
-5.00000
 20
9.16550
 30
-2.02851e-15
  70
    32
  0
VERTEX
  8
0
  5
27233
 10
-5.00000
 20
10.6404
 30
-2.35710e-15
  70
    32
  0
VERTEX
  8
0
  5
27234
 10
-5.00000
 20
12.1158
 30
-2.68578e-15
  70
    32
  0
VERTEX
  8
0
  5
27235
 10
-5.00000
 20
13.5917
 30
-3.01454e-15
  70
    32
  0
VERTEX
  8
0
  5
27236
 10
-5.00000
 20
15.0681
 30
-3.34339e-15
  70
    32
  0
VERTEX
  8
0
  5
27237
 10
-5.00000
 20
16.5450
 30
-3.67233e-15
  70
    32
  0
VERTEX
  8
0
  5
27238
 10
-5.00000
 20
18.0224
 30
-4.00135e-15
  70
    32
  0
VERTEX
  8
0
  5
27239
 10
-5.00000
 20
19.5002
 30
-4.33046e-15
  70
    32
  0
VERTEX
  8
0
  5
2723A
 10
-5.00000
 20
20.9786
 30
-4.65965e-15
  70
    32
  0
VERTEX
  8
0
  5
2723B
 10
-5.00000
 20
22.4575
 30
-4.98894e-15
  70
    32
  0
VERTEX
  8
0
  5
2723C
 10
-5.00000
 20
23.9368
 30
-5.31830e-15
  70
    32
  0
VERTEX
  8
0
  5
2723D
 10
-5.00000
 20
25.4167
 30
-5.64776e-15
  70
    32
  0
VERTEX
  8
0
  5
2723E
 10
-5.00000
 20
26.8971
 30
-5.97730e-15
  70
    32
  0
VERTEX
  8
0
  5
2723F
 10
-5.00000
 20
28.3779
 30
-6.30693e-15
  70
    32
  0
VERTEX
  8
0
  5
27240
 10
-5.00000
 20
29.8593
 30
-6.63665e-15
  70
    32
  0
VERTEX
  8
0
  5
27241
 10
-5.00000
 20
31.3411
 30
-6.96645e-15
  70
    32
  0
VERTEX
  8
0
  5
27242
 10
-5.00000
 20
32.8235
 30
-7.29634e-15
  70
    32
  0
VERTEX
  8
0
  5
27243
 10
-5.00000
 20
34.3063
 30
-7.62631e-15
  70
    32
  0
VERTEX
  8
0
  5
27244
 10
-5.00000
 20
35.7896
 30
-7.95638e-15
  70
    32
  0
VERTEX
  8
0
  5
27245
 10
-5.00000
 20
37.2735
 30
-8.28653e-15
  70
    32
  0
VERTEX
  8
0
  5
27246
 10
-5.00000
 20
38.7578
 30
-8.61677e-15
  70
    32
  0
VERTEX
  8
0
  5
27247
 10
-5.00000
 20
40.2427
 30
-8.94709e-15
  70
    32
  0
VERTEX
  8
0
  5
27248
 10
-5.00000
 20
41.7280
 30
-9.27750e-15
  70
    32
  0
VERTEX
  8
0
  5
27249
 10
-5.00000
 20
43.2138
 30
-9.60800e-15
  70
    32
  0
VERTEX
  8
0
  5
2724A
 10
-5.00000
 20
44.7002
 30
-9.93859e-15
  70
    32
  0
VERTEX
  8
0
  5
2724B
 10
-5.00000
 20
46.1870
 30
-1.02693e-14
  70
    32
  0
VERTEX
  8
0
  5
2724C
 10
-5.00000
 20
47.6743
 30
-1.06000e-14
  70
    32
  0
VERTEX
  8
0
  5
2724D
 10
-5.00000
 20
49.1622
 30
-1.09309e-14
  70
    32
  0
VERTEX
  8
0
  5
2724E
 10
-5.00000
 20
50.6505
 30
-1.12618e-14
  70
    32
  0
VERTEX
  8
0
  5
2724F
 10
-5.00000
 20
52.1393
 30
-1.15928e-14
  70
    32
  0
VERTEX
  8
0
  5
27250
 10
-5.00000
 20
53.6287
 30
-1.19239e-14
  70
    32
  0
VERTEX
  8
0
  5
27251
 10
-5.00000
 20
55.1185
 30
-1.22551e-14
  70
    32
  0
VERTEX
  8
0
  5
27252
 10
-5.00000
 20
56.6089
 30
-1.25864e-14
  70
    32
  0
VERTEX
  8
0
  5
27253
 10
-5.00000
 20
58.0997
 30
-1.29178e-14
  70
    32
  0
VERTEX
  8
0
  5
27254
 10
-5.00000
 20
59.5910
 30
-1.32493e-14
  70
    32
  0
VERTEX
  8
0
  5
27255
 10
-5.00000
 20
61.0829
 30
-1.35808e-14
  70
    32
  0
VERTEX
  8
0
  5
27256
 10
-5.00000
 20
62.5752
 30
-1.39125e-14
  70
    32
  0
VERTEX
  8
0
  5
27257
 10
-5.00000
 20
64.0681
 30
-1.42442e-14
  70
    32
  0
VERTEX
  8
0
  5
27258
 10
-5.00000
 20
65.5614
 30
-1.45760e-14
  70
    32
  0
VERTEX
  8
0
  5
27259
 10
-5.00000
 20
67.0553
 30
-1.49079e-14
  70
    32
  0
VERTEX
  8
0
  5
2725A
 10
-5.00000
 20
68.5497
 30
-1.52399e-14
  70
    32
  0
VERTEX
  8
0
  5
2725B
 10
-5.00000
 20
70.0445
 30
-1.55720e-14
  70
    32
  0
VERTEX
  8
0
  5
2725C
 10
-5.00000
 20
71.5399
 30
-1.59041e-14
  70
    32
  0
VERTEX
  8
0
  5
2725D
 10
-5.00000
 20
73.0358
 30
-1.62364e-14
  70
    32
  0
VERTEX
  8
0
  5
2725E
 10
-5.00000
 20
74.5321
 30
-1.65687e-14
  70
    32
  0
VERTEX
  8
0
  5
2725F
 10
-5.00000
 20
76.0290
 30
-1.69012e-14
  70
    32
  0
VERTEX
  8
0
  5
27260
 10
-5.00000
 20
77.5264
 30
-1.72337e-14
  70
    32
  0
VERTEX
  8
0
  5
27261
 10
-5.00000
 20
79.0243
 30
-1.75663e-14
  70
    32
  0
VERTEX
  8
0
  5
27262
 10
-5.00000
 20
80.5227
 30
-1.78990e-14
  70
    32
  0
VERTEX
  8
0
  5
27263
 10
-5.00000
 20
82.0216
 30
-1.82318e-14
  70
    32
  0
VERTEX
  8
0
  5
27264
 10
-5.00000
 20
83.5210
 30
-1.85647e-14
  70
    32
  0
VERTEX
  8
0
  5
27265
 10
-5.00000
 20
85.0209
 30
-1.88976e-14
  70
    32
  0
VERTEX
  8
0
  5
27266
 10
-5.00000
 20
86.5214
 30
-1.92307e-14
  70
    32
  0
VERTEX
  8
0
  5
27267
 10
-5.00000
 20
88.0223
 30
-1.95638e-14
  70
    32
  0
VERTEX
  8
0
  5
27268
 10
-5.00000
 20
89.5237
 30
-1.98971e-14
  70
    32
  0
VERTEX
  8
0
  5
27269
 10
-5.00000
 20
91.0257
 30
-2.02304e-14
  70
    32
  0
VERTEX
  8
0
  5
2726A
 10
-5.00000
 20
92.5281
 30
-2.05638e-14
  70
    32
  0
VERTEX
  8
0
  5
2726B
 10
-5.00000
 20
94.0311
 30
-2.08973e-14
  70
    32
  0
VERTEX
  8
0
  5
2726C
 10
-5.00000
 20
95.5346
 30
-2.12309e-14
  70
    32
  0
VERTEX
  8
0
  5
2726D
 10
-5.00000
 20
97.0385
 30
-2.15646e-14
  70
    32
  0
VERTEX
  8
0
  5
2726E
 10
-5.00000
 20
98.5430
 30
-2.18983e-14
  70
    32
  0
VERTEX
  8
0
  5
2726F
 10
-5.00000
 20
100.048
 30
-2.22322e-14
  70
    32
  0
VERTEX
  8
0
  5
27270
 10
-5.00000
 20
101.554
 30
-2.25661e-14
  70
    32
  0
VERTEX
  8
0
  5
27271
 10
-5.00000
 20
103.060
 30
-2.29002e-14
  70
    32
  0
VERTEX
  8
0
  5
27272
 10
-5.00000
 20
104.566
 30
-2.32343e-14
  70
    32
  0
VERTEX
  8
0
  5
27273
 10
-5.00000
 20
106.073
 30
-2.35685e-14
  70
    32
  0
VERTEX
  8
0
  5
27274
 10
-5.00000
 20
107.581
 30
-2.39028e-14
  70
    32
  0
VERTEX
  8
0
  5
27275
 10
-5.00000
 20
109.089
 30
-2.42372e-14
  70
    32
  0
VERTEX
  8
0
  5
27276
 10
-5.00000
 20
110.597
 30
-2.45717e-14
  70
    32
  0
VERTEX
  8
0
  5
27277
 10
-5.00000
 20
112.106
 30
-2.49063e-14
  70
    32
  0
VERTEX
  8
0
  5
27278
 10
-5.00000
 20
113.616
 30
-2.52409e-14
  70
    32
  0
VERTEX
  8
0
  5
27279
 10
-5.00000
 20
115.126
 30
-2.55757e-14
  70
    32
  0
VERTEX
  8
0
  5
2727A
 10
-5.00000
 20
116.637
 30
-2.59105e-14
  70
    32
  0
VERTEX
  8
0
  5
2727B
 10
-5.00000
 20
118.148
 30
-2.62455e-14
  70
    32
  0
VERTEX
  8
0
  5
2727C
 10
-5.00000
 20
119.659
 30
-2.65805e-14
  70
    32
  0
VERTEX
  8
0
  5
2727D
 10
-5.00000
 20
121.172
 30
-2.69156e-14
  70
    32
  0
VERTEX
  8
0
  5
2727E
 10
-5.00000
 20
122.684
 30
-2.72508e-14
  70
    32
  0
VERTEX
  8
0
  5
2727F
 10
-5.00000
 20
124.197
 30
-2.75861e-14
  70
    32
  0
VERTEX
  8
0
  5
27280
 10
-5.00000
 20
125.711
 30
-2.79215e-14
  70
    32
  0
VERTEX
  8
0
  5
27281
 10
-5.00000
 20
127.225
 30
-2.82570e-14
  70
    32
  0
VERTEX
  8
0
  5
27282
 10
-5.00000
 20
128.740
 30
-2.85925e-14
  70
    32
  0
VERTEX
  8
0
  5
27283
 10
-5.00000
 20
130.255
 30
-2.89282e-14
  70
    32
  0
VERTEX
  8
0
  5
27284
 10
-5.00000
 20
131.771
 30
-2.92639e-14
  70
    32
  0
VERTEX
  8
0
  5
27285
 10
-5.00000
 20
133.287
 30
-2.95998e-14
  70
    32
  0
VERTEX
  8
0
  5
27286
 10
-5.00000
 20
134.804
 30
-2.99357e-14
  70
    32
  0
VERTEX
  8
0
  5
27287
 10
-5.00000
 20
136.321
 30
-3.02717e-14
  70
    32
  0
VERTEX
  8
0
  5
27288
 10
-5.00000
 20
137.839
 30
-3.06078e-14
  70
    32
  0
VERTEX
  8
0
  5
27289
 10
-5.00000
 20
139.357
 30
-3.09440e-14
  70
    32
  0
VERTEX
  8
0
  5
2728A
 10
-5.00000
 20
140.876
 30
-3.12803e-14
  70
    32
  0
VERTEX
  8
0
  5
2728B
 10
-5.00000
 20
142.396
 30
-3.16167e-14
  70
    32
  0
VERTEX
  8
0
  5
2728C
 10
-5.00000
 20
143.915
 30
-3.19532e-14
  70
    32
  0
VERTEX
  8
0
  5
2728D
 10
-5.00000
 20
145.436
 30
-3.22898e-14
  70
    32
  0
VERTEX
  8
0
  5
2728E
 10
-5.00000
 20
146.957
 30
-3.26264e-14
  70
    32
  0
VERTEX
  8
0
  5
2728F
 10
-5.00000
 20
148.478
 30
-3.29632e-14
  70
    32
  0
VERTEX
  8
0
  5
27290
 10
-5.00000
 20
150.000
 30
-3.33000e-14
  70
    32
  0
SEQEND
  8
0
  5
27291
  0
POLYLINE
  8
0
  5
27292
  62
1
  66
     1
 10
0.000000
 20
0.000000
 30
0.000000
  70
     8
  0
VERTEX
  8
0
  5
27293
 10
-5.00000
 20
5.00000
 30
-1.10000e-15
  70
    32
  0
VERTEX
  8
0
  5
27294
 10
-5.00000
 20
5.02748
 30
-1.10632e-15
  70
    32
  0
VERTEX
  8
0
  5
27295
 10
-5.00000
 20
5.05498
 30
-1.11264e-15
  70
    32
  0
VERTEX
  8
0
  5
27296
 10
-5.00000
 20
5.08250
 30
-1.11896e-15
  70
    32
  0
VERTEX
  8
0
  5
27297
 10
-5.00000
 20
5.11004
 30
-1.12527e-15
  70
    32
  0
VERTEX
  8
0
  5
27298
 10
-5.00000
 20
5.13759
 30
-1.13159e-15
  70
    32
  0
VERTEX
  8
0
  5
27299
 10
-5.00000
 20
5.16516
 30
-1.13791e-15
  70
    32
  0
VERTEX
  8
0
  5
2729A
 10
-5.00000
 20
5.19275
 30
-1.14423e-15
  70
    32
  0
VERTEX
  8
0
  5
2729B
 10
-5.00000
 20
5.22036
 30
-1.15054e-15
  70
    32
  0
VERTEX
  8
0
  5
2729C
 10
-5.00000
 20
5.24798
 30
-1.15686e-15
  70
    32
  0
VERTEX
  8
0
  5
2729D
 10
-5.00000
 20
5.27562
 30
-1.16318e-15
  70
    32
  0
VERTEX
  8
0
  5
2729E
 10
-5.00000
 20
5.30328
 30
-1.16950e-15
  70
    32
  0
VERTEX
  8
0
  5
2729F
 10
-5.00000
 20
5.33095
 30
-1.17581e-15
  70
    32
  0
VERTEX
  8
0
  5
272A0
 10
-5.00000
 20
5.35865
 30
-1.18213e-15
  70
    32
  0
VERTEX
  8
0
  5
272A1
 10
-5.00000
 20
5.38636
 30
-1.18845e-15
  70
    32
  0
VERTEX
  8
0
  5
272A2
 10
-5.00000
 20
5.41409
 30
-1.19476e-15
  70
    32
  0
VERTEX
  8
0
  5
272A3
 10
-5.00000
 20
5.44183
 30
-1.20108e-15
  70
    32
  0
VERTEX
  8
0
  5
272A4
 10
-5.00000
 20
5.46960
 30
-1.20739e-15
  70
    32
  0
VERTEX
  8
0
  5
272A5
 10
-5.00000
 20
5.49738
 30
-1.21371e-15
  70
    32
  0
VERTEX
  8
0
  5
272A6
 10
-5.00000
 20
5.52518
 30
-1.22003e-15
  70
    32
  0
VERTEX
  8
0
  5
272A7
 10
-5.00000
 20
5.55300
 30
-1.22634e-15
  70
    32
  0
VERTEX
  8
0
  5
272A8
 10
-5.00000
 20
5.58083
 30
-1.23266e-15
  70
    32
  0
VERTEX
  8
0
  5
272A9
 10
-5.00000
 20
5.60869
 30
-1.23897e-15
  70
    32
  0
VERTEX
  8
0
  5
272AA
 10
-5.00000
 20
5.63656
 30
-1.24529e-15
  70
    32
  0
VERTEX
  8
0
  5
272AB
 10
-5.00000
 20
5.66444
 30
-1.25160e-15
  70
    32
  0
VERTEX
  8
0
  5
272AC
 10
-5.00000
 20
5.69235
 30
-1.25792e-15
  70
    32
  0
VERTEX
  8
0
  5
272AD
 10
-5.00000
 20
5.72027
 30
-1.26424e-15
  70
    32
  0
VERTEX
  8
0
  5
272AE
 10
-5.00000
 20
5.74822
 30
-1.27055e-15
  70
    32
  0
VERTEX
  8
0
  5
272AF
 10
-5.00000
 20
5.77618
 30
-1.27687e-15
  70
    32
  0
VERTEX
  8
0
  5
272B0
 10
-5.00000
 20
5.80415
 30
-1.28318e-15
  70
    32
  0
VERTEX
  8
0
  5
272B1
 10
-5.00000
 20
5.83215
 30
-1.28950e-15
  70
    32
  0
VERTEX
  8
0
  5
272B2
 10
-5.00000
 20
5.86016
 30
-1.29581e-15
  70
    32
  0
VERTEX
  8
0
  5
272B3
 10
-5.00000
 20
5.88819
 30
-1.30213e-15
  70
    32
  0
VERTEX
  8
0
  5
272B4
 10
-5.00000
 20
5.91624
 30
-1.30844e-15
  70
    32
  0
VERTEX
  8
0
  5
272B5
 10
-5.00000
 20
5.94431
 30
-1.31475e-15
  70
    32
  0
VERTEX
  8
0
  5
272B6
 10
-5.00000
 20
5.97240
 30
-1.32107e-15
  70
    32
  0
VERTEX
  8
0
  5
272B7
 10
-5.00000
 20
6.00050
 30
-1.32738e-15
  70
    32
  0
VERTEX
  8
0
  5
272B8
 10
-5.00000
 20
6.02862
 30
-1.33370e-15
  70
    32
  0
VERTEX
  8
0
  5
272B9
 10
-5.00000
 20
6.05676
 30
-1.34001e-15
  70
    32
  0
VERTEX
  8
0
  5
272BA
 10
-5.00000
 20
6.08492
 30
-1.34633e-15
  70
    32
  0
VERTEX
  8
0
  5
272BB
 10
-5.00000
 20
6.11309
 30
-1.35264e-15
  70
    32
  0
VERTEX
  8
0
  5
272BC
 10
-5.00000
 20
6.14129
 30
-1.35896e-15
  70
    32
  0
VERTEX
  8
0
  5
272BD
 10
-5.00000
 20
6.16950
 30
-1.36527e-15
  70
    32
  0
VERTEX
  8
0
  5
272BE
 10
-5.00000
 20
6.19773
 30
-1.37159e-15
  70
    32
  0
VERTEX
  8
0
  5
272BF
 10
-5.00000
 20
6.22598
 30
-1.37790e-15
  70
    32
  0
VERTEX
  8
0
  5
272C0
 10
-5.00000
 20
6.25424
 30
-1.38421e-15
  70
    32
  0
VERTEX
  8
0
  5
272C1
 10
-5.00000
 20
6.28253
 30
-1.39053e-15
  70
    32
  0
VERTEX
  8
0
  5
272C2
 10
-5.00000
 20
6.31083
 30
-1.39684e-15
  70
    32
  0
VERTEX
  8
0
  5
272C3
 10
-5.00000
 20
6.33915
 30
-1.40316e-15
  70
    32
  0
VERTEX
  8
0
  5
272C4
 10
-5.00000
 20
6.36749
 30
-1.40947e-15
  70
    32
  0
VERTEX
  8
0
  5
272C5
 10
-5.00000
 20
6.39585
 30
-1.41579e-15
  70
    32
  0
VERTEX
  8
0
  5
272C6
 10
-5.00000
 20
6.42422
 30
-1.42210e-15
  70
    32
  0
VERTEX
  8
0
  5
272C7
 10
-5.00000
 20
6.45262
 30
-1.42841e-15
  70
    32
  0
VERTEX
  8
0
  5
272C8
 10
-5.00000
 20
6.48103
 30
-1.43473e-15
  70
    32
  0
VERTEX
  8
0
  5
272C9
 10
-5.00000
 20
6.50946
 30
-1.44104e-15
  70
    32
  0
VERTEX
  8
0
  5
272CA
 10
-5.00000
 20
6.53791
 30
-1.44736e-15
  70
    32
  0
VERTEX
  8
0
  5
272CB
 10
-5.00000
 20
6.56637
 30
-1.45367e-15
  70
    32
  0
VERTEX
  8
0
  5
272CC
 10
-5.00000
 20
6.59486
 30
-1.45999e-15
  70
    32
  0
VERTEX
  8
0
  5
272CD
 10
-5.00000
 20
6.62336
 30
-1.46630e-15
  70
    32
  0
VERTEX
  8
0
  5
272CE
 10
-5.00000
 20
6.65189
 30
-1.47262e-15
  70
    32
  0
VERTEX
  8
0
  5
272CF
 10
-5.00000
 20
6.68043
 30
-1.47893e-15
  70
    32
  0
VERTEX
  8
0
  5
272D0
 10
-5.00000
 20
6.70899
 30
-1.48525e-15
  70
    32
  0
VERTEX
  8
0
  5
272D1
 10
-5.00000
 20
6.73756
 30
-1.49156e-15
  70
    32
  0
VERTEX
  8
0
  5
272D2
 10
-5.00000
 20
6.76616
 30
-1.49787e-15
  70
    32
  0
VERTEX
  8
0
  5
272D3
 10
-5.00000
 20
6.79477
 30
-1.50419e-15
  70
    32
  0
VERTEX
  8
0
  5
272D4
 10
-5.00000
 20
6.82341
 30
-1.51050e-15
  70
    32
  0
VERTEX
  8
0
  5
272D5
 10
-5.00000
 20
6.85206
 30
-1.51682e-15
  70
    32
  0
VERTEX
  8
0
  5
272D6
 10
-5.00000
 20
6.88073
 30
-1.52313e-15
  70
    32
  0
VERTEX
  8
0
  5
272D7
 10
-5.00000
 20
6.90942
 30
-1.52945e-15
  70
    32
  0
VERTEX
  8
0
  5
272D8
 10
-5.00000
 20
6.93812
 30
-1.53576e-15
  70
    32
  0
VERTEX
  8
0
  5
272D9
 10
-5.00000
 20
6.96685
 30
-1.54208e-15
  70
    32
  0
VERTEX
  8
0
  5
272DA
 10
-5.00000
 20
6.99559
 30
-1.54840e-15
  70
    32
  0
VERTEX
  8
0
  5
272DB
 10
-5.00000
 20
7.02436
 30
-1.55471e-15
  70
    32
  0
VERTEX
  8
0
  5
272DC
 10
-5.00000
 20
7.05314
 30
-1.56103e-15
  70
    32
  0
VERTEX
  8
0
  5
272DD
 10
-5.00000
 20
7.08194
 30
-1.56734e-15
  70
    32
  0
VERTEX
  8
0
  5
272DE
 10
-5.00000
 20
7.11076
 30
-1.57366e-15
  70
    32
  0
VERTEX
  8
0
  5
272DF
 10
-5.00000
 20
7.13959
 30
-1.57997e-15
  70
    32
  0
VERTEX
  8
0
  5
272E0
 10
-5.00000
 20
7.16845
 30
-1.58629e-15
  70
    32
  0
VERTEX
  8
0
  5
272E1
 10
-5.00000
 20
7.19733
 30
-1.59261e-15
  70
    32
  0
VERTEX
  8
0
  5
272E2
 10
-5.00000
 20
7.22622
 30
-1.59892e-15
  70
    32
  0
VERTEX
  8
0
  5
272E3
 10
-5.00000
 20
7.25513
 30
-1.60524e-15
  70
    32
  0
VERTEX
  8
0
  5
272E4
 10
-5.00000
 20
7.28406
 30
-1.61155e-15
  70
    32
  0
VERTEX
  8
0
  5
272E5
 10
-5.00000
 20
7.31301
 30
-1.61787e-15
  70
    32
  0
VERTEX
  8
0
  5
272E6
 10
-5.00000
 20
7.34198
 30
-1.62419e-15
  70
    32
  0
VERTEX
  8
0
  5
272E7
 10
-5.00000
 20
7.37097
 30
-1.63050e-15
  70
    32
  0
VERTEX
  8
0
  5
272E8
 10
-5.00000
 20
7.39998
 30
-1.63682e-15
  70
    32
  0
VERTEX
  8
0
  5
272E9
 10
-5.00000
 20
7.42900
 30
-1.64314e-15
  70
    32
  0
VERTEX
  8
0
  5
272EA
 10
-5.00000
 20
7.45805
 30
-1.64946e-15
  70
    32
  0
VERTEX
  8
0
  5
272EB
 10
-5.00000
 20
7.48711
 30
-1.65577e-15
  70
    32
  0
VERTEX
  8
0
  5
272EC
 10
-5.00000
 20
7.51619
 30
-1.66209e-15
  70
    32
  0
VERTEX
  8
0
  5
272ED
 10
-5.00000
 20
7.54529
 30
-1.66841e-15
  70
    32
  0
VERTEX
  8
0
  5
272EE
 10
-5.00000
 20
7.57441
 30
-1.67473e-15
  70
    32
  0
VERTEX
  8
0
  5
272EF
 10
-5.00000
 20
7.60355
 30
-1.68104e-15
  70
    32
  0
VERTEX
  8
0
  5
272F0
 10
-5.00000
 20
7.63271
 30
-1.68736e-15
  70
    32
  0
VERTEX
  8
0
  5
272F1
 10
-5.00000
 20
7.66189
 30
-1.69368e-15
  70
    32
  0
VERTEX
  8
0
  5
272F2
 10
-5.00000
 20
7.69109
 30
-1.70000e-15
  70
    32
  0
SEQEND
  8
0
  5
272F3
  0
LINE
  5
26D2D
  8
0
  6
VERDECKT
 62
     1
 10
38.7580889184183519
 20
7.691085580922306
 30
-0.0000000000000017
 11
-38.7580889184183519
 21
7.691085580922306
 31
-0.0000000000000017
210
0.0
220
1.0
230
-0.0000000000000002
  0
LINE
  5
26D2E
  8
0
  6
VERDECKT
 62
     1
 10
-4.9999999999999956
 20
158.0
 30
-0.0000000000000351
 11
-6.9999999999999991
 21
160.0
 31
-0.0000000000000355
210
0.0
220
1.0
230
-0.0000000000000002
  0
LINE
  5
26D2F
  8
0
  6
VERDECKT
 62
     1
 10
-73.0
 20
160.0
 30
-0.0000000000000355
 11
73.0
 21
160.0
 31
-0.0000000000000355
210
0.0
220
1.0
230
-0.0000000000000002
  0
LINE
  5
26D30
  8
0
  6
VERDECKT
 62
     1
 10
75.0
 20
158.0
 30
-0.0000000000000351
 11
-75.0
 21
158.0
 31
-0.0000000000000351
210
0.0
220
1.0
230
-0.0000000000000002
  0
LINE
  5
26D31
  8
0
  6
VERDECKT
 62
     1
 10
5.0000000000000044
 20
158.0
 30
-0.0000000000000351
 11
7.0000000000000053
 21
160.0
 31
-0.0000000000000355
210
0.0
220
1.0
230
-0.0000000000000002
  0
LINE
  5
26D32
  8
0
  6
VERDECKT
 62
     1
 10
-36.4999999999999574
 20
0.0
 30
0.0
 11
-36.4999999999999574
 21
5.0
 31
-0.0000000000000011
210
0.0
220
1.0
230
-0.0000000000000002
  0
LINE
  5
26D33
  8
0
  6
VERDECKT
 62
     1
 10
36.4999999999999574
 20
0.0
 30
0.0
 11
36.4999999999999574
 21
5.0
 31
-0.0000000000000011
210
0.0
220
1.0
230
-0.0000000000000002
  0
LINE
  5
26D34
  8
0
  6
VERDECKT
 62
     1
 10
-38.7580889184183519
 20
7.691085580922306
 30
-0.0000000000000017
 11
-40.0
 21
150.0
 31
-0.0000000000000333
210
0.0
220
1.0
230
-0.0000000000000002
  0
LINE
  5
26D35
  8
0
  6
VERDECKT
 62
     1
 10
38.7580889184183519
 20
7.691085580922306
 30
-0.0000000000000017
 11
40.0
 21
150.0
 31
-0.0000000000000333
210
0.0
220
1.0
230
-0.0000000000000002
  0
LINE
  5
26D36
  8
0
  6
VERDECKT
 62
     1
 10
-36.4999999999999716
 20
4.9999999999999956
 30
-0.0000000000000011
 11
-38.758088918418359
 21
7.6910855809222989
 31
-0.0000000000000017
210
0.0
220
1.0
230
-0.0000000000000002
  0
LINE
  5
26D37
  8
0
  6
VERDECKT
 62
     1
 10
36.4999999999999716
 20
4.9999999999999956
 30
-0.0000000000000011
 11
38.758088918418359
 21
7.6910855809222989
 31
-0.0000000000000017
210
0.0
220
1.0
230
-0.0000000000000002
  0
LINE
  5
26D38
  8
0
  6
VERDECKT
 62
     1
 10
-65.0000000000000142
 20
158.0
 30
-0.0000000000000351
 11
-67.0000000000000142
 21
160.0
 31
-0.0000000000000355
210
0.0
220
1.0
230
-0.0000000000000002
  0
LINE
  5
26D39
  8
0
  6
VERDECKT
 62
     1
 10
65.0000000000000142
 20
158.0
 30
-0.0000000000000351
 11
67.0000000000000142
 21
160.0
 31
-0.0000000000000355
210
0.0
220
1.0
230
-0.0000000000000002
  0
LINE
  5
26D3A
  8
0
  6
VERDECKT
 62
     1
 10
73.0
 20
160.0
 30
-0.0000000000000355
 11
75.0000000000000142
 21
158.0
 31
-0.0000000000000351
210
0.0
220
1.0
230
-0.0000000000000002
  0
LINE
  5
26D3B
  8
0
  6
VERDECKT
 62
     1
 10
-73.0
 20
160.0
 30
-0.0000000000000355
 11
-75.0000000000000142
 21
158.0
 31
-0.0000000000000351
210
0.0
220
1.0
230
-0.0000000000000002
  0
LINE
  5
26D3C
  8
0
  6
VERDECKT
 62
     1
 10
-65.0
 20
150.0
 30
-0.0000000000000333
 11
-65.0
 21
158.0
 31
-0.0000000000000351
210
0.0
220
1.0
230
-0.0000000000000002
  0
LINE
  5
26D3D
  8
0
  6
VERDECKT
 62
     1
 10
65.0
 20
150.0
 30
-0.0000000000000333
 11
65.0
 21
158.0
 31
-0.0000000000000351
210
0.0
220
1.0
230
-0.0000000000000002
  0
LINE
  5
26D3E
  8
0
  6
VERDECKT
 62
     1
 10
-75.0
 20
150.0
 30
-0.0000000000000333
 11
-75.0
 21
158.0
 31
-0.0000000000000351
210
0.0
220
1.0
230
-0.0000000000000002
  0
LINE
  5
26D3F
  8
0
  6
VERDECKT
 62
     1
 10
75.0
 20
150.0
 30
-0.0000000000000333
 11
75.0
 21
158.0
 31
-0.0000000000000351
210
0.0
220
1.0
230
-0.0000000000000002
  0
ENDBLK
  5
26D41
  8
0
  0
ENDSEC
  0
SECTION
  2
ENTITIES
  0
INSERT
  5
712A
  8
ADSK_ASSOC_ENTITY_BACKUPS
  2
*S0
 10
0.0
 20
0.0
 30
0.0
  0
INSERT
  5
26CED
  8
STEMPEL
  2
A$C92877371
 10
0.0
 20
-100.0
 30
0.0
  0
INSERT
  5
26D42
  8
STEMPEL
  2
A$CBB12F258
 10
0.0
 20
0.0
 30
0.0
  0
VIEWPORT
  5
7108
 67
     1
  8
0
 10
148.2499998907713916
 20
209.7499997995201113
 30
0.0
 40
794.741115970382225
 41
421.662371292679893
 68
     1
 69
     1
1001
ACAD
1000
MVIEW
1002
{
1070
    16
1010
0.0
1020
0.0
1030
0.0
1010
0.0
1020
0.0
1030
1.0
1040
0.0
1040
421.662371292679893
1040
148.2499998907713916
1040
209.7499997995201113
1040
50.0
1040
0.0
1040
0.0
1070
     0
1070
  1500
1070
     1
1070
     1
1070
     0
1070
     0
1070
     0
1070
     0
1040
0.0
1040
0.0
1040
0.0
1040
10.0
1040
10.0
1040
10.0
1040
10.0
1070
     0
1002
{
1002
}
1002
}
  0
ENDSEC
  0
EOF
