  0
SECTION
  2
HEADER
  9
$ACADVER
  1
AC1009
  9
$INSBASE
 10
0.0
 20
0.0
 30
0.0
  9
$EXTMIN
 10
-76.5000000000005684
 20
-126.5000000000000995
 30
-39.5640725268315308
  9
$EXTMAX
 10
677.6138105677944168
 20
776.0481425210833777
 30
419.78124606766238
  9
$LIMMIN
 10
0.0
 20
0.0
  9
$LIMMAX
 10
840.9999999999997726
 20
594.0
  9
$ORTHOMODE
 70
     1
  9
$REGENMODE
 70
     1
  9
$FILLMODE
 70
     1
  9
$QTEXTMODE
 70
     0
  9
$MIRRTEXT
 70
     1
  9
$DRAGMODE
 70
     2
  9
$LTSCALE
 40
10.0
  9
$OSMODE
 70
  1335
  9
$ATTMODE
 70
     1
  9
$TEXTSIZE
 40
3.5
  9
$TRACEWID
 40
1.0
  9
$TEXTSTYLE
  7
STANDARD
  9
$CLAYER
  8
STEMPEL
  9
$CELTYPE
  6
BYLAYER
  9
$CECOLOR
 62
   256
  9
$DIMSCALE
 40
1.0
  9
$DIMASZ
 40
3.5
  9
$DIMEXO
 40
1.0
  9
$DIMDLI
 40
7.0
  9
$DIMRND
 40
0.0
  9
$DIMDLE
 40
0.0
  9
$DIMEXE
 40
1.0
  9
$DIMTP
 40
0.0
  9
$DIMTM
 40
0.0
  9
$DIMTXT
 40
3.5
  9
$DIMCEN
 40
1.5
  9
$DIMTSZ
 40
0.0
  9
$DIMTOL
 70
     0
  9
$DIMLIM
 70
     0
  9
$DIMTIH
 70
     0
  9
$DIMTOH
 70
     0
  9
$DIMSE1
 70
     0
  9
$DIMSE2
 70
     0
  9
$DIMTAD
 70
     1
  9
$DIMZIN
 70
     8
  9
$DIMBLK
  1

  9
$DIMASO
 70
     1
  9
$DIMSHO
 70
     0
  9
$DIMPOST
  1

  9
$DIMAPOST
  1

  9
$DIMALT
 70
     0
  9
$DIMALTD
 70
     2
  9
$DIMALTF
 40
25.3999999999999986
  9
$DIMLFAC
 40
2.0
  9
$DIMTOFL
 70
     1
  9
$DIMTVP
 40
0.0
  9
$DIMTIX
 70
     0
  9
$DIMSOXD
 70
     0
  9
$DIMSAH
 70
     0
  9
$DIMBLK1
  1

  9
$DIMBLK2
  1

  9
$DIMSTYLE
  2
STANDARD
  9
$DIMCLRD
 70
     0
  9
$DIMCLRE
 70
     0
  9
$DIMCLRT
 70
     1
  9
$DIMTFAC
 40
0.5142857142857143
  9
$DIMGAP
 40
1.5
  9
$LUNITS
 70
     2
  9
$LUPREC
 70
     2
  9
$SKETCHINC
 40
1.0
  9
$FILLETRAD
 40
2.5
  9
$AUNITS
 70
     0
  9
$AUPREC
 70
     0
  9
$MENU
  1
ACAD
  9
$ELEVATION
 40
0.0
  9
$PELEVATION
 40
0.0
  9
$THICKNESS
 40
0.0
  9
$LIMCHECK
 70
     0
  9
$BLIPMODE
 70
     0
  9
$CHAMFERA
 40
2.25
  9
$CHAMFERB
 40
2.25
  9
$SKPOLY
 70
     0
  9
$TDCREATE
 40
2455397.8679513889364898
  9
$TDUPDATE
 40
2460879.39815972186625
  9
$TDINDWG
 40
2.8802856943999999
  9
$TDUSRTIMER
 40
2.8802856943999999
  9
$USRTIMER
 70
     1
  9
$ANGBASE
 50
0.0
  9
$ANGDIR
 70
     0
  9
$PDMODE
 70
     0
  9
$PDSIZE
 40
0.0
  9
$PLINEWID
 40
0.0
  9
$COORDS
 70
     1
  9
$SPLFRAME
 70
     0
  9
$SPLINETYPE
 70
     6
  9
$SPLINESEGS
 70
     8
  9
$ATTDIA
 70
     1
  9
$ATTREQ
 70
     0
  9
$HANDLING
 70
     1
  9
$HANDSEED
  5
707CEE1
  9
$SURFTAB1
 70
     6
  9
$SURFTAB2
 70
     6
  9
$SURFTYPE
 70
     6
  9
$SURFU
 70
     6
  9
$SURFV
 70
     6
  9
$UCSNAME
  2

  9
$UCSORG
 10
0.0
 20
0.0
 30
0.0
  9
$UCSXDIR
 10
1.0
 20
0.0
 30
0.0
  9
$UCSYDIR
 10
0.0
 20
1.0
 30
0.0
  9
$PUCSNAME
  2

  9
$PUCSORG
 10
0.0
 20
0.0
 30
0.0
  9
$PUCSXDIR
 10
1.0
 20
0.0
 30
0.0
  9
$PUCSYDIR
 10
0.0
 20
1.0
 30
0.0
  9
$USERI1
 70
     0
  9
$USERI2
 70
     0
  9
$USERI3
 70
     0
  9
$USERI4
 70
     0
  9
$USERI5
 70
     0
  9
$USERR1
 40
0.0
  9
$USERR2
 40
0.0
  9
$USERR3
 40
0.0
  9
$USERR4
 40
0.0
  9
$USERR5
 40
0.0
  9
$WORLDVIEW
 70
     1
  9
$SHADEDGE
 70
     3
  9
$SHADEDIF
 70
    70
  9
$TILEMODE
 70
     1
  9
$MAXACTVP
 70
    16
  9
$PLIMCHECK
 70
     0
  9
$PEXTMIN
 10
-0.0445832769023582
 20
-0.0343481699512722
 30
-0.0000000000000058
  9
$PEXTMAX
 10
286.0479246134809728
 20
409.4759861499808267
 30
0.0000000000000588
  9
$PLIMMIN
 10
-5.4927278701975411
 20
-5.1398214167014951
  9
$PLIMMAX
 10
291.3732557430449219
 20
414.670660460610975
  9
$UNITMODE
 70
     0
  9
$VISRETAIN
 70
     0
  9
$PLINEGEN
 70
     0
  9
$PSLTSCALE
 70
     0
  0
ENDSEC
  0
SECTION
  2
TABLES
  0
TABLE
  2
VPORT
 70
     1
  0
VPORT
  2
*ACTIVE
 70
     0
 10
0.0
 20
0.0
 11
1.0
 21
1.0
 12
0.0
 22
0.0
 13
0.0
 23
0.0
 14
1.0
 24
1.0
 15
10.0
 25
10.0
 16
-0.0000000000007958
 26
0.0
 36
3535.791903159292815
 17
503.6384758469774283
 27
373.8688816701750284
 37
-0.0000000000000341
 40
1288.9773871926649917
 41
2.0758974358974349
 42
50.0
 43
0.0
 44
0.0
 50
0.0
 51
0.0
 71
     0
 72
  1500
 73
     1
 74
     0
 75
     0
 76
     0
 77
     0
 78
     0
  0
ENDTAB
  0
TABLE
  2
LTYPE
 70
     7
  0
LTYPE
  2
CONTINUOUS
 70
     0
  3
Solid line
 72
    65
 73
     0
 40
0.0
  0
LTYPE
  2
STRICHPUNKT
 70
     0
  3
__ . __ . __ . __ . __ . __ . __ . __ . __ . __
 72
    65
 73
     4
 40
1.0
 49
0.5
 49
-0.25
 49
0.0
 49
-0.25
  0
LTYPE
  2
VERDECKT
 70
     0
  3
Verdeckt __ __ __ __ __ __ __ __ __ __ __ __ __
 72
    65
 73
     2
 40
0.375
 49
0.25
 49
-0.125
  0
ENDTAB
  0
TABLE
  2
LAYER
 70
    21
  0
LAYER
  2
0
 70
     0
 62
     7
  6
CONTINUOUS
  0
LAYER
  2
STEMPEL
 70
     0
 62
     3
  6
CONTINUOUS
  0
LAYER
  2
DEFPOINTS
 70
     0
 62
     7
  6
CONTINUOUS
  0
LAYER
  2
ADSK_ASSOC_ENTITY_BACKUPS
 70
     1
 62
    -7
  6
CONTINUOUS
  0
ENDTAB
  0
TABLE
  2
STYLE
 70
     5
  0
STYLE
  2
STANDARD
 70
     0
 40
0.0
 41
0.8
 50
0.0
 71
     0
 42
3.5
  3
simplex.shx
  4

  0
ENDTAB
  0
TABLE
  2
VIEW
 70
     2
  0
ENDTAB
  0
TABLE
  2
UCS
 70
     0
  0
ENDTAB
  0
TABLE
  2
APPID
 70
    30
  0
APPID
  2
ACAD
 70
     0
  0
APPID
  2
DCO15
 70
     0
  0
APPID
  2
ACAD_PSEXT
 70
     0
  0
APPID
  2
ACAD_NAV_VCDISPLAY
 70
     0
  0
APPID
  2
ACAD_MLEADERVER
 70
     0
  0
APPID
  2
ACAD_EXEMPT_FROM_CAD_STANDARDS
 70
     0
  0
APPID
  2
ACAECLAYERSTANDARD
 70
     0
  0
APPID
  2
ACCMTRANSPARENCY
 70
     0
  0
APPID
  2
ACAD_OBJECT_CHANGE_GUID
 70
     0
  0
APPID
  2
PE_URL
 70
     0
  0
APPID
  2
ACAD_STEPID
 70
     0
  0
APPID
  2
ACDBDYNAMICBLOCKGUID
 70
     0
  0
APPID
  2
PLOTTRANSPARENCY
 70
     0
  0
APPID
  2
ACADANNOPO
 70
     0
  0
APPID
  2
ACSYNERGY
 70
     0
  0
APPID
  2
SYNERGY_BODY_TBR_ID
 70
     0
  0
APPID
  2
ACAD_VIEW_EDGE_ID
 70
     0
  0
APPID
  2
ACSYNERGYSKETCH
 70
     0
  0
APPID
  2
ACAD_MODELDOC_XFORM
 70
     0
  0
APPID
  2
ACAD_DSTYLE_DIMJAG
 70
     0
  0
APPID
  2
ACAD_DSTYLE_DIMTALN
 70
     0
  0
APPID
  2
ACAD_DIMASSOC_CALC_DIMLFAC
 70
     0
  0
APPID
  2
ACAD_DIMASSOC_DIMLFAC
 70
     0
  0
APPID
  2
ACAD_DIMASSOC_OVERRIDDEN_D
 70
     0
  0
APPID
  2
ACAD_DSTYLE_DIMRADIAL_EXTENSION
 70
     0
  0
APPID
  2
ACADANNOMONITORALERTICONDI
 70
     0
  0
APPID
  2
GRADIENTCOLOR1ACI
 70
     0
  0
APPID
  2
GRADIENTCOLOR2ACI
 70
     0
  0
APPID
  2
ACAD_DSTYLE_DIMBREAK
 70
     0
  0
APPID
  2
AcDbAttr
 70
     0
  0
ENDTAB
  0
TABLE
  2
DIMSTYLE
 70
     4
  0
DIMSTYLE
  2
STANDARD
 70
     0
  3

  4

  5

  6

  7

 40
1.0
 41
0.18
 42
0.0625
 43
0.38
 44
0.18
 45
0.0
 46
0.0
 47
0.0
 48
0.0
140
0.18
141
0.09
142
0.0
143
25.3999999999999986
144
1.0
145
0.0
146
1.0
147
0.09
 71
     0
 72
     0
 73
     1
 74
     1
 75
     0
 76
     0
 77
     0
 78
     0
170
     0
171
     2
172
     0
173
     0
174
     0
175
     0
176
     0
177
     0
178
     0
  0
ENDTAB
  0
ENDSEC
  0
SECTION
  2
BLOCKS
  0
BLOCK
  8
0
  2
$MODEL_SPACE
 70
     0
 10
0.0
 20
0.0
 30
0.0
  3
$MODEL_SPACE
  1

  0
ENDBLK
  5
37
  8
0
  0
BLOCK
 67
     1
  8
0
  2
$PAPER_SPACE
 70
     0
 10
0.0
 20
0.0
 30
0.0
  3
$PAPER_SPACE
  1

  0
ENDBLK
  5
35
 67
     1
  8
0
  0
BLOCK
  8
0
  2
*S0
 70
     1
 10
0.0
 20
0.0
 30
0.0
  3
*S0
  1

  0
ENDBLK
  5
707530F
  8
0
  0
BLOCK
  8
0
  2
A$C26F06F01
 70
     0
 10
0.0
 20
0.0
 30
0.0
  3
A$C26F06F01
  1

  0
LINE
  5
707C74F
  8
0
  6
CONTINUOUS
 10
-70.0249375003908483
 20
-0.2187539323374339
 30
0.0
 11
-0.0000000000001422
 21
-0.2187539323374168
 31
0.0
210
0.0000000000000002
220
1.0
230
-0.0000000000000002
  0
LINE
  5
707C750
  8
0
  6
CONTINUOUS
 10
-0.0000000000001137
 20
-0.2187539323374168
 30
0.0
 11
70.0249375003909194
 21
-0.218753932337465
 31
0.0
210
0.0000000000000002
220
1.0
230
-0.0000000000000002
  0
LINE
  5
707C751
  8
0
  6
CONTINUOUS
 10
-60.0000000000002203
 20
157.7812460676624937
 30
-0.000000000000035
 11
60.0000000000002913
 21
157.7812460676624937
 31
-0.000000000000035
210
0.0000000000000002
220
1.0
230
-0.0000000000000002
  0
LINE
  5
707C752
  8
0
  6
CONTINUOUS
 10
58.0000000000002203
 20
159.7812460676624084
 30
-0.0000000000000355
 11
-58.0000000000001634
 21
159.7812460676624084
 31
-0.0000000000000355
210
0.0000000000000002
220
1.0
230
-0.0000000000000002
  0
LINE
  5
707C753
  8
0
  6
CONTINUOUS
 10
-75.7500000000002558
 20
149.7812460676626074
 30
-0.0000000000000333
 11
0.0000000000001185
 21
149.7812460676626074
 31
-0.0000000000000333
210
0.0000000000000002
220
1.0
230
-0.0000000000000002
  0
LINE
  5
707C754
  8
0
  6
CONTINUOUS
 10
0.0000000000001352
 20
149.7812460676626074
 30
-0.0000000000000333
 11
75.75000000000027
 21
149.7812460676624937
 31
-0.0000000000000333
210
0.0000000000000002
220
1.0
230
-0.0000000000000002
  0
LINE
  5
707C755
  8
0
  6
CONTINUOUS
 10
-60.0000000000002629
 20
149.7812460676624937
 30
-0.0000000000000333
 11
-60.0000000000002629
 21
157.7812460676624937
 31
-0.000000000000035
210
0.0000000000000002
220
1.0
230
-0.0000000000000002
  0
LINE
  5
707C756
  8
0
  6
CONTINUOUS
 10
60.0000000000001918
 20
149.7812460676624937
 30
-0.0000000000000333
 11
60.0000000000001918
 21
157.7812460676624937
 31
-0.000000000000035
210
0.0000000000000002
220
1.0
230
-0.0000000000000002
  0
LINE
  5
707C757
  8
0
  6
CONTINUOUS
 10
58.0000000000002629
 20
159.7812460676624084
 30
-0.0000000000000355
 11
60.0000000000002416
 21
157.7812460676624084
 31
-0.000000000000035
210
0.0000000000000002
220
1.0
230
-0.0000000000000002
  0
LINE
  5
707C758
  8
0
  6
CONTINUOUS
 10
-58.0000000000002274
 20
159.7812460676624937
 30
-0.0000000000000355
 11
-60.0000000000002203
 21
157.7812460676624937
 31
-0.000000000000035
210
0.0000000000000002
220
1.0
230
-0.0000000000000002
  0
ARC
  5
707C759
  8
0
  6
CONTINUOUS
 10
70.0249375003909762
 20
4.7812460676626882
 30
0.0
 40
5.0000000000000071
210
0.0
220
-0.0000000000000002
230
-1.0
 50
270.0
 51
359.7135234897236273
  0
ARC
  5
707C75A
  8
0
  6
CONTINUOUS
 10
-70.0249375003908483
 20
4.7812460676626554
 30
0.0
 40
4.999999999999992
210
0.0
220
-0.0000000000000002
230
-1.0
 50
180.2864765102775095
 51
269.9999999999989768
  0
LINE
  5
707C75B
  8
0
  6
CONTINUOUS
 10
-75.0248750015628332
 20
4.7562463801567851
 30
-0.0000000000000011
 11
-75.7500000000002984
 21
149.7812460676626074
 31
-0.0000000000000333
210
0.0000000000000002
220
1.0
230
-0.0000000000000002
  0
LINE
  5
707C75C
  8
0
  6
CONTINUOUS
 10
75.0248750015626769
 20
4.7562463801567514
 30
-0.0000000000000011
 11
75.75000000000027
 21
149.7812460676624937
 31
-0.0000000000000333
210
0.0000000000000002
220
1.0
230
-0.0000000000000002
  0
LINE
  5
707C75D
  8
0
  6
CONTINUOUS
 10
-76.5000000000002842
 20
419.7812460676626074
 30
-0.0000000000000932
 11
0.0000000000002069
 21
419.7812460676626074
 31
-0.0000000000000932
210
0.0000000000000002
220
1.0
230
-0.0000000000000002
  0
LINE
  5
707C75E
  8
0
  6
CONTINUOUS
 10
0.0000000000002041
 20
419.7812460676626074
 30
-0.0000000000000932
 11
76.5000000000003411
 21
419.7812460676626074
 31
-0.0000000000000932
210
0.0000000000000002
220
1.0
230
-0.0000000000000002
  0
LINE
  5
707C75F
  8
0
  6
CONTINUOUS
 10
-75.7500000000003411
 20
269.7812460676626074
 30
-0.0000000000000599
 11
0.000000000000131
 21
269.7812460676626074
 31
-0.0000000000000599
210
0.0000000000000002
220
1.0
230
-0.0000000000000002
  0
LINE
  5
707C760
  8
0
  6
CONTINUOUS
 10
0.000000000000138
 20
269.7812460676626074
 30
-0.0000000000000599
 11
75.75000000000027
 21
269.7812460676626074
 31
-0.0000000000000599
210
0.0000000000000002
220
1.0
230
-0.0000000000000002
  0
LINE
  5
707C761
  8
0
  6
CONTINUOUS
 10
-75.7500000000003553
 20
269.7812460676626074
 30
-0.0000000000000599
 11
-76.5000000000002842
 21
419.7812460676626074
 31
-0.0000000000000932
210
0.0000000000000002
220
1.0
230
-0.0000000000000002
  0
LINE
  5
707C762
  8
0
  6
CONTINUOUS
 10
75.75000000000027
 20
269.7812460676626074
 30
-0.0000000000000599
 11
76.5000000000003411
 21
419.7812460676626074
 31
-0.0000000000000932
210
0.0000000000000002
220
1.0
230
-0.0000000000000002
  0
LINE
  5
707C763
  8
0
  6
VERDECKT
 62
     1
 10
-5.0000000000003046
 20
149.7812460676626074
 30
-0.0000000000000321
 11
-5.0000000000003038
 21
-0.2187539323375621
 31
0.0000000000000012
210
0.0000000000000002
220
1.0
230
-0.0000000000000002
  0
LINE
  5
707C764
  8
0
  6
VERDECKT
 62
     1
 10
-4.9999999999999218
 20
157.7812460676624084
 30
-0.0000000000000339
 11
-4.9999999999999236
 21
149.7812460676624084
 31
-0.0000000000000321
210
0.0000000000000002
220
1.0
230
-0.0000000000000002
  0
LINE
  5
707C765
  8
0
  6
VERDECKT
 62
     1
 10
-4.9999999999999218
 20
157.7812460676624084
 30
-0.0000000000000339
 11
-6.999999999999921
 21
159.7812460676624084
 31
-0.0000000000000344
210
0.0000000000000002
220
1.0
230
-0.0000000000000002
  0
LINE
  5
707C766
  8
0
  6
VERDECKT
 62
     1
 10
5.0000000000003428
 20
149.7812460676626074
 30
-0.0000000000000344
 11
5.0000000000002771
 21
-0.2187539323375643
 31
-0.0000000000000011
210
0.0000000000000002
220
1.0
230
-0.0000000000000002
  0
LINE
  5
707C767
  8
0
  6
VERDECKT
 62
     1
 10
4.9999999999999778
 20
157.7812460676624084
 30
-0.0000000000000361
 11
4.999999999999976
 21
149.7812460676624084
 31
-0.0000000000000344
210
0.0000000000000002
220
1.0
230
-0.0000000000000002
  0
LINE
  5
707C768
  8
0
  6
VERDECKT
 62
     1
 10
4.9999999999999778
 20
157.7812460676624084
 30
-0.0000000000000361
 11
6.9999999999999787
 21
159.7812460676624084
 31
-0.0000000000000366
210
0.0000000000000002
220
1.0
230
-0.0000000000000002
  0
LINE
  5
707C769
  8
0
  6
VERDECKT
 62
     1
 10
-50.0000000000002274
 20
157.7812460676624937
 30
-0.000000000000035
 11
-52.000000000000199
 21
159.7812460676624084
 31
-0.0000000000000355
210
0.0000000000000002
220
1.0
230
-0.0000000000000002
  0
LINE
  5
707C76A
  8
0
  6
VERDECKT
 62
     1
 10
50.0000000000002629
 20
157.7812460676626074
 30
-0.000000000000035
 11
52.0000000000002416
 21
159.7812460676624937
 31
-0.0000000000000355
210
0.0000000000000002
220
1.0
230
-0.0000000000000002
  0
LINE
  5
707C76B
  8
0
  6
VERDECKT
 62
     1
 10
-50.00000000000027
 20
149.7812460676624937
 30
-0.0000000000000333
 11
-50.00000000000027
 21
157.7812460676624937
 31
-0.000000000000035
210
0.0000000000000002
220
1.0
230
-0.0000000000000002
  0
LINE
  5
707C76C
  8
0
  6
VERDECKT
 62
     1
 10
50.000000000000199
 20
149.7812460676624937
 30
-0.0000000000000333
 11
50.000000000000199
 21
157.7812460676624937
 31
-0.000000000000035
210
0.0000000000000002
220
1.0
230
-0.0000000000000002
  0
LINE
  5
707C76D
  8
0
  6
VERDECKT
 62
     1
 10
26.5000000000018083
 20
149.7812460676626074
 30
-0.0000000000000333
 11
26.5000000000017515
 21
-0.2187539323374554
 31
0.0
210
0.0000000000000002
220
1.0
230
-0.0000000000000002
  0
LINE
  5
707C76E
  8
0
  6
VERDECKT
 62
     1
 10
-26.500000000001819
 20
149.7812460676626074
 30
-0.0000000000000333
 11
-26.50000000000189
 21
-0.2187539323374436
 31
0.0
210
0.0000000000000002
220
1.0
230
-0.0000000000000002
  0
LINE
  5
707C76F
  8
0
  6
VERDECKT
 62
     1
 10
-5.0000000000001128
 20
269.7812460676626074
 30
-0.0000000000000588
 11
-5.0000000000001101
 21
274.9883528488492175
 31
-0.0000000000000599
210
0.0000000000000002
220
1.0
230
-0.0000000000000002
  0
LINE
  5
707C770
  8
0
  6
VERDECKT
 62
     1
 10
-26.5000000000018012
 20
274.9883528488492175
 30
-0.0000000000000611
 11
26.5000000000018296
 21
274.9883528488492175
 31
-0.0000000000000611
210
0.0000000000000002
220
1.0
230
-0.0000000000000002
  0
LINE
  5
707C771
  8
0
  6
VERDECKT
 62
     1
 10
5.0000000000003437
 20
274.9883528488492175
 30
-0.0000000000000622
 11
5.0000000000003411
 21
269.7812460676626074
 31
-0.000000000000061
210
0.0000000000000002
220
1.0
230
-0.0000000000000002
  0
POLYLINE
  8
0
  5
707C85F
  62
1
  66
     1
 10
0.00000
 20
0.00000
 30
0.00000
  70
     8
  0
VERTEX
  8
0
  5
707C860
 10
-5.00000
 20
274.988
 30
-6.11000e-14
  70
    32
  0
VERTEX
  8
0
  5
707C861
 10
-5.00000
 20
275.016
 30
-6.11042e-14
  70
    32
  0
VERTEX
  8
0
  5
707C862
 10
-5.00000
 20
275.043
 30
-6.11085e-14
  70
    32
  0
VERTEX
  8
0
  5
707C863
 10
-5.00000
 20
275.071
 30
-6.11128e-14
  70
    32
  0
VERTEX
  8
0
  5
707C864
 10
-5.00000
 20
275.099
 30
-6.11172e-14
  70
    32
  0
VERTEX
  8
0
  5
707C865
 10
-5.00000
 20
275.126
 30
-6.11216e-14
  70
    32
  0
VERTEX
  8
0
  5
707C866
 10
-5.00000
 20
275.154
 30
-6.11261e-14
  70
    32
  0
VERTEX
  8
0
  5
707C867
 10
-5.00000
 20
275.182
 30
-6.11306e-14
  70
    32
  0
VERTEX
  8
0
  5
707C868
 10
-5.00000
 20
275.209
 30
-6.11351e-14
  70
    32
  0
VERTEX
  8
0
  5
707C869
 10
-5.00000
 20
275.237
 30
-6.11397e-14
  70
    32
  0
VERTEX
  8
0
  5
707C86A
 10
-5.00000
 20
275.265
 30
-6.11444e-14
  70
    32
  0
VERTEX
  8
0
  5
707C86B
 10
-5.00000
 20
275.293
 30
-6.11490e-14
  70
    32
  0
VERTEX
  8
0
  5
707C86C
 10
-5.00000
 20
275.321
 30
-6.11538e-14
  70
    32
  0
VERTEX
  8
0
  5
707C86D
 10
-5.00000
 20
275.348
 30
-6.11585e-14
  70
    32
  0
VERTEX
  8
0
  5
707C86E
 10
-5.00000
 20
275.376
 30
-6.11633e-14
  70
    32
  0
VERTEX
  8
0
  5
707C86F
 10
-5.00000
 20
275.404
 30
-6.11682e-14
  70
    32
  0
VERTEX
  8
0
  5
707C870
 10
-5.00000
 20
275.432
 30
-6.11731e-14
  70
    32
  0
VERTEX
  8
0
  5
707C871
 10
-5.00000
 20
275.460
 30
-6.11780e-14
  70
    32
  0
VERTEX
  8
0
  5
707C872
 10
-5.00000
 20
275.488
 30
-6.11830e-14
  70
    32
  0
VERTEX
  8
0
  5
707C873
 10
-5.00000
 20
275.516
 30
-6.11880e-14
  70
    32
  0
VERTEX
  8
0
  5
707C874
 10
-5.00000
 20
275.544
 30
-6.11931e-14
  70
    32
  0
VERTEX
  8
0
  5
707C875
 10
-5.00000
 20
275.572
 30
-6.11982e-14
  70
    32
  0
VERTEX
  8
0
  5
707C876
 10
-5.00000
 20
275.601
 30
-6.12034e-14
  70
    32
  0
VERTEX
  8
0
  5
707C877
 10
-5.00000
 20
275.629
 30
-6.12086e-14
  70
    32
  0
VERTEX
  8
0
  5
707C878
 10
-5.00000
 20
275.657
 30
-6.12139e-14
  70
    32
  0
VERTEX
  8
0
  5
707C879
 10
-5.00000
 20
275.685
 30
-6.12192e-14
  70
    32
  0
VERTEX
  8
0
  5
707C87A
 10
-5.00000
 20
275.713
 30
-6.12245e-14
  70
    32
  0
VERTEX
  8
0
  5
707C87B
 10
-5.00000
 20
275.742
 30
-6.12299e-14
  70
    32
  0
VERTEX
  8
0
  5
707C87C
 10
-5.00000
 20
275.770
 30
-6.12353e-14
  70
    32
  0
VERTEX
  8
0
  5
707C87D
 10
-5.00000
 20
275.798
 30
-6.12408e-14
  70
    32
  0
VERTEX
  8
0
  5
707C87E
 10
-5.00000
 20
275.827
 30
-6.12463e-14
  70
    32
  0
VERTEX
  8
0
  5
707C87F
 10
-5.00000
 20
275.855
 30
-6.12518e-14
  70
    32
  0
VERTEX
  8
0
  5
707C880
 10
-5.00000
 20
275.884
 30
-6.12575e-14
  70
    32
  0
VERTEX
  8
0
  5
707C881
 10
-5.00000
 20
275.912
 30
-6.12631e-14
  70
    32
  0
VERTEX
  8
0
  5
707C882
 10
-5.00000
 20
275.941
 30
-6.12688e-14
  70
    32
  0
VERTEX
  8
0
  5
707C883
 10
-5.00000
 20
275.969
 30
-6.12745e-14
  70
    32
  0
VERTEX
  8
0
  5
707C884
 10
-5.00000
 20
275.998
 30
-6.12803e-14
  70
    32
  0
VERTEX
  8
0
  5
707C885
 10
-5.00000
 20
276.026
 30
-6.12861e-14
  70
    32
  0
VERTEX
  8
0
  5
707C886
 10
-5.00000
 20
276.055
 30
-6.12920e-14
  70
    32
  0
VERTEX
  8
0
  5
707C887
 10
-5.00000
 20
276.084
 30
-6.12979e-14
  70
    32
  0
VERTEX
  8
0
  5
707C888
 10
-5.00000
 20
276.112
 30
-6.13039e-14
  70
    32
  0
VERTEX
  8
0
  5
707C889
 10
-5.00000
 20
276.141
 30
-6.13099e-14
  70
    32
  0
VERTEX
  8
0
  5
707C88A
 10
-5.00000
 20
276.170
 30
-6.13159e-14
  70
    32
  0
VERTEX
  8
0
  5
707C88B
 10
-5.00000
 20
276.198
 30
-6.13220e-14
  70
    32
  0
VERTEX
  8
0
  5
707C88C
 10
-5.00000
 20
276.227
 30
-6.13281e-14
  70
    32
  0
VERTEX
  8
0
  5
707C88D
 10
-5.00000
 20
276.256
 30
-6.13343e-14
  70
    32
  0
VERTEX
  8
0
  5
707C88E
 10
-5.00000
 20
276.285
 30
-6.13406e-14
  70
    32
  0
VERTEX
  8
0
  5
707C88F
 10
-5.00000
 20
276.314
 30
-6.13468e-14
  70
    32
  0
VERTEX
  8
0
  5
707C890
 10
-5.00000
 20
276.343
 30
-6.13531e-14
  70
    32
  0
VERTEX
  8
0
  5
707C891
 10
-5.00000
 20
276.372
 30
-6.13595e-14
  70
    32
  0
VERTEX
  8
0
  5
707C892
 10
-5.00000
 20
276.401
 30
-6.13659e-14
  70
    32
  0
VERTEX
  8
0
  5
707C893
 10
-5.00000
 20
276.430
 30
-6.13723e-14
  70
    32
  0
VERTEX
  8
0
  5
707C894
 10
-5.00000
 20
276.459
 30
-6.13788e-14
  70
    32
  0
VERTEX
  8
0
  5
707C895
 10
-5.00000
 20
276.488
 30
-6.13854e-14
  70
    32
  0
VERTEX
  8
0
  5
707C896
 10
-5.00000
 20
276.517
 30
-6.13919e-14
  70
    32
  0
VERTEX
  8
0
  5
707C897
 10
-5.00000
 20
276.546
 30
-6.13986e-14
  70
    32
  0
VERTEX
  8
0
  5
707C898
 10
-5.00000
 20
276.575
 30
-6.14052e-14
  70
    32
  0
VERTEX
  8
0
  5
707C899
 10
-5.00000
 20
276.605
 30
-6.14119e-14
  70
    32
  0
VERTEX
  8
0
  5
707C89A
 10
-5.00000
 20
276.634
 30
-6.14187e-14
  70
    32
  0
VERTEX
  8
0
  5
707C89B
 10
-5.00000
 20
276.663
 30
-6.14255e-14
  70
    32
  0
VERTEX
  8
0
  5
707C89C
 10
-5.00000
 20
276.692
 30
-6.14323e-14
  70
    32
  0
VERTEX
  8
0
  5
707C89D
 10
-5.00000
 20
276.722
 30
-6.14392e-14
  70
    32
  0
VERTEX
  8
0
  5
707C89E
 10
-5.00000
 20
276.751
 30
-6.14462e-14
  70
    32
  0
VERTEX
  8
0
  5
707C89F
 10
-5.00000
 20
276.780
 30
-6.14531e-14
  70
    32
  0
VERTEX
  8
0
  5
707C8A0
 10
-5.00000
 20
276.810
 30
-6.14602e-14
  70
    32
  0
VERTEX
  8
0
  5
707C8A1
 10
-5.00000
 20
276.839
 30
-6.14672e-14
  70
    32
  0
VERTEX
  8
0
  5
707C8A2
 10
-5.00000
 20
276.869
 30
-6.14743e-14
  70
    32
  0
VERTEX
  8
0
  5
707C8A3
 10
-5.00000
 20
276.898
 30
-6.14815e-14
  70
    32
  0
VERTEX
  8
0
  5
707C8A4
 10
-5.00000
 20
276.928
 30
-6.14887e-14
  70
    32
  0
VERTEX
  8
0
  5
707C8A5
 10
-5.00000
 20
276.958
 30
-6.14959e-14
  70
    32
  0
VERTEX
  8
0
  5
707C8A6
 10
-5.00000
 20
276.987
 30
-6.15032e-14
  70
    32
  0
VERTEX
  8
0
  5
707C8A7
 10
-5.00000
 20
277.017
 30
-6.15106e-14
  70
    32
  0
VERTEX
  8
0
  5
707C8A8
 10
-5.00000
 20
277.046
 30
-6.15179e-14
  70
    32
  0
VERTEX
  8
0
  5
707C8A9
 10
-5.00000
 20
277.076
 30
-6.15254e-14
  70
    32
  0
VERTEX
  8
0
  5
707C8AA
 10
-5.00000
 20
277.106
 30
-6.15328e-14
  70
    32
  0
VERTEX
  8
0
  5
707C8AB
 10
-5.00000
 20
277.136
 30
-6.15403e-14
  70
    32
  0
VERTEX
  8
0
  5
707C8AC
 10
-5.00000
 20
277.166
 30
-6.15479e-14
  70
    32
  0
VERTEX
  8
0
  5
707C8AD
 10
-5.00000
 20
277.195
 30
-6.15555e-14
  70
    32
  0
VERTEX
  8
0
  5
707C8AE
 10
-5.00000
 20
277.225
 30
-6.15631e-14
  70
    32
  0
VERTEX
  8
0
  5
707C8AF
 10
-5.00000
 20
277.255
 30
-6.15708e-14
  70
    32
  0
VERTEX
  8
0
  5
707C8B0
 10
-5.00000
 20
277.285
 30
-6.15786e-14
  70
    32
  0
VERTEX
  8
0
  5
707C8B1
 10
-5.00000
 20
277.315
 30
-6.15864e-14
  70
    32
  0
VERTEX
  8
0
  5
707C8B2
 10
-5.00000
 20
277.345
 30
-6.15942e-14
  70
    32
  0
VERTEX
  8
0
  5
707C8B3
 10
-5.00000
 20
277.375
 30
-6.16021e-14
  70
    32
  0
VERTEX
  8
0
  5
707C8B4
 10
-5.00000
 20
277.405
 30
-6.16100e-14
  70
    32
  0
VERTEX
  8
0
  5
707C8B5
 10
-5.00000
 20
277.435
 30
-6.16179e-14
  70
    32
  0
VERTEX
  8
0
  5
707C8B6
 10
-5.00000
 20
277.466
 30
-6.16259e-14
  70
    32
  0
VERTEX
  8
0
  5
707C8B7
 10
-5.00000
 20
277.496
 30
-6.16340e-14
  70
    32
  0
VERTEX
  8
0
  5
707C8B8
 10
-5.00000
 20
277.526
 30
-6.16421e-14
  70
    32
  0
VERTEX
  8
0
  5
707C8B9
 10
-5.00000
 20
277.556
 30
-6.16502e-14
  70
    32
  0
VERTEX
  8
0
  5
707C8BA
 10
-5.00000
 20
277.586
 30
-6.16584e-14
  70
    32
  0
VERTEX
  8
0
  5
707C8BB
 10
-5.00000
 20
277.617
 30
-6.16666e-14
  70
    32
  0
VERTEX
  8
0
  5
707C8BC
 10
-5.00000
 20
277.647
 30
-6.16749e-14
  70
    32
  0
VERTEX
  8
0
  5
707C8BD
 10
-5.00000
 20
277.677
 30
-6.16832e-14
  70
    32
  0
VERTEX
  8
0
  5
707C8BE
 10
-5.00000
 20
277.708
 30
-6.16916e-14
  70
    32
  0
VERTEX
  8
0
  5
707C8BF
 10
-5.00000
 20
277.738
 30
-6.17000e-14
  70
    32
  0
SEQEND
  8
0
  5
707C8C0
  0
LINE
  5
707C773
  8
0
  6
VERDECKT
 62
     1
 10
-29.250000000001851
 20
277.7383528488491038
 30
-0.0000000000000617
 11
29.2500000000018012
 21
277.7383528488491038
 31
-0.0000000000000617
210
0.0000000000000002
220
1.0
230
-0.0000000000000002
  0
POLYLINE
  8
0
  5
707C8C1
  62
1
  66
     1
 10
0.00000
 20
0.00000
 30
0.00000
  70
     8
  0
VERTEX
  8
0
  5
707C8C2
 10
5.00000
 20
277.738
 30
-6.17000e-14
  70
    32
  0
VERTEX
  8
0
  5
707C8C3
 10
5.00000
 20
277.708
 30
-6.16916e-14
  70
    32
  0
VERTEX
  8
0
  5
707C8C4
 10
5.00000
 20
277.677
 30
-6.16832e-14
  70
    32
  0
VERTEX
  8
0
  5
707C8C5
 10
5.00000
 20
277.647
 30
-6.16749e-14
  70
    32
  0
VERTEX
  8
0
  5
707C8C6
 10
5.00000
 20
277.617
 30
-6.16666e-14
  70
    32
  0
VERTEX
  8
0
  5
707C8C7
 10
5.00000
 20
277.586
 30
-6.16584e-14
  70
    32
  0
VERTEX
  8
0
  5
707C8C8
 10
5.00000
 20
277.556
 30
-6.16502e-14
  70
    32
  0
VERTEX
  8
0
  5
707C8C9
 10
5.00000
 20
277.526
 30
-6.16421e-14
  70
    32
  0
VERTEX
  8
0
  5
707C8CA
 10
5.00000
 20
277.496
 30
-6.16340e-14
  70
    32
  0
VERTEX
  8
0
  5
707C8CB
 10
5.00000
 20
277.466
 30
-6.16259e-14
  70
    32
  0
VERTEX
  8
0
  5
707C8CC
 10
5.00000
 20
277.435
 30
-6.16179e-14
  70
    32
  0
VERTEX
  8
0
  5
707C8CD
 10
5.00000
 20
277.405
 30
-6.16100e-14
  70
    32
  0
VERTEX
  8
0
  5
707C8CE
 10
5.00000
 20
277.375
 30
-6.16021e-14
  70
    32
  0
VERTEX
  8
0
  5
707C8CF
 10
5.00000
 20
277.345
 30
-6.15942e-14
  70
    32
  0
VERTEX
  8
0
  5
707C8D0
 10
5.00000
 20
277.315
 30
-6.15864e-14
  70
    32
  0
VERTEX
  8
0
  5
707C8D1
 10
5.00000
 20
277.285
 30
-6.15786e-14
  70
    32
  0
VERTEX
  8
0
  5
707C8D2
 10
5.00000
 20
277.255
 30
-6.15708e-14
  70
    32
  0
VERTEX
  8
0
  5
707C8D3
 10
5.00000
 20
277.225
 30
-6.15631e-14
  70
    32
  0
VERTEX
  8
0
  5
707C8D4
 10
5.00000
 20
277.195
 30
-6.15555e-14
  70
    32
  0
VERTEX
  8
0
  5
707C8D5
 10
5.00000
 20
277.166
 30
-6.15479e-14
  70
    32
  0
VERTEX
  8
0
  5
707C8D6
 10
5.00000
 20
277.136
 30
-6.15403e-14
  70
    32
  0
VERTEX
  8
0
  5
707C8D7
 10
5.00000
 20
277.106
 30
-6.15328e-14
  70
    32
  0
VERTEX
  8
0
  5
707C8D8
 10
5.00000
 20
277.076
 30
-6.15254e-14
  70
    32
  0
VERTEX
  8
0
  5
707C8D9
 10
5.00000
 20
277.046
 30
-6.15179e-14
  70
    32
  0
VERTEX
  8
0
  5
707C8DA
 10
5.00000
 20
277.017
 30
-6.15106e-14
  70
    32
  0
VERTEX
  8
0
  5
707C8DB
 10
5.00000
 20
276.987
 30
-6.15032e-14
  70
    32
  0
VERTEX
  8
0
  5
707C8DC
 10
5.00000
 20
276.958
 30
-6.14959e-14
  70
    32
  0
VERTEX
  8
0
  5
707C8DD
 10
5.00000
 20
276.928
 30
-6.14887e-14
  70
    32
  0
VERTEX
  8
0
  5
707C8DE
 10
5.00000
 20
276.898
 30
-6.14815e-14
  70
    32
  0
VERTEX
  8
0
  5
707C8DF
 10
5.00000
 20
276.869
 30
-6.14743e-14
  70
    32
  0
VERTEX
  8
0
  5
707C8E0
 10
5.00000
 20
276.839
 30
-6.14672e-14
  70
    32
  0
VERTEX
  8
0
  5
707C8E1
 10
5.00000
 20
276.810
 30
-6.14602e-14
  70
    32
  0
VERTEX
  8
0
  5
707C8E2
 10
5.00000
 20
276.780
 30
-6.14531e-14
  70
    32
  0
VERTEX
  8
0
  5
707C8E3
 10
5.00000
 20
276.751
 30
-6.14462e-14
  70
    32
  0
VERTEX
  8
0
  5
707C8E4
 10
5.00000
 20
276.722
 30
-6.14392e-14
  70
    32
  0
VERTEX
  8
0
  5
707C8E5
 10
5.00000
 20
276.692
 30
-6.14323e-14
  70
    32
  0
VERTEX
  8
0
  5
707C8E6
 10
5.00000
 20
276.663
 30
-6.14255e-14
  70
    32
  0
VERTEX
  8
0
  5
707C8E7
 10
5.00000
 20
276.634
 30
-6.14187e-14
  70
    32
  0
VERTEX
  8
0
  5
707C8E8
 10
5.00000
 20
276.605
 30
-6.14119e-14
  70
    32
  0
VERTEX
  8
0
  5
707C8E9
 10
5.00000
 20
276.575
 30
-6.14052e-14
  70
    32
  0
VERTEX
  8
0
  5
707C8EA
 10
5.00000
 20
276.546
 30
-6.13986e-14
  70
    32
  0
VERTEX
  8
0
  5
707C8EB
 10
5.00000
 20
276.517
 30
-6.13919e-14
  70
    32
  0
VERTEX
  8
0
  5
707C8EC
 10
5.00000
 20
276.488
 30
-6.13854e-14
  70
    32
  0
VERTEX
  8
0
  5
707C8ED
 10
5.00000
 20
276.459
 30
-6.13788e-14
  70
    32
  0
VERTEX
  8
0
  5
707C8EE
 10
5.00000
 20
276.430
 30
-6.13723e-14
  70
    32
  0
VERTEX
  8
0
  5
707C8EF
 10
5.00000
 20
276.401
 30
-6.13659e-14
  70
    32
  0
VERTEX
  8
0
  5
707C8F0
 10
5.00000
 20
276.372
 30
-6.13595e-14
  70
    32
  0
VERTEX
  8
0
  5
707C8F1
 10
5.00000
 20
276.343
 30
-6.13531e-14
  70
    32
  0
VERTEX
  8
0
  5
707C8F2
 10
5.00000
 20
276.314
 30
-6.13468e-14
  70
    32
  0
VERTEX
  8
0
  5
707C8F3
 10
5.00000
 20
276.285
 30
-6.13406e-14
  70
    32
  0
VERTEX
  8
0
  5
707C8F4
 10
5.00000
 20
276.256
 30
-6.13343e-14
  70
    32
  0
VERTEX
  8
0
  5
707C8F5
 10
5.00000
 20
276.227
 30
-6.13281e-14
  70
    32
  0
VERTEX
  8
0
  5
707C8F6
 10
5.00000
 20
276.198
 30
-6.13220e-14
  70
    32
  0
VERTEX
  8
0
  5
707C8F7
 10
5.00000
 20
276.170
 30
-6.13159e-14
  70
    32
  0
VERTEX
  8
0
  5
707C8F8
 10
5.00000
 20
276.141
 30
-6.13099e-14
  70
    32
  0
VERTEX
  8
0
  5
707C8F9
 10
5.00000
 20
276.112
 30
-6.13039e-14
  70
    32
  0
VERTEX
  8
0
  5
707C8FA
 10
5.00000
 20
276.084
 30
-6.12979e-14
  70
    32
  0
VERTEX
  8
0
  5
707C8FB
 10
5.00000
 20
276.055
 30
-6.12920e-14
  70
    32
  0
VERTEX
  8
0
  5
707C8FC
 10
5.00000
 20
276.026
 30
-6.12861e-14
  70
    32
  0
VERTEX
  8
0
  5
707C8FD
 10
5.00000
 20
275.998
 30
-6.12803e-14
  70
    32
  0
VERTEX
  8
0
  5
707C8FE
 10
5.00000
 20
275.969
 30
-6.12745e-14
  70
    32
  0
VERTEX
  8
0
  5
707C8FF
 10
5.00000
 20
275.941
 30
-6.12688e-14
  70
    32
  0
VERTEX
  8
0
  5
707C900
 10
5.00000
 20
275.912
 30
-6.12631e-14
  70
    32
  0
VERTEX
  8
0
  5
707C901
 10
5.00000
 20
275.884
 30
-6.12575e-14
  70
    32
  0
VERTEX
  8
0
  5
707C902
 10
5.00000
 20
275.855
 30
-6.12518e-14
  70
    32
  0
VERTEX
  8
0
  5
707C903
 10
5.00000
 20
275.827
 30
-6.12463e-14
  70
    32
  0
VERTEX
  8
0
  5
707C904
 10
5.00000
 20
275.798
 30
-6.12408e-14
  70
    32
  0
VERTEX
  8
0
  5
707C905
 10
5.00000
 20
275.770
 30
-6.12353e-14
  70
    32
  0
VERTEX
  8
0
  5
707C906
 10
5.00000
 20
275.742
 30
-6.12299e-14
  70
    32
  0
VERTEX
  8
0
  5
707C907
 10
5.00000
 20
275.713
 30
-6.12245e-14
  70
    32
  0
VERTEX
  8
0
  5
707C908
 10
5.00000
 20
275.685
 30
-6.12192e-14
  70
    32
  0
VERTEX
  8
0
  5
707C909
 10
5.00000
 20
275.657
 30
-6.12139e-14
  70
    32
  0
VERTEX
  8
0
  5
707C90A
 10
5.00000
 20
275.629
 30
-6.12086e-14
  70
    32
  0
VERTEX
  8
0
  5
707C90B
 10
5.00000
 20
275.601
 30
-6.12034e-14
  70
    32
  0
VERTEX
  8
0
  5
707C90C
 10
5.00000
 20
275.572
 30
-6.11982e-14
  70
    32
  0
VERTEX
  8
0
  5
707C90D
 10
5.00000
 20
275.544
 30
-6.11931e-14
  70
    32
  0
VERTEX
  8
0
  5
707C90E
 10
5.00000
 20
275.516
 30
-6.11880e-14
  70
    32
  0
VERTEX
  8
0
  5
707C90F
 10
5.00000
 20
275.488
 30
-6.11830e-14
  70
    32
  0
VERTEX
  8
0
  5
707C910
 10
5.00000
 20
275.460
 30
-6.11780e-14
  70
    32
  0
VERTEX
  8
0
  5
707C911
 10
5.00000
 20
275.432
 30
-6.11731e-14
  70
    32
  0
VERTEX
  8
0
  5
707C912
 10
5.00000
 20
275.404
 30
-6.11682e-14
  70
    32
  0
VERTEX
  8
0
  5
707C913
 10
5.00000
 20
275.376
 30
-6.11633e-14
  70
    32
  0
VERTEX
  8
0
  5
707C914
 10
5.00000
 20
275.348
 30
-6.11585e-14
  70
    32
  0
VERTEX
  8
0
  5
707C915
 10
5.00000
 20
275.321
 30
-6.11538e-14
  70
    32
  0
VERTEX
  8
0
  5
707C916
 10
5.00000
 20
275.293
 30
-6.11490e-14
  70
    32
  0
VERTEX
  8
0
  5
707C917
 10
5.00000
 20
275.265
 30
-6.11444e-14
  70
    32
  0
VERTEX
  8
0
  5
707C918
 10
5.00000
 20
275.237
 30
-6.11397e-14
  70
    32
  0
VERTEX
  8
0
  5
707C919
 10
5.00000
 20
275.209
 30
-6.11351e-14
  70
    32
  0
VERTEX
  8
0
  5
707C91A
 10
5.00000
 20
275.182
 30
-6.11306e-14
  70
    32
  0
VERTEX
  8
0
  5
707C91B
 10
5.00000
 20
275.154
 30
-6.11261e-14
  70
    32
  0
VERTEX
  8
0
  5
707C91C
 10
5.00000
 20
275.126
 30
-6.11216e-14
  70
    32
  0
VERTEX
  8
0
  5
707C91D
 10
5.00000
 20
275.099
 30
-6.11172e-14
  70
    32
  0
VERTEX
  8
0
  5
707C91E
 10
5.00000
 20
275.071
 30
-6.11128e-14
  70
    32
  0
VERTEX
  8
0
  5
707C91F
 10
5.00000
 20
275.043
 30
-6.11085e-14
  70
    32
  0
VERTEX
  8
0
  5
707C920
 10
5.00000
 20
275.016
 30
-6.11042e-14
  70
    32
  0
VERTEX
  8
0
  5
707C921
 10
5.00000
 20
274.988
 30
-6.11000e-14
  70
    32
  0
SEQEND
  8
0
  5
707C922
  0
LINE
  5
707C775
  8
0
  6
VERDECKT
 62
     1
 10
4.9999999999998703
 20
339.0574010311078723
 30
-0.0000000000000764
 11
4.9999999999998703
 21
341.4065538573909748
 31
-0.0000000000000769
210
0.0000000000000002
220
1.0
230
-0.0000000000000002
  0
LINE
  5
707C776
  8
0
  6
VERDECKT
 62
     1
 10
-29.9958546133823489
 20
339.0574010311078723
 30
-0.0000000000000753
 11
29.9958546133823312
 21
339.0574010311078723
 31
-0.0000000000000753
210
0.0000000000000002
220
1.0
230
-0.0000000000000002
  0
LINE
  5
707C777
  8
0
  6
VERDECKT
 62
     1
 10
-5.0000000000001288
 20
341.4065538573909748
 30
-0.0000000000000747
 11
-5.0000000000001288
 21
339.0574010311078723
 31
-0.0000000000000742
210
0.0000000000000002
220
1.0
230
-0.0000000000000002
  0
LINE
  5
707C778
  8
0
  6
VERDECKT
 62
     1
 10
-29.9958546133823489
 20
341.406553857390918
 30
-0.0000000000000758
 11
29.9958546133823312
 21
341.406553857390918
 31
-0.0000000000000758
210
0.0000000000000002
220
1.0
230
-0.0000000000000002
  0
POLYLINE
  8
0
  5
707C923
  62
1
  66
     1
 10
0.00000
 20
0.00000
 30
0.00000
  70
     8
  0
VERTEX
  8
0
  5
707C924
 10
5.00000
 20
336.792
 30
-7.48000e-14
  70
    32
  0
VERTEX
  8
0
  5
707C925
 10
5.00000
 20
336.816
 30
-7.48042e-14
  70
    32
  0
VERTEX
  8
0
  5
707C926
 10
5.00000
 20
336.839
 30
-7.48085e-14
  70
    32
  0
VERTEX
  8
0
  5
707C927
 10
5.00000
 20
336.863
 30
-7.48127e-14
  70
    32
  0
VERTEX
  8
0
  5
707C928
 10
5.00000
 20
336.886
 30
-7.48170e-14
  70
    32
  0
VERTEX
  8
0
  5
707C929
 10
5.00000
 20
336.910
 30
-7.48213e-14
  70
    32
  0
VERTEX
  8
0
  5
707C92A
 10
5.00000
 20
336.933
 30
-7.48257e-14
  70
    32
  0
VERTEX
  8
0
  5
707C92B
 10
5.00000
 20
336.957
 30
-7.48300e-14
  70
    32
  0
VERTEX
  8
0
  5
707C92C
 10
5.00000
 20
336.981
 30
-7.48344e-14
  70
    32
  0
VERTEX
  8
0
  5
707C92D
 10
5.00000
 20
337.004
 30
-7.48388e-14
  70
    32
  0
VERTEX
  8
0
  5
707C92E
 10
5.00000
 20
337.028
 30
-7.48432e-14
  70
    32
  0
VERTEX
  8
0
  5
707C92F
 10
5.00000
 20
337.051
 30
-7.48477e-14
  70
    32
  0
VERTEX
  8
0
  5
707C930
 10
5.00000
 20
337.075
 30
-7.48521e-14
  70
    32
  0
VERTEX
  8
0
  5
707C931
 10
5.00000
 20
337.099
 30
-7.48566e-14
  70
    32
  0
VERTEX
  8
0
  5
707C932
 10
5.00000
 20
337.122
 30
-7.48611e-14
  70
    32
  0
VERTEX
  8
0
  5
707C933
 10
5.00000
 20
337.146
 30
-7.48657e-14
  70
    32
  0
VERTEX
  8
0
  5
707C934
 10
5.00000
 20
337.169
 30
-7.48702e-14
  70
    32
  0
VERTEX
  8
0
  5
707C935
 10
5.00000
 20
337.193
 30
-7.48748e-14
  70
    32
  0
VERTEX
  8
0
  5
707C936
 10
5.00000
 20
337.217
 30
-7.48794e-14
  70
    32
  0
VERTEX
  8
0
  5
707C937
 10
5.00000
 20
337.240
 30
-7.48840e-14
  70
    32
  0
VERTEX
  8
0
  5
707C938
 10
5.00000
 20
337.264
 30
-7.48886e-14
  70
    32
  0
VERTEX
  8
0
  5
707C939
 10
5.00000
 20
337.288
 30
-7.48933e-14
  70
    32
  0
VERTEX
  8
0
  5
707C93A
 10
5.00000
 20
337.311
 30
-7.48980e-14
  70
    32
  0
VERTEX
  8
0
  5
707C93B
 10
5.00000
 20
337.335
 30
-7.49027e-14
  70
    32
  0
VERTEX
  8
0
  5
707C93C
 10
5.00000
 20
337.359
 30
-7.49074e-14
  70
    32
  0
VERTEX
  8
0
  5
707C93D
 10
5.00000
 20
337.382
 30
-7.49122e-14
  70
    32
  0
VERTEX
  8
0
  5
707C93E
 10
5.00000
 20
337.406
 30
-7.49170e-14
  70
    32
  0
VERTEX
  8
0
  5
707C93F
 10
5.00000
 20
337.430
 30
-7.49218e-14
  70
    32
  0
VERTEX
  8
0
  5
707C940
 10
5.00000
 20
337.454
 30
-7.49266e-14
  70
    32
  0
VERTEX
  8
0
  5
707C941
 10
5.00000
 20
337.477
 30
-7.49314e-14
  70
    32
  0
VERTEX
  8
0
  5
707C942
 10
5.00000
 20
337.501
 30
-7.49363e-14
  70
    32
  0
VERTEX
  8
0
  5
707C943
 10
5.00000
 20
337.525
 30
-7.49412e-14
  70
    32
  0
VERTEX
  8
0
  5
707C944
 10
5.00000
 20
337.549
 30
-7.49461e-14
  70
    32
  0
VERTEX
  8
0
  5
707C945
 10
5.00000
 20
337.572
 30
-7.49510e-14
  70
    32
  0
VERTEX
  8
0
  5
707C946
 10
5.00000
 20
337.596
 30
-7.49560e-14
  70
    32
  0
VERTEX
  8
0
  5
707C947
 10
5.00000
 20
337.620
 30
-7.49609e-14
  70
    32
  0
VERTEX
  8
0
  5
707C948
 10
5.00000
 20
337.644
 30
-7.49659e-14
  70
    32
  0
VERTEX
  8
0
  5
707C949
 10
5.00000
 20
337.667
 30
-7.49710e-14
  70
    32
  0
VERTEX
  8
0
  5
707C94A
 10
5.00000
 20
337.691
 30
-7.49760e-14
  70
    32
  0
VERTEX
  8
0
  5
707C94B
 10
5.00000
 20
337.715
 30
-7.49811e-14
  70
    32
  0
VERTEX
  8
0
  5
707C94C
 10
5.00000
 20
337.739
 30
-7.49862e-14
  70
    32
  0
VERTEX
  8
0
  5
707C94D
 10
5.00000
 20
337.763
 30
-7.49913e-14
  70
    32
  0
VERTEX
  8
0
  5
707C94E
 10
5.00000
 20
337.786
 30
-7.49964e-14
  70
    32
  0
VERTEX
  8
0
  5
707C94F
 10
5.00000
 20
337.810
 30
-7.50015e-14
  70
    32
  0
VERTEX
  8
0
  5
707C950
 10
5.00000
 20
337.834
 30
-7.50067e-14
  70
    32
  0
VERTEX
  8
0
  5
707C951
 10
5.00000
 20
337.858
 30
-7.50119e-14
  70
    32
  0
VERTEX
  8
0
  5
707C952
 10
5.00000
 20
337.882
 30
-7.50171e-14
  70
    32
  0
VERTEX
  8
0
  5
707C953
 10
5.00000
 20
337.905
 30
-7.50224e-14
  70
    32
  0
VERTEX
  8
0
  5
707C954
 10
5.00000
 20
337.929
 30
-7.50276e-14
  70
    32
  0
VERTEX
  8
0
  5
707C955
 10
5.00000
 20
337.953
 30
-7.50329e-14
  70
    32
  0
VERTEX
  8
0
  5
707C956
 10
5.00000
 20
337.977
 30
-7.50382e-14
  70
    32
  0
VERTEX
  8
0
  5
707C957
 10
5.00000
 20
338.001
 30
-7.50436e-14
  70
    32
  0
VERTEX
  8
0
  5
707C958
 10
5.00000
 20
338.025
 30
-7.50489e-14
  70
    32
  0
VERTEX
  8
0
  5
707C959
 10
5.00000
 20
338.049
 30
-7.50543e-14
  70
    32
  0
VERTEX
  8
0
  5
707C95A
 10
5.00000
 20
338.072
 30
-7.50597e-14
  70
    32
  0
VERTEX
  8
0
  5
707C95B
 10
5.00000
 20
338.096
 30
-7.50651e-14
  70
    32
  0
VERTEX
  8
0
  5
707C95C
 10
5.00000
 20
338.120
 30
-7.50705e-14
  70
    32
  0
VERTEX
  8
0
  5
707C95D
 10
5.00000
 20
338.144
 30
-7.50760e-14
  70
    32
  0
VERTEX
  8
0
  5
707C95E
 10
5.00000
 20
338.168
 30
-7.50815e-14
  70
    32
  0
VERTEX
  8
0
  5
707C95F
 10
5.00000
 20
338.192
 30
-7.50870e-14
  70
    32
  0
VERTEX
  8
0
  5
707C960
 10
5.00000
 20
338.216
 30
-7.50925e-14
  70
    32
  0
VERTEX
  8
0
  5
707C961
 10
5.00000
 20
338.240
 30
-7.50981e-14
  70
    32
  0
VERTEX
  8
0
  5
707C962
 10
5.00000
 20
338.264
 30
-7.51036e-14
  70
    32
  0
VERTEX
  8
0
  5
707C963
 10
5.00000
 20
338.288
 30
-7.51092e-14
  70
    32
  0
VERTEX
  8
0
  5
707C964
 10
5.00000
 20
338.312
 30
-7.51149e-14
  70
    32
  0
VERTEX
  8
0
  5
707C965
 10
5.00000
 20
338.336
 30
-7.51205e-14
  70
    32
  0
VERTEX
  8
0
  5
707C966
 10
5.00000
 20
338.360
 30
-7.51262e-14
  70
    32
  0
VERTEX
  8
0
  5
707C967
 10
5.00000
 20
338.384
 30
-7.51318e-14
  70
    32
  0
VERTEX
  8
0
  5
707C968
 10
5.00000
 20
338.408
 30
-7.51375e-14
  70
    32
  0
VERTEX
  8
0
  5
707C969
 10
5.00000
 20
338.432
 30
-7.51433e-14
  70
    32
  0
VERTEX
  8
0
  5
707C96A
 10
5.00000
 20
338.456
 30
-7.51490e-14
  70
    32
  0
VERTEX
  8
0
  5
707C96B
 10
5.00000
 20
338.480
 30
-7.51548e-14
  70
    32
  0
VERTEX
  8
0
  5
707C96C
 10
5.00000
 20
338.504
 30
-7.51606e-14
  70
    32
  0
VERTEX
  8
0
  5
707C96D
 10
5.00000
 20
338.528
 30
-7.51664e-14
  70
    32
  0
VERTEX
  8
0
  5
707C96E
 10
5.00000
 20
338.552
 30
-7.51723e-14
  70
    32
  0
VERTEX
  8
0
  5
707C96F
 10
5.00000
 20
338.576
 30
-7.51781e-14
  70
    32
  0
VERTEX
  8
0
  5
707C970
 10
5.00000
 20
338.600
 30
-7.51840e-14
  70
    32
  0
VERTEX
  8
0
  5
707C971
 10
5.00000
 20
338.624
 30
-7.51899e-14
  70
    32
  0
VERTEX
  8
0
  5
707C972
 10
5.00000
 20
338.648
 30
-7.51958e-14
  70
    32
  0
VERTEX
  8
0
  5
707C973
 10
5.00000
 20
338.672
 30
-7.52018e-14
  70
    32
  0
VERTEX
  8
0
  5
707C974
 10
5.00000
 20
338.696
 30
-7.52078e-14
  70
    32
  0
VERTEX
  8
0
  5
707C975
 10
5.00000
 20
338.720
 30
-7.52137e-14
  70
    32
  0
VERTEX
  8
0
  5
707C976
 10
5.00000
 20
338.744
 30
-7.52198e-14
  70
    32
  0
VERTEX
  8
0
  5
707C977
 10
5.00000
 20
338.768
 30
-7.52258e-14
  70
    32
  0
VERTEX
  8
0
  5
707C978
 10
5.00000
 20
338.792
 30
-7.52319e-14
  70
    32
  0
VERTEX
  8
0
  5
707C979
 10
5.00000
 20
338.816
 30
-7.52379e-14
  70
    32
  0
VERTEX
  8
0
  5
707C97A
 10
5.00000
 20
338.840
 30
-7.52441e-14
  70
    32
  0
VERTEX
  8
0
  5
707C97B
 10
5.00000
 20
338.864
 30
-7.52502e-14
  70
    32
  0
VERTEX
  8
0
  5
707C97C
 10
5.00000
 20
338.888
 30
-7.52563e-14
  70
    32
  0
VERTEX
  8
0
  5
707C97D
 10
5.00000
 20
338.913
 30
-7.52625e-14
  70
    32
  0
VERTEX
  8
0
  5
707C97E
 10
5.00000
 20
338.937
 30
-7.52687e-14
  70
    32
  0
VERTEX
  8
0
  5
707C97F
 10
5.00000
 20
338.961
 30
-7.52749e-14
  70
    32
  0
VERTEX
  8
0
  5
707C980
 10
5.00000
 20
338.985
 30
-7.52812e-14
  70
    32
  0
VERTEX
  8
0
  5
707C981
 10
5.00000
 20
339.009
 30
-7.52874e-14
  70
    32
  0
VERTEX
  8
0
  5
707C982
 10
5.00000
 20
339.033
 30
-7.52937e-14
  70
    32
  0
VERTEX
  8
0
  5
707C983
 10
5.00000
 20
339.057
 30
-7.53000e-14
  70
    32
  0
SEQEND
  8
0
  5
707C984
  0
LINE
  5
707C77A
  8
0
  6
VERDECKT
 62
     1
 10
29.2500000000018083
 20
336.7920048843075165
 30
-0.0000000000000748
 11
-29.2500000000018296
 21
336.7920048843075165
 31
-0.0000000000000748
210
0.0000000000000002
220
1.0
230
-0.0000000000000002
  0
POLYLINE
  8
0
  5
707C985
  62
1
  66
     1
 10
0.00000
 20
0.00000
 30
0.00000
  70
     8
  0
VERTEX
  8
0
  5
707C986
 10
-5.00000
 20
339.057
 30
-7.53000e-14
  70
    32
  0
VERTEX
  8
0
  5
707C987
 10
-5.00000
 20
339.033
 30
-7.52937e-14
  70
    32
  0
VERTEX
  8
0
  5
707C988
 10
-5.00000
 20
339.009
 30
-7.52874e-14
  70
    32
  0
VERTEX
  8
0
  5
707C989
 10
-5.00000
 20
338.985
 30
-7.52812e-14
  70
    32
  0
VERTEX
  8
0
  5
707C98A
 10
-5.00000
 20
338.961
 30
-7.52749e-14
  70
    32
  0
VERTEX
  8
0
  5
707C98B
 10
-5.00000
 20
338.937
 30
-7.52687e-14
  70
    32
  0
VERTEX
  8
0
  5
707C98C
 10
-5.00000
 20
338.913
 30
-7.52625e-14
  70
    32
  0
VERTEX
  8
0
  5
707C98D
 10
-5.00000
 20
338.888
 30
-7.52563e-14
  70
    32
  0
VERTEX
  8
0
  5
707C98E
 10
-5.00000
 20
338.864
 30
-7.52502e-14
  70
    32
  0
VERTEX
  8
0
  5
707C98F
 10
-5.00000
 20
338.840
 30
-7.52441e-14
  70
    32
  0
VERTEX
  8
0
  5
707C990
 10
-5.00000
 20
338.816
 30
-7.52379e-14
  70
    32
  0
VERTEX
  8
0
  5
707C991
 10
-5.00000
 20
338.792
 30
-7.52319e-14
  70
    32
  0
VERTEX
  8
0
  5
707C992
 10
-5.00000
 20
338.768
 30
-7.52258e-14
  70
    32
  0
VERTEX
  8
0
  5
707C993
 10
-5.00000
 20
338.744
 30
-7.52198e-14
  70
    32
  0
VERTEX
  8
0
  5
707C994
 10
-5.00000
 20
338.720
 30
-7.52137e-14
  70
    32
  0
VERTEX
  8
0
  5
707C995
 10
-5.00000
 20
338.696
 30
-7.52078e-14
  70
    32
  0
VERTEX
  8
0
  5
707C996
 10
-5.00000
 20
338.672
 30
-7.52018e-14
  70
    32
  0
VERTEX
  8
0
  5
707C997
 10
-5.00000
 20
338.648
 30
-7.51958e-14
  70
    32
  0
VERTEX
  8
0
  5
707C998
 10
-5.00000
 20
338.624
 30
-7.51899e-14
  70
    32
  0
VERTEX
  8
0
  5
707C999
 10
-5.00000
 20
338.600
 30
-7.51840e-14
  70
    32
  0
VERTEX
  8
0
  5
707C99A
 10
-5.00000
 20
338.576
 30
-7.51781e-14
  70
    32
  0
VERTEX
  8
0
  5
707C99B
 10
-5.00000
 20
338.552
 30
-7.51723e-14
  70
    32
  0
VERTEX
  8
0
  5
707C99C
 10
-5.00000
 20
338.528
 30
-7.51664e-14
  70
    32
  0
VERTEX
  8
0
  5
707C99D
 10
-5.00000
 20
338.504
 30
-7.51606e-14
  70
    32
  0
VERTEX
  8
0
  5
707C99E
 10
-5.00000
 20
338.480
 30
-7.51548e-14
  70
    32
  0
VERTEX
  8
0
  5
707C99F
 10
-5.00000
 20
338.456
 30
-7.51490e-14
  70
    32
  0
VERTEX
  8
0
  5
707C9A0
 10
-5.00000
 20
338.432
 30
-7.51433e-14
  70
    32
  0
VERTEX
  8
0
  5
707C9A1
 10
-5.00000
 20
338.408
 30
-7.51375e-14
  70
    32
  0
VERTEX
  8
0
  5
707C9A2
 10
-5.00000
 20
338.384
 30
-7.51318e-14
  70
    32
  0
VERTEX
  8
0
  5
707C9A3
 10
-5.00000
 20
338.360
 30
-7.51262e-14
  70
    32
  0
VERTEX
  8
0
  5
707C9A4
 10
-5.00000
 20
338.336
 30
-7.51205e-14
  70
    32
  0
VERTEX
  8
0
  5
707C9A5
 10
-5.00000
 20
338.312
 30
-7.51149e-14
  70
    32
  0
VERTEX
  8
0
  5
707C9A6
 10
-5.00000
 20
338.288
 30
-7.51092e-14
  70
    32
  0
VERTEX
  8
0
  5
707C9A7
 10
-5.00000
 20
338.264
 30
-7.51036e-14
  70
    32
  0
VERTEX
  8
0
  5
707C9A8
 10
-5.00000
 20
338.240
 30
-7.50981e-14
  70
    32
  0
VERTEX
  8
0
  5
707C9A9
 10
-5.00000
 20
338.216
 30
-7.50925e-14
  70
    32
  0
VERTEX
  8
0
  5
707C9AA
 10
-5.00000
 20
338.192
 30
-7.50870e-14
  70
    32
  0
VERTEX
  8
0
  5
707C9AB
 10
-5.00000
 20
338.168
 30
-7.50815e-14
  70
    32
  0
VERTEX
  8
0
  5
707C9AC
 10
-5.00000
 20
338.144
 30
-7.50760e-14
  70
    32
  0
VERTEX
  8
0
  5
707C9AD
 10
-5.00000
 20
338.120
 30
-7.50705e-14
  70
    32
  0
VERTEX
  8
0
  5
707C9AE
 10
-5.00000
 20
338.096
 30
-7.50651e-14
  70
    32
  0
VERTEX
  8
0
  5
707C9AF
 10
-5.00000
 20
338.072
 30
-7.50597e-14
  70
    32
  0
VERTEX
  8
0
  5
707C9B0
 10
-5.00000
 20
338.049
 30
-7.50543e-14
  70
    32
  0
VERTEX
  8
0
  5
707C9B1
 10
-5.00000
 20
338.025
 30
-7.50489e-14
  70
    32
  0
VERTEX
  8
0
  5
707C9B2
 10
-5.00000
 20
338.001
 30
-7.50436e-14
  70
    32
  0
VERTEX
  8
0
  5
707C9B3
 10
-5.00000
 20
337.977
 30
-7.50382e-14
  70
    32
  0
VERTEX
  8
0
  5
707C9B4
 10
-5.00000
 20
337.953
 30
-7.50329e-14
  70
    32
  0
VERTEX
  8
0
  5
707C9B5
 10
-5.00000
 20
337.929
 30
-7.50276e-14
  70
    32
  0
VERTEX
  8
0
  5
707C9B6
 10
-5.00000
 20
337.905
 30
-7.50224e-14
  70
    32
  0
VERTEX
  8
0
  5
707C9B7
 10
-5.00000
 20
337.882
 30
-7.50171e-14
  70
    32
  0
VERTEX
  8
0
  5
707C9B8
 10
-5.00000
 20
337.858
 30
-7.50119e-14
  70
    32
  0
VERTEX
  8
0
  5
707C9B9
 10
-5.00000
 20
337.834
 30
-7.50067e-14
  70
    32
  0
VERTEX
  8
0
  5
707C9BA
 10
-5.00000
 20
337.810
 30
-7.50015e-14
  70
    32
  0
VERTEX
  8
0
  5
707C9BB
 10
-5.00000
 20
337.786
 30
-7.49964e-14
  70
    32
  0
VERTEX
  8
0
  5
707C9BC
 10
-5.00000
 20
337.763
 30
-7.49913e-14
  70
    32
  0
VERTEX
  8
0
  5
707C9BD
 10
-5.00000
 20
337.739
 30
-7.49862e-14
  70
    32
  0
VERTEX
  8
0
  5
707C9BE
 10
-5.00000
 20
337.715
 30
-7.49811e-14
  70
    32
  0
VERTEX
  8
0
  5
707C9BF
 10
-5.00000
 20
337.691
 30
-7.49760e-14
  70
    32
  0
VERTEX
  8
0
  5
707C9C0
 10
-5.00000
 20
337.667
 30
-7.49710e-14
  70
    32
  0
VERTEX
  8
0
  5
707C9C1
 10
-5.00000
 20
337.644
 30
-7.49659e-14
  70
    32
  0
VERTEX
  8
0
  5
707C9C2
 10
-5.00000
 20
337.620
 30
-7.49609e-14
  70
    32
  0
VERTEX
  8
0
  5
707C9C3
 10
-5.00000
 20
337.596
 30
-7.49560e-14
  70
    32
  0
VERTEX
  8
0
  5
707C9C4
 10
-5.00000
 20
337.572
 30
-7.49510e-14
  70
    32
  0
VERTEX
  8
0
  5
707C9C5
 10
-5.00000
 20
337.549
 30
-7.49461e-14
  70
    32
  0
VERTEX
  8
0
  5
707C9C6
 10
-5.00000
 20
337.525
 30
-7.49412e-14
  70
    32
  0
VERTEX
  8
0
  5
707C9C7
 10
-5.00000
 20
337.501
 30
-7.49363e-14
  70
    32
  0
VERTEX
  8
0
  5
707C9C8
 10
-5.00000
 20
337.477
 30
-7.49314e-14
  70
    32
  0
VERTEX
  8
0
  5
707C9C9
 10
-5.00000
 20
337.454
 30
-7.49266e-14
  70
    32
  0
VERTEX
  8
0
  5
707C9CA
 10
-5.00000
 20
337.430
 30
-7.49218e-14
  70
    32
  0
VERTEX
  8
0
  5
707C9CB
 10
-5.00000
 20
337.406
 30
-7.49170e-14
  70
    32
  0
VERTEX
  8
0
  5
707C9CC
 10
-5.00000
 20
337.382
 30
-7.49122e-14
  70
    32
  0
VERTEX
  8
0
  5
707C9CD
 10
-5.00000
 20
337.359
 30
-7.49074e-14
  70
    32
  0
VERTEX
  8
0
  5
707C9CE
 10
-5.00000
 20
337.335
 30
-7.49027e-14
  70
    32
  0
VERTEX
  8
0
  5
707C9CF
 10
-5.00000
 20
337.311
 30
-7.48980e-14
  70
    32
  0
VERTEX
  8
0
  5
707C9D0
 10
-5.00000
 20
337.288
 30
-7.48933e-14
  70
    32
  0
VERTEX
  8
0
  5
707C9D1
 10
-5.00000
 20
337.264
 30
-7.48886e-14
  70
    32
  0
VERTEX
  8
0
  5
707C9D2
 10
-5.00000
 20
337.240
 30
-7.48840e-14
  70
    32
  0
VERTEX
  8
0
  5
707C9D3
 10
-5.00000
 20
337.217
 30
-7.48794e-14
  70
    32
  0
VERTEX
  8
0
  5
707C9D4
 10
-5.00000
 20
337.193
 30
-7.48748e-14
  70
    32
  0
VERTEX
  8
0
  5
707C9D5
 10
-5.00000
 20
337.169
 30
-7.48702e-14
  70
    32
  0
VERTEX
  8
0
  5
707C9D6
 10
-5.00000
 20
337.146
 30
-7.48657e-14
  70
    32
  0
VERTEX
  8
0
  5
707C9D7
 10
-5.00000
 20
337.122
 30
-7.48611e-14
  70
    32
  0
VERTEX
  8
0
  5
707C9D8
 10
-5.00000
 20
337.099
 30
-7.48566e-14
  70
    32
  0
VERTEX
  8
0
  5
707C9D9
 10
-5.00000
 20
337.075
 30
-7.48521e-14
  70
    32
  0
VERTEX
  8
0
  5
707C9DA
 10
-5.00000
 20
337.051
 30
-7.48477e-14
  70
    32
  0
VERTEX
  8
0
  5
707C9DB
 10
-5.00000
 20
337.028
 30
-7.48432e-14
  70
    32
  0
VERTEX
  8
0
  5
707C9DC
 10
-5.00000
 20
337.004
 30
-7.48388e-14
  70
    32
  0
VERTEX
  8
0
  5
707C9DD
 10
-5.00000
 20
336.981
 30
-7.48344e-14
  70
    32
  0
VERTEX
  8
0
  5
707C9DE
 10
-5.00000
 20
336.957
 30
-7.48300e-14
  70
    32
  0
VERTEX
  8
0
  5
707C9DF
 10
-5.00000
 20
336.933
 30
-7.48257e-14
  70
    32
  0
VERTEX
  8
0
  5
707C9E0
 10
-5.00000
 20
336.910
 30
-7.48213e-14
  70
    32
  0
VERTEX
  8
0
  5
707C9E1
 10
-5.00000
 20
336.886
 30
-7.48170e-14
  70
    32
  0
VERTEX
  8
0
  5
707C9E2
 10
-5.00000
 20
336.863
 30
-7.48127e-14
  70
    32
  0
VERTEX
  8
0
  5
707C9E3
 10
-5.00000
 20
336.839
 30
-7.48085e-14
  70
    32
  0
VERTEX
  8
0
  5
707C9E4
 10
-5.00000
 20
336.816
 30
-7.48042e-14
  70
    32
  0
VERTEX
  8
0
  5
707C9E5
 10
-5.00000
 20
336.792
 30
-7.48000e-14
  70
    32
  0
SEQEND
  8
0
  5
707C9E6
  0
POLYLINE
  8
0
  5
707C9E7
  62
1
  66
     1
 10
0.00000
 20
0.00000
 30
0.00000
  70
     8
  0
VERTEX
  8
0
  5
707C9E8
 10
5.00000
 20
341.407
 30
-7.58000e-14
  70
    32
  0
VERTEX
  8
0
  5
707C9E9
 10
5.00000
 20
341.538
 30
-7.58298e-14
  70
    32
  0
VERTEX
  8
0
  5
707C9EA
 10
5.00000
 20
341.670
 30
-7.58597e-14
  70
    32
  0
VERTEX
  8
0
  5
707C9EB
 10
5.00000
 20
341.802
 30
-7.58897e-14
  70
    32
  0
VERTEX
  8
0
  5
707C9EC
 10
5.00000
 20
341.934
 30
-7.59198e-14
  70
    32
  0
VERTEX
  8
0
  5
707C9ED
 10
5.00000
 20
342.067
 30
-7.59499e-14
  70
    32
  0
VERTEX
  8
0
  5
707C9EE
 10
5.00000
 20
342.200
 30
-7.59801e-14
  70
    32
  0
VERTEX
  8
0
  5
707C9EF
 10
5.00000
 20
342.334
 30
-7.60103e-14
  70
    32
  0
VERTEX
  8
0
  5
707C9F0
 10
5.00000
 20
342.468
 30
-7.60406e-14
  70
    32
  0
VERTEX
  8
0
  5
707C9F1
 10
5.00000
 20
342.603
 30
-7.60710e-14
  70
    32
  0
VERTEX
  8
0
  5
707C9F2
 10
5.00000
 20
342.738
 30
-7.61015e-14
  70
    32
  0
VERTEX
  8
0
  5
707C9F3
 10
5.00000
 20
342.873
 30
-7.61320e-14
  70
    32
  0
VERTEX
  8
0
  5
707C9F4
 10
5.00000
 20
343.009
 30
-7.61626e-14
  70
    32
  0
VERTEX
  8
0
  5
707C9F5
 10
5.00000
 20
343.145
 30
-7.61933e-14
  70
    32
  0
VERTEX
  8
0
  5
707C9F6
 10
5.00000
 20
343.282
 30
-7.62240e-14
  70
    32
  0
VERTEX
  8
0
  5
707C9F7
 10
5.00000
 20
343.419
 30
-7.62549e-14
  70
    32
  0
VERTEX
  8
0
  5
707C9F8
 10
5.00000
 20
343.556
 30
-7.62858e-14
  70
    32
  0
VERTEX
  8
0
  5
707C9F9
 10
5.00000
 20
343.694
 30
-7.63167e-14
  70
    32
  0
VERTEX
  8
0
  5
707C9FA
 10
5.00000
 20
343.833
 30
-7.63478e-14
  70
    32
  0
VERTEX
  8
0
  5
707C9FB
 10
5.00000
 20
343.971
 30
-7.63789e-14
  70
    32
  0
VERTEX
  8
0
  5
707C9FC
 10
5.00000
 20
344.111
 30
-7.64101e-14
  70
    32
  0
VERTEX
  8
0
  5
707C9FD
 10
5.00000
 20
344.250
 30
-7.64414e-14
  70
    32
  0
VERTEX
  8
0
  5
707C9FE
 10
5.00000
 20
344.390
 30
-7.64727e-14
  70
    32
  0
VERTEX
  8
0
  5
707C9FF
 10
5.00000
 20
344.531
 30
-7.65041e-14
  70
    32
  0
VERTEX
  8
0
  5
707CA00
 10
5.00000
 20
344.672
 30
-7.65356e-14
  70
    32
  0
VERTEX
  8
0
  5
707CA01
 10
5.00000
 20
344.813
 30
-7.65672e-14
  70
    32
  0
VERTEX
  8
0
  5
707CA02
 10
5.00000
 20
344.955
 30
-7.65988e-14
  70
    32
  0
VERTEX
  8
0
  5
707CA03
 10
5.00000
 20
345.097
 30
-7.66306e-14
  70
    32
  0
VERTEX
  8
0
  5
707CA04
 10
5.00000
 20
345.240
 30
-7.66624e-14
  70
    32
  0
VERTEX
  8
0
  5
707CA05
 10
5.00000
 20
345.383
 30
-7.66943e-14
  70
    32
  0
VERTEX
  8
0
  5
707CA06
 10
5.00000
 20
345.527
 30
-7.67262e-14
  70
    32
  0
VERTEX
  8
0
  5
707CA07
 10
5.00000
 20
345.671
 30
-7.67583e-14
  70
    32
  0
VERTEX
  8
0
  5
707CA08
 10
5.00000
 20
345.816
 30
-7.67904e-14
  70
    32
  0
VERTEX
  8
0
  5
707CA09
 10
5.00000
 20
345.961
 30
-7.68226e-14
  70
    32
  0
VERTEX
  8
0
  5
707CA0A
 10
5.00000
 20
346.106
 30
-7.68549e-14
  70
    32
  0
VERTEX
  8
0
  5
707CA0B
 10
5.00000
 20
346.252
 30
-7.68873e-14
  70
    32
  0
VERTEX
  8
0
  5
707CA0C
 10
5.00000
 20
346.398
 30
-7.69198e-14
  70
    32
  0
VERTEX
  8
0
  5
707CA0D
 10
5.00000
 20
346.545
 30
-7.69523e-14
  70
    32
  0
VERTEX
  8
0
  5
707CA0E
 10
5.00000
 20
346.693
 30
-7.69849e-14
  70
    32
  0
VERTEX
  8
0
  5
707CA0F
 10
5.00000
 20
346.840
 30
-7.70176e-14
  70
    32
  0
VERTEX
  8
0
  5
707CA10
 10
5.00000
 20
346.989
 30
-7.70504e-14
  70
    32
  0
VERTEX
  8
0
  5
707CA11
 10
5.00000
 20
347.137
 30
-7.70833e-14
  70
    32
  0
VERTEX
  8
0
  5
707CA12
 10
5.00000
 20
347.287
 30
-7.71163e-14
  70
    32
  0
VERTEX
  8
0
  5
707CA13
 10
5.00000
 20
347.436
 30
-7.71493e-14
  70
    32
  0
VERTEX
  8
0
  5
707CA14
 10
5.00000
 20
347.587
 30
-7.71825e-14
  70
    32
  0
VERTEX
  8
0
  5
707CA15
 10
5.00000
 20
347.737
 30
-7.72157e-14
  70
    32
  0
VERTEX
  8
0
  5
707CA16
 10
5.00000
 20
347.888
 30
-7.72490e-14
  70
    32
  0
VERTEX
  8
0
  5
707CA17
 10
5.00000
 20
348.040
 30
-7.72824e-14
  70
    32
  0
VERTEX
  8
0
  5
707CA18
 10
5.00000
 20
348.192
 30
-7.73159e-14
  70
    32
  0
VERTEX
  8
0
  5
707CA19
 10
5.00000
 20
348.345
 30
-7.73495e-14
  70
    32
  0
VERTEX
  8
0
  5
707CA1A
 10
5.00000
 20
348.498
 30
-7.73831e-14
  70
    32
  0
VERTEX
  8
0
  5
707CA1B
 10
5.00000
 20
348.652
 30
-7.74169e-14
  70
    32
  0
VERTEX
  8
0
  5
707CA1C
 10
5.00000
 20
348.806
 30
-7.74507e-14
  70
    32
  0
VERTEX
  8
0
  5
707CA1D
 10
5.00000
 20
348.961
 30
-7.74847e-14
  70
    32
  0
VERTEX
  8
0
  5
707CA1E
 10
5.00000
 20
349.116
 30
-7.75187e-14
  70
    32
  0
VERTEX
  8
0
  5
707CA1F
 10
5.00000
 20
349.271
 30
-7.75528e-14
  70
    32
  0
VERTEX
  8
0
  5
707CA20
 10
5.00000
 20
349.428
 30
-7.75871e-14
  70
    32
  0
VERTEX
  8
0
  5
707CA21
 10
5.00000
 20
349.584
 30
-7.76214e-14
  70
    32
  0
VERTEX
  8
0
  5
707CA22
 10
5.00000
 20
349.741
 30
-7.76558e-14
  70
    32
  0
VERTEX
  8
0
  5
707CA23
 10
5.00000
 20
349.899
 30
-7.76903e-14
  70
    32
  0
VERTEX
  8
0
  5
707CA24
 10
5.00000
 20
350.057
 30
-7.77249e-14
  70
    32
  0
VERTEX
  8
0
  5
707CA25
 10
5.00000
 20
350.216
 30
-7.77595e-14
  70
    32
  0
VERTEX
  8
0
  5
707CA26
 10
5.00000
 20
350.376
 30
-7.77943e-14
  70
    32
  0
VERTEX
  8
0
  5
707CA27
 10
5.00000
 20
350.535
 30
-7.78292e-14
  70
    32
  0
VERTEX
  8
0
  5
707CA28
 10
5.00000
 20
350.696
 30
-7.78642e-14
  70
    32
  0
VERTEX
  8
0
  5
707CA29
 10
5.00000
 20
350.857
 30
-7.78993e-14
  70
    32
  0
VERTEX
  8
0
  5
707CA2A
 10
5.00000
 20
351.018
 30
-7.79344e-14
  70
    32
  0
VERTEX
  8
0
  5
707CA2B
 10
5.00000
 20
351.180
 30
-7.79697e-14
  70
    32
  0
VERTEX
  8
0
  5
707CA2C
 10
5.00000
 20
351.343
 30
-7.80051e-14
  70
    32
  0
VERTEX
  8
0
  5
707CA2D
 10
5.00000
 20
351.506
 30
-7.80406e-14
  70
    32
  0
VERTEX
  8
0
  5
707CA2E
 10
5.00000
 20
351.669
 30
-7.80761e-14
  70
    32
  0
VERTEX
  8
0
  5
707CA2F
 10
5.00000
 20
351.833
 30
-7.81118e-14
  70
    32
  0
VERTEX
  8
0
  5
707CA30
 10
5.00000
 20
351.998
 30
-7.81476e-14
  70
    32
  0
VERTEX
  8
0
  5
707CA31
 10
5.00000
 20
352.163
 30
-7.81835e-14
  70
    32
  0
VERTEX
  8
0
  5
707CA32
 10
5.00000
 20
352.329
 30
-7.82195e-14
  70
    32
  0
VERTEX
  8
0
  5
707CA33
 10
5.00000
 20
352.496
 30
-7.82555e-14
  70
    32
  0
VERTEX
  8
0
  5
707CA34
 10
5.00000
 20
352.663
 30
-7.82917e-14
  70
    32
  0
VERTEX
  8
0
  5
707CA35
 10
5.00000
 20
352.830
 30
-7.83280e-14
  70
    32
  0
VERTEX
  8
0
  5
707CA36
 10
5.00000
 20
352.998
 30
-7.83644e-14
  70
    32
  0
VERTEX
  8
0
  5
707CA37
 10
5.00000
 20
353.167
 30
-7.84009e-14
  70
    32
  0
VERTEX
  8
0
  5
707CA38
 10
5.00000
 20
353.336
 30
-7.84376e-14
  70
    32
  0
VERTEX
  8
0
  5
707CA39
 10
5.00000
 20
353.506
 30
-7.84743e-14
  70
    32
  0
VERTEX
  8
0
  5
707CA3A
 10
5.00000
 20
353.676
 30
-7.85111e-14
  70
    32
  0
VERTEX
  8
0
  5
707CA3B
 10
5.00000
 20
353.847
 30
-7.85480e-14
  70
    32
  0
VERTEX
  8
0
  5
707CA3C
 10
5.00000
 20
354.019
 30
-7.85851e-14
  70
    32
  0
VERTEX
  8
0
  5
707CA3D
 10
5.00000
 20
354.191
 30
-7.86222e-14
  70
    32
  0
VERTEX
  8
0
  5
707CA3E
 10
5.00000
 20
354.364
 30
-7.86595e-14
  70
    32
  0
VERTEX
  8
0
  5
707CA3F
 10
5.00000
 20
354.537
 30
-7.86969e-14
  70
    32
  0
VERTEX
  8
0
  5
707CA40
 10
5.00000
 20
354.711
 30
-7.87344e-14
  70
    32
  0
VERTEX
  8
0
  5
707CA41
 10
5.00000
 20
354.886
 30
-7.87720e-14
  70
    32
  0
VERTEX
  8
0
  5
707CA42
 10
5.00000
 20
355.061
 30
-7.88097e-14
  70
    32
  0
VERTEX
  8
0
  5
707CA43
 10
5.00000
 20
355.237
 30
-7.88475e-14
  70
    32
  0
VERTEX
  8
0
  5
707CA44
 10
5.00000
 20
355.413
 30
-7.88855e-14
  70
    32
  0
VERTEX
  8
0
  5
707CA45
 10
5.00000
 20
355.590
 30
-7.89235e-14
  70
    32
  0
VERTEX
  8
0
  5
707CA46
 10
5.00000
 20
355.768
 30
-7.89617e-14
  70
    32
  0
VERTEX
  8
0
  5
707CA47
 10
5.00000
 20
355.946
 30
-7.90000e-14
  70
    32
  0
SEQEND
  8
0
  5
707CA48
  0
LINE
  5
707C77D
  8
0
  6
VERDECKT
 62
     1
 10
4.9999999999998561
 20
277.7383528488492175
 30
-0.0000000000000628
 11
4.9999999999998694
 21
336.7920048843071186
 31
-0.0000000000000759
210
0.0000000000000002
220
1.0
230
-0.0000000000000002
  0
POLYLINE
  8
0
  5
707CA49
  62
1
  66
     1
 10
0.00000
 20
0.00000
 30
0.00000
  70
     8
  0
VERTEX
  8
0
  5
707CA4A
 10
-5.00000
 20
355.946
 30
-7.90000e-14
  70
    32
  0
VERTEX
  8
0
  5
707CA4B
 10
-5.00000
 20
355.768
 30
-7.89617e-14
  70
    32
  0
VERTEX
  8
0
  5
707CA4C
 10
-5.00000
 20
355.590
 30
-7.89235e-14
  70
    32
  0
VERTEX
  8
0
  5
707CA4D
 10
-5.00000
 20
355.413
 30
-7.88855e-14
  70
    32
  0
VERTEX
  8
0
  5
707CA4E
 10
-5.00000
 20
355.237
 30
-7.88475e-14
  70
    32
  0
VERTEX
  8
0
  5
707CA4F
 10
-5.00000
 20
355.061
 30
-7.88097e-14
  70
    32
  0
VERTEX
  8
0
  5
707CA50
 10
-5.00000
 20
354.886
 30
-7.87720e-14
  70
    32
  0
VERTEX
  8
0
  5
707CA51
 10
-5.00000
 20
354.711
 30
-7.87344e-14
  70
    32
  0
VERTEX
  8
0
  5
707CA52
 10
-5.00000
 20
354.537
 30
-7.86969e-14
  70
    32
  0
VERTEX
  8
0
  5
707CA53
 10
-5.00000
 20
354.364
 30
-7.86595e-14
  70
    32
  0
VERTEX
  8
0
  5
707CA54
 10
-5.00000
 20
354.191
 30
-7.86222e-14
  70
    32
  0
VERTEX
  8
0
  5
707CA55
 10
-5.00000
 20
354.019
 30
-7.85851e-14
  70
    32
  0
VERTEX
  8
0
  5
707CA56
 10
-5.00000
 20
353.847
 30
-7.85480e-14
  70
    32
  0
VERTEX
  8
0
  5
707CA57
 10
-5.00000
 20
353.676
 30
-7.85111e-14
  70
    32
  0
VERTEX
  8
0
  5
707CA58
 10
-5.00000
 20
353.506
 30
-7.84743e-14
  70
    32
  0
VERTEX
  8
0
  5
707CA59
 10
-5.00000
 20
353.336
 30
-7.84376e-14
  70
    32
  0
VERTEX
  8
0
  5
707CA5A
 10
-5.00000
 20
353.167
 30
-7.84009e-14
  70
    32
  0
VERTEX
  8
0
  5
707CA5B
 10
-5.00000
 20
352.998
 30
-7.83644e-14
  70
    32
  0
VERTEX
  8
0
  5
707CA5C
 10
-5.00000
 20
352.830
 30
-7.83280e-14
  70
    32
  0
VERTEX
  8
0
  5
707CA5D
 10
-5.00000
 20
352.663
 30
-7.82917e-14
  70
    32
  0
VERTEX
  8
0
  5
707CA5E
 10
-5.00000
 20
352.496
 30
-7.82555e-14
  70
    32
  0
VERTEX
  8
0
  5
707CA5F
 10
-5.00000
 20
352.329
 30
-7.82195e-14
  70
    32
  0
VERTEX
  8
0
  5
707CA60
 10
-5.00000
 20
352.163
 30
-7.81835e-14
  70
    32
  0
VERTEX
  8
0
  5
707CA61
 10
-5.00000
 20
351.998
 30
-7.81476e-14
  70
    32
  0
VERTEX
  8
0
  5
707CA62
 10
-5.00000
 20
351.833
 30
-7.81118e-14
  70
    32
  0
VERTEX
  8
0
  5
707CA63
 10
-5.00000
 20
351.669
 30
-7.80761e-14
  70
    32
  0
VERTEX
  8
0
  5
707CA64
 10
-5.00000
 20
351.506
 30
-7.80406e-14
  70
    32
  0
VERTEX
  8
0
  5
707CA65
 10
-5.00000
 20
351.343
 30
-7.80051e-14
  70
    32
  0
VERTEX
  8
0
  5
707CA66
 10
-5.00000
 20
351.180
 30
-7.79697e-14
  70
    32
  0
VERTEX
  8
0
  5
707CA67
 10
-5.00000
 20
351.018
 30
-7.79344e-14
  70
    32
  0
VERTEX
  8
0
  5
707CA68
 10
-5.00000
 20
350.857
 30
-7.78993e-14
  70
    32
  0
VERTEX
  8
0
  5
707CA69
 10
-5.00000
 20
350.696
 30
-7.78642e-14
  70
    32
  0
VERTEX
  8
0
  5
707CA6A
 10
-5.00000
 20
350.535
 30
-7.78292e-14
  70
    32
  0
VERTEX
  8
0
  5
707CA6B
 10
-5.00000
 20
350.376
 30
-7.77943e-14
  70
    32
  0
VERTEX
  8
0
  5
707CA6C
 10
-5.00000
 20
350.216
 30
-7.77595e-14
  70
    32
  0
VERTEX
  8
0
  5
707CA6D
 10
-5.00000
 20
350.057
 30
-7.77249e-14
  70
    32
  0
VERTEX
  8
0
  5
707CA6E
 10
-5.00000
 20
349.899
 30
-7.76903e-14
  70
    32
  0
VERTEX
  8
0
  5
707CA6F
 10
-5.00000
 20
349.741
 30
-7.76558e-14
  70
    32
  0
VERTEX
  8
0
  5
707CA70
 10
-5.00000
 20
349.584
 30
-7.76214e-14
  70
    32
  0
VERTEX
  8
0
  5
707CA71
 10
-5.00000
 20
349.428
 30
-7.75871e-14
  70
    32
  0
VERTEX
  8
0
  5
707CA72
 10
-5.00000
 20
349.271
 30
-7.75528e-14
  70
    32
  0
VERTEX
  8
0
  5
707CA73
 10
-5.00000
 20
349.116
 30
-7.75187e-14
  70
    32
  0
VERTEX
  8
0
  5
707CA74
 10
-5.00000
 20
348.961
 30
-7.74847e-14
  70
    32
  0
VERTEX
  8
0
  5
707CA75
 10
-5.00000
 20
348.806
 30
-7.74507e-14
  70
    32
  0
VERTEX
  8
0
  5
707CA76
 10
-5.00000
 20
348.652
 30
-7.74169e-14
  70
    32
  0
VERTEX
  8
0
  5
707CA77
 10
-5.00000
 20
348.498
 30
-7.73831e-14
  70
    32
  0
VERTEX
  8
0
  5
707CA78
 10
-5.00000
 20
348.345
 30
-7.73495e-14
  70
    32
  0
VERTEX
  8
0
  5
707CA79
 10
-5.00000
 20
348.192
 30
-7.73159e-14
  70
    32
  0
VERTEX
  8
0
  5
707CA7A
 10
-5.00000
 20
348.040
 30
-7.72824e-14
  70
    32
  0
VERTEX
  8
0
  5
707CA7B
 10
-5.00000
 20
347.888
 30
-7.72490e-14
  70
    32
  0
VERTEX
  8
0
  5
707CA7C
 10
-5.00000
 20
347.737
 30
-7.72157e-14
  70
    32
  0
VERTEX
  8
0
  5
707CA7D
 10
-5.00000
 20
347.587
 30
-7.71825e-14
  70
    32
  0
VERTEX
  8
0
  5
707CA7E
 10
-5.00000
 20
347.436
 30
-7.71493e-14
  70
    32
  0
VERTEX
  8
0
  5
707CA7F
 10
-5.00000
 20
347.287
 30
-7.71163e-14
  70
    32
  0
VERTEX
  8
0
  5
707CA80
 10
-5.00000
 20
347.137
 30
-7.70833e-14
  70
    32
  0
VERTEX
  8
0
  5
707CA81
 10
-5.00000
 20
346.989
 30
-7.70504e-14
  70
    32
  0
VERTEX
  8
0
  5
707CA82
 10
-5.00000
 20
346.840
 30
-7.70176e-14
  70
    32
  0
VERTEX
  8
0
  5
707CA83
 10
-5.00000
 20
346.693
 30
-7.69849e-14
  70
    32
  0
VERTEX
  8
0
  5
707CA84
 10
-5.00000
 20
346.545
 30
-7.69523e-14
  70
    32
  0
VERTEX
  8
0
  5
707CA85
 10
-5.00000
 20
346.398
 30
-7.69198e-14
  70
    32
  0
VERTEX
  8
0
  5
707CA86
 10
-5.00000
 20
346.252
 30
-7.68873e-14
  70
    32
  0
VERTEX
  8
0
  5
707CA87
 10
-5.00000
 20
346.106
 30
-7.68549e-14
  70
    32
  0
VERTEX
  8
0
  5
707CA88
 10
-5.00000
 20
345.961
 30
-7.68226e-14
  70
    32
  0
VERTEX
  8
0
  5
707CA89
 10
-5.00000
 20
345.816
 30
-7.67904e-14
  70
    32
  0
VERTEX
  8
0
  5
707CA8A
 10
-5.00000
 20
345.671
 30
-7.67583e-14
  70
    32
  0
VERTEX
  8
0
  5
707CA8B
 10
-5.00000
 20
345.527
 30
-7.67262e-14
  70
    32
  0
VERTEX
  8
0
  5
707CA8C
 10
-5.00000
 20
345.383
 30
-7.66943e-14
  70
    32
  0
VERTEX
  8
0
  5
707CA8D
 10
-5.00000
 20
345.240
 30
-7.66624e-14
  70
    32
  0
VERTEX
  8
0
  5
707CA8E
 10
-5.00000
 20
345.097
 30
-7.66306e-14
  70
    32
  0
VERTEX
  8
0
  5
707CA8F
 10
-5.00000
 20
344.955
 30
-7.65988e-14
  70
    32
  0
VERTEX
  8
0
  5
707CA90
 10
-5.00000
 20
344.813
 30
-7.65672e-14
  70
    32
  0
VERTEX
  8
0
  5
707CA91
 10
-5.00000
 20
344.672
 30
-7.65356e-14
  70
    32
  0
VERTEX
  8
0
  5
707CA92
 10
-5.00000
 20
344.531
 30
-7.65041e-14
  70
    32
  0
VERTEX
  8
0
  5
707CA93
 10
-5.00000
 20
344.390
 30
-7.64727e-14
  70
    32
  0
VERTEX
  8
0
  5
707CA94
 10
-5.00000
 20
344.250
 30
-7.64414e-14
  70
    32
  0
VERTEX
  8
0
  5
707CA95
 10
-5.00000
 20
344.111
 30
-7.64101e-14
  70
    32
  0
VERTEX
  8
0
  5
707CA96
 10
-5.00000
 20
343.971
 30
-7.63789e-14
  70
    32
  0
VERTEX
  8
0
  5
707CA97
 10
-5.00000
 20
343.833
 30
-7.63478e-14
  70
    32
  0
VERTEX
  8
0
  5
707CA98
 10
-5.00000
 20
343.694
 30
-7.63167e-14
  70
    32
  0
VERTEX
  8
0
  5
707CA99
 10
-5.00000
 20
343.556
 30
-7.62858e-14
  70
    32
  0
VERTEX
  8
0
  5
707CA9A
 10
-5.00000
 20
343.419
 30
-7.62549e-14
  70
    32
  0
VERTEX
  8
0
  5
707CA9B
 10
-5.00000
 20
343.282
 30
-7.62240e-14
  70
    32
  0
VERTEX
  8
0
  5
707CA9C
 10
-5.00000
 20
343.145
 30
-7.61933e-14
  70
    32
  0
VERTEX
  8
0
  5
707CA9D
 10
-5.00000
 20
343.009
 30
-7.61626e-14
  70
    32
  0
VERTEX
  8
0
  5
707CA9E
 10
-5.00000
 20
342.873
 30
-7.61320e-14
  70
    32
  0
VERTEX
  8
0
  5
707CA9F
 10
-5.00000
 20
342.738
 30
-7.61015e-14
  70
    32
  0
VERTEX
  8
0
  5
707CAA0
 10
-5.00000
 20
342.603
 30
-7.60710e-14
  70
    32
  0
VERTEX
  8
0
  5
707CAA1
 10
-5.00000
 20
342.468
 30
-7.60406e-14
  70
    32
  0
VERTEX
  8
0
  5
707CAA2
 10
-5.00000
 20
342.334
 30
-7.60103e-14
  70
    32
  0
VERTEX
  8
0
  5
707CAA3
 10
-5.00000
 20
342.200
 30
-7.59801e-14
  70
    32
  0
VERTEX
  8
0
  5
707CAA4
 10
-5.00000
 20
342.067
 30
-7.59499e-14
  70
    32
  0
VERTEX
  8
0
  5
707CAA5
 10
-5.00000
 20
341.934
 30
-7.59198e-14
  70
    32
  0
VERTEX
  8
0
  5
707CAA6
 10
-5.00000
 20
341.802
 30
-7.58897e-14
  70
    32
  0
VERTEX
  8
0
  5
707CAA7
 10
-5.00000
 20
341.670
 30
-7.58597e-14
  70
    32
  0
VERTEX
  8
0
  5
707CAA8
 10
-5.00000
 20
341.538
 30
-7.58298e-14
  70
    32
  0
VERTEX
  8
0
  5
707CAA9
 10
-5.00000
 20
341.407
 30
-7.58000e-14
  70
    32
  0
SEQEND
  8
0
  5
707CAAA
  0
POLYLINE
  8
0
  5
707CAAB
  62
1
  66
     1
 10
0.00000
 20
0.00000
 30
0.00000
  70
     8
  0
VERTEX
  8
0
  5
707CAAC
 10
5.00000
 20
355.946
 30
-7.90000e-14
  70
    32
  0
VERTEX
  8
0
  5
707CAAD
 10
4.89395
 20
355.928
 30
-7.89958e-14
  70
    32
  0
VERTEX
  8
0
  5
707CAAE
 10
4.78796
 20
355.911
 30
-7.89917e-14
  70
    32
  0
VERTEX
  8
0
  5
707CAAF
 10
4.68201
 20
355.894
 30
-7.89877e-14
  70
    32
  0
VERTEX
  8
0
  5
707CAB0
 10
4.57611
 20
355.877
 30
-7.89838e-14
  70
    32
  0
VERTEX
  8
0
  5
707CAB1
 10
4.47026
 20
355.861
 30
-7.89799e-14
  70
    32
  0
VERTEX
  8
0
  5
707CAB2
 10
4.36445
 20
355.845
 30
-7.89762e-14
  70
    32
  0
VERTEX
  8
0
  5
707CAB3
 10
4.25869
 20
355.829
 30
-7.89725e-14
  70
    32
  0
VERTEX
  8
0
  5
707CAB4
 10
4.15297
 20
355.814
 30
-7.89690e-14
  70
    32
  0
VERTEX
  8
0
  5
707CAB5
 10
4.04730
 20
355.800
 30
-7.89655e-14
  70
    32
  0
VERTEX
  8
0
  5
707CAB6
 10
3.94166
 20
355.785
 30
-7.89621e-14
  70
    32
  0
VERTEX
  8
0
  5
707CAB7
 10
3.83607
 20
355.771
 30
-7.89588e-14
  70
    32
  0
VERTEX
  8
0
  5
707CAB8
 10
3.73051
 20
355.758
 30
-7.89556e-14
  70
    32
  0
VERTEX
  8
0
  5
707CAB9
 10
3.62500
 20
355.744
 30
-7.89525e-14
  70
    32
  0
VERTEX
  8
0
  5
707CABA
 10
3.51952
 20
355.732
 30
-7.89495e-14
  70
    32
  0
VERTEX
  8
0
  5
707CABB
 10
3.41407
 20
355.719
 30
-7.89465e-14
  70
    32
  0
VERTEX
  8
0
  5
707CABC
 10
3.30867
 20
355.707
 30
-7.89437e-14
  70
    32
  0
VERTEX
  8
0
  5
707CABD
 10
3.20329
 20
355.695
 30
-7.89409e-14
  70
    32
  0
VERTEX
  8
0
  5
707CABE
 10
3.09795
 20
355.684
 30
-7.89382e-14
  70
    32
  0
VERTEX
  8
0
  5
707CABF
 10
2.99264
 20
355.673
 30
-7.89357e-14
  70
    32
  0
VERTEX
  8
0
  5
707CAC0
 10
2.88736
 20
355.663
 30
-7.89332e-14
  70
    32
  0
VERTEX
  8
0
  5
707CAC1
 10
2.78211
 20
355.652
 30
-7.89308e-14
  70
    32
  0
VERTEX
  8
0
  5
707CAC2
 10
2.67689
 20
355.643
 30
-7.89285e-14
  70
    32
  0
VERTEX
  8
0
  5
707CAC3
 10
2.57169
 20
355.633
 30
-7.89262e-14
  70
    32
  0
VERTEX
  8
0
  5
707CAC4
 10
2.46653
 20
355.624
 30
-7.89241e-14
  70
    32
  0
VERTEX
  8
0
  5
707CAC5
 10
2.36138
 20
355.615
 30
-7.89221e-14
  70
    32
  0
VERTEX
  8
0
  5
707CAC6
 10
2.25626
 20
355.607
 30
-7.89201e-14
  70
    32
  0
VERTEX
  8
0
  5
707CAC7
 10
2.15117
 20
355.599
 30
-7.89183e-14
  70
    32
  0
VERTEX
  8
0
  5
707CAC8
 10
2.04609
 20
355.592
 30
-7.89165e-14
  70
    32
  0
VERTEX
  8
0
  5
707CAC9
 10
1.94104
 20
355.585
 30
-7.89148e-14
  70
    32
  0
VERTEX
  8
0
  5
707CACA
 10
1.83601
 20
355.578
 30
-7.89132e-14
  70
    32
  0
VERTEX
  8
0
  5
707CACB
 10
1.73099
 20
355.571
 30
-7.89117e-14
  70
    32
  0
VERTEX
  8
0
  5
707CACC
 10
1.62600
 20
355.565
 30
-7.89103e-14
  70
    32
  0
VERTEX
  8
0
  5
707CACD
 10
1.52102
 20
355.560
 30
-7.89089e-14
  70
    32
  0
VERTEX
  8
0
  5
707CACE
 10
1.41605
 20
355.554
 30
-7.89077e-14
  70
    32
  0
VERTEX
  8
0
  5
707CACF
 10
1.31110
 20
355.550
 30
-7.89065e-14
  70
    32
  0
VERTEX
  8
0
  5
707CAD0
 10
1.20616
 20
355.545
 30
-7.89055e-14
  70
    32
  0
VERTEX
  8
0
  5
707CAD1
 10
1.10124
 20
355.541
 30
-7.89045e-14
  70
    32
  0
VERTEX
  8
0
  5
707CAD2
 10
0.996324
 20
355.537
 30
-7.89036e-14
  70
    32
  0
VERTEX
  8
0
  5
707CAD3
 10
0.891421
 20
355.534
 30
-7.89028e-14
  70
    32
  0
VERTEX
  8
0
  5
707CAD4
 10
0.786526
 20
355.531
 30
-7.89021e-14
  70
    32
  0
VERTEX
  8
0
  5
707CAD5
 10
0.681640
 20
355.528
 30
-7.89015e-14
  70
    32
  0
VERTEX
  8
0
  5
707CAD6
 10
0.576761
 20
355.526
 30
-7.89010e-14
  70
    32
  0
VERTEX
  8
0
  5
707CAD7
 10
0.471887
 20
355.524
 30
-7.89005e-14
  70
    32
  0
VERTEX
  8
0
  5
707CAD8
 10
0.367018
 20
355.522
 30
-7.89002e-14
  70
    32
  0
VERTEX
  8
0
  5
707CAD9
 10
0.262153
 20
355.521
 30
-7.88999e-14
  70
    32
  0
VERTEX
  8
0
  5
707CADA
 10
0.157291
 20
355.521
 30
-7.88997e-14
  70
    32
  0
VERTEX
  8
0
  5
707CADB
 10
0.0524301
 20
355.520
 30
-7.88996e-14
  70
    32
  0
VERTEX
  8
0
  5
707CADC
 10
-0.0524301
 20
355.520
 30
-7.88996e-14
  70
    32
  0
VERTEX
  8
0
  5
707CADD
 10
-0.157291
 20
355.521
 30
-7.88997e-14
  70
    32
  0
VERTEX
  8
0
  5
707CADE
 10
-0.262153
 20
355.521
 30
-7.88999e-14
  70
    32
  0
VERTEX
  8
0
  5
707CADF
 10
-0.367018
 20
355.522
 30
-7.89002e-14
  70
    32
  0
VERTEX
  8
0
  5
707CAE0
 10
-0.471887
 20
355.524
 30
-7.89005e-14
  70
    32
  0
VERTEX
  8
0
  5
707CAE1
 10
-0.576761
 20
355.526
 30
-7.89010e-14
  70
    32
  0
VERTEX
  8
0
  5
707CAE2
 10
-0.681640
 20
355.528
 30
-7.89015e-14
  70
    32
  0
VERTEX
  8
0
  5
707CAE3
 10
-0.786526
 20
355.531
 30
-7.89021e-14
  70
    32
  0
VERTEX
  8
0
  5
707CAE4
 10
-0.891421
 20
355.534
 30
-7.89028e-14
  70
    32
  0
VERTEX
  8
0
  5
707CAE5
 10
-0.996324
 20
355.537
 30
-7.89036e-14
  70
    32
  0
VERTEX
  8
0
  5
707CAE6
 10
-1.10124
 20
355.541
 30
-7.89045e-14
  70
    32
  0
VERTEX
  8
0
  5
707CAE7
 10
-1.20616
 20
355.545
 30
-7.89055e-14
  70
    32
  0
VERTEX
  8
0
  5
707CAE8
 10
-1.31110
 20
355.550
 30
-7.89065e-14
  70
    32
  0
VERTEX
  8
0
  5
707CAE9
 10
-1.41605
 20
355.554
 30
-7.89077e-14
  70
    32
  0
VERTEX
  8
0
  5
707CAEA
 10
-1.52102
 20
355.560
 30
-7.89089e-14
  70
    32
  0
VERTEX
  8
0
  5
707CAEB
 10
-1.62600
 20
355.565
 30
-7.89103e-14
  70
    32
  0
VERTEX
  8
0
  5
707CAEC
 10
-1.73099
 20
355.571
 30
-7.89117e-14
  70
    32
  0
VERTEX
  8
0
  5
707CAED
 10
-1.83601
 20
355.578
 30
-7.89132e-14
  70
    32
  0
VERTEX
  8
0
  5
707CAEE
 10
-1.94104
 20
355.585
 30
-7.89148e-14
  70
    32
  0
VERTEX
  8
0
  5
707CAEF
 10
-2.04609
 20
355.592
 30
-7.89165e-14
  70
    32
  0
VERTEX
  8
0
  5
707CAF0
 10
-2.15117
 20
355.599
 30
-7.89183e-14
  70
    32
  0
VERTEX
  8
0
  5
707CAF1
 10
-2.25626
 20
355.607
 30
-7.89201e-14
  70
    32
  0
VERTEX
  8
0
  5
707CAF2
 10
-2.36138
 20
355.615
 30
-7.89221e-14
  70
    32
  0
VERTEX
  8
0
  5
707CAF3
 10
-2.46653
 20
355.624
 30
-7.89241e-14
  70
    32
  0
VERTEX
  8
0
  5
707CAF4
 10
-2.57169
 20
355.633
 30
-7.89262e-14
  70
    32
  0
VERTEX
  8
0
  5
707CAF5
 10
-2.67689
 20
355.643
 30
-7.89285e-14
  70
    32
  0
VERTEX
  8
0
  5
707CAF6
 10
-2.78211
 20
355.652
 30
-7.89308e-14
  70
    32
  0
VERTEX
  8
0
  5
707CAF7
 10
-2.88736
 20
355.663
 30
-7.89332e-14
  70
    32
  0
VERTEX
  8
0
  5
707CAF8
 10
-2.99264
 20
355.673
 30
-7.89357e-14
  70
    32
  0
VERTEX
  8
0
  5
707CAF9
 10
-3.09795
 20
355.684
 30
-7.89382e-14
  70
    32
  0
VERTEX
  8
0
  5
707CAFA
 10
-3.20329
 20
355.695
 30
-7.89409e-14
  70
    32
  0
VERTEX
  8
0
  5
707CAFB
 10
-3.30867
 20
355.707
 30
-7.89437e-14
  70
    32
  0
VERTEX
  8
0
  5
707CAFC
 10
-3.41407
 20
355.719
 30
-7.89465e-14
  70
    32
  0
VERTEX
  8
0
  5
707CAFD
 10
-3.51952
 20
355.732
 30
-7.89495e-14
  70
    32
  0
VERTEX
  8
0
  5
707CAFE
 10
-3.62500
 20
355.744
 30
-7.89525e-14
  70
    32
  0
VERTEX
  8
0
  5
707CAFF
 10
-3.73051
 20
355.758
 30
-7.89556e-14
  70
    32
  0
VERTEX
  8
0
  5
707CB00
 10
-3.83607
 20
355.771
 30
-7.89588e-14
  70
    32
  0
VERTEX
  8
0
  5
707CB01
 10
-3.94166
 20
355.785
 30
-7.89621e-14
  70
    32
  0
VERTEX
  8
0
  5
707CB02
 10
-4.04730
 20
355.800
 30
-7.89655e-14
  70
    32
  0
VERTEX
  8
0
  5
707CB03
 10
-4.15297
 20
355.814
 30
-7.89690e-14
  70
    32
  0
VERTEX
  8
0
  5
707CB04
 10
-4.25869
 20
355.829
 30
-7.89725e-14
  70
    32
  0
VERTEX
  8
0
  5
707CB05
 10
-4.36445
 20
355.845
 30
-7.89762e-14
  70
    32
  0
VERTEX
  8
0
  5
707CB06
 10
-4.47026
 20
355.861
 30
-7.89799e-14
  70
    32
  0
VERTEX
  8
0
  5
707CB07
 10
-4.57611
 20
355.877
 30
-7.89838e-14
  70
    32
  0
VERTEX
  8
0
  5
707CB08
 10
-4.68201
 20
355.894
 30
-7.89877e-14
  70
    32
  0
VERTEX
  8
0
  5
707CB09
 10
-4.78796
 20
355.911
 30
-7.89917e-14
  70
    32
  0
VERTEX
  8
0
  5
707CB0A
 10
-4.89395
 20
355.928
 30
-7.89958e-14
  70
    32
  0
VERTEX
  8
0
  5
707CB0B
 10
-5.00000
 20
355.946
 30
-7.90000e-14
  70
    32
  0
SEQEND
  8
0
  5
707CB0C
  0
LINE
  5
707C780
  8
0
  6
VERDECKT
 62
     1
 10
-42.2000000000000526
 20
358.2041189223331799
 30
-0.0000000000000795
 11
42.2000000000000384
 21
358.2041189223331799
 31
-0.0000000000000795
210
0.0000000000000002
220
1.0
230
-0.0000000000000002
  0
LINE
  5
707C781
  8
0
  6
VERDECKT
 62
     1
 10
-43.6367776566740417
 20
373.9363433895381945
 30
-0.000000000000083
 11
43.6367776566740417
 21
373.9363433895381945
 31
-0.000000000000083
210
0.0000000000000002
220
1.0
230
-0.0000000000000002
  0
LINE
  5
707C782
  8
0
  6
VERDECKT
 62
     1
 10
60.0000000000002132
 20
277.7812460676626074
 30
-0.0000000000000617
 11
-60.0000000000002416
 21
277.7812460676626074
 31
-0.0000000000000617
210
0.0000000000000002
220
1.0
230
-0.0000000000000002
  0
LINE
  5
707C783
  8
0
  6
VERDECKT
 62
     1
 10
-5.0000000000001297
 20
336.7920048843071186
 30
-0.0000000000000737
 11
-5.000000000000143
 21
277.7383528488492175
 31
-0.0000000000000606
210
0.0000000000000002
220
1.0
230
-0.0000000000000002
  0
LINE
  5
707C784
  8
0
  6
VERDECKT
 62
     1
 10
4.9999999999999636
 20
277.7812460676626074
 30
-0.0000000000000628
 11
6.9999999999999654
 21
279.7812460676626074
 31
-0.0000000000000632
210
0.0000000000000002
220
1.0
230
-0.0000000000000002
  0
LINE
  5
707C785
  8
0
  6
VERDECKT
 62
     1
 10
-5.0000000000000346
 20
277.7812460676626074
 30
-0.0000000000000606
 11
-7.0000000000000338
 21
279.7812460676626074
 31
-0.000000000000061
210
0.0000000000000002
220
1.0
230
-0.0000000000000002
  0
LINE
  5
707C786
  8
0
  6
VERDECKT
 62
     1
 10
-58.0000000000002487
 20
279.7812460676626074
 30
-0.0000000000000621
 11
58.0000000000002132
 21
279.7812460676626074
 31
-0.0000000000000621
210
0.0000000000000002
220
1.0
230
-0.0000000000000002
  0
LINE
  5
707C787
  8
0
  6
VERDECKT
 62
     1
 10
26.5000000000018296
 20
274.9883528488492175
 30
-0.0000000000000611
 11
26.5000000000018296
 21
269.7812460676626074
 31
-0.0000000000000599
210
0.0000000000000002
220
1.0
230
-0.0000000000000002
  0
LINE
  5
707C788
  8
0
  6
VERDECKT
 62
     1
 10
-26.5000000000018083
 20
274.9883528488492175
 30
-0.0000000000000611
 11
-26.5000000000018083
 21
269.7812460676626074
 31
-0.0000000000000599
210
0.0000000000000002
220
1.0
230
-0.0000000000000002
  0
LINE
  5
707C789
  8
0
  6
VERDECKT
 62
     1
 10
-26.5000000000018403
 20
274.9883528488492175
 30
-0.0000000000000611
 11
-29.2500000000018296
 21
277.7383528488491038
 31
-0.0000000000000617
210
0.0000000000000002
220
1.0
230
-0.0000000000000002
  0
LINE
  5
707C78A
  8
0
  6
VERDECKT
 62
     1
 10
26.5000000000018616
 20
274.9883528488492175
 30
-0.0000000000000611
 11
29.2500000000018083
 21
277.7383528488491038
 31
-0.0000000000000617
210
0.0000000000000002
220
1.0
230
-0.0000000000000002
  0
LINE
  5
707C78B
  8
0
  6
VERDECKT
 62
     1
 10
29.9958546133823312
 20
341.406553857390918
 30
-0.0000000000000758
 11
29.9958546133823312
 21
339.0574010311078723
 31
-0.0000000000000753
210
0.0000000000000002
220
1.0
230
-0.0000000000000002
  0
LINE
  5
707C78C
  8
0
  6
VERDECKT
 62
     1
 10
-29.9958546133823489
 20
341.406553857390918
 30
-0.0000000000000758
 11
-29.9958546133823489
 21
339.0574010311078723
 31
-0.0000000000000753
210
0.0000000000000002
220
1.0
230
-0.0000000000000002
  0
LINE
  5
707C78D
  8
0
  6
VERDECKT
 62
     1
 10
-29.2500000000018296
 20
336.7920048843075165
 30
-0.0000000000000748
 11
-29.9958546133823489
 21
339.0574010311078723
 31
-0.0000000000000753
210
0.0000000000000002
220
1.0
230
-0.0000000000000002
  0
LINE
  5
707C78E
  8
0
  6
VERDECKT
 62
     1
 10
29.2500000000018083
 20
336.7920048843075165
 30
-0.0000000000000748
 11
29.9958546133823312
 21
339.0574010311078723
 31
-0.0000000000000753
210
0.0000000000000002
220
1.0
230
-0.0000000000000002
  0
LINE
  5
707C78F
  8
0
  6
VERDECKT
 62
     1
 10
-29.9958546133823809
 20
341.4065538573909748
 30
-0.0000000000000758
 11
-42.2000000000000313
 21
358.2041189223331799
 31
-0.0000000000000795
210
0.0000000000000002
220
1.0
230
-0.0000000000000002
  0
LINE
  5
707C790
  8
0
  6
VERDECKT
 62
     1
 10
29.9958546133823702
 20
341.4065538573909748
 30
-0.0000000000000758
 11
42.2000000000000099
 21
358.2041189223331799
 31
-0.0000000000000795
210
0.0000000000000002
220
1.0
230
-0.0000000000000002
  0
LINE
  5
707C791
  8
0
  6
VERDECKT
 62
     1
 10
42.2000000000000099
 20
373.9363433895381945
 30
-0.000000000000083
 11
42.2000000000000099
 21
358.2041189223331799
 31
-0.0000000000000795
210
0.0000000000000002
220
1.0
230
-0.0000000000000002
  0
LINE
  5
707C792
  8
0
  6
VERDECKT
 62
     1
 10
-42.2000000000000099
 20
373.9363433895381945
 30
-0.000000000000083
 11
-42.2000000000000171
 21
358.2041189223331799
 31
-0.0000000000000795
210
0.0000000000000002
220
1.0
230
-0.0000000000000002
  0
LINE
  5
707C793
  8
0
  6
VERDECKT
 62
     1
 10
-43.6367776566740275
 20
373.9363433895381945
 30
-0.000000000000083
 11
-64.04824340415324
 21
419.7812460676626074
 31
-0.0000000000000932
210
0.0000000000000002
220
1.0
230
-0.0000000000000002
  0
LINE
  5
707C794
  8
0
  6
VERDECKT
 62
     1
 10
43.6367776566740133
 20
373.9363433895381945
 30
-0.000000000000083
 11
64.0482434041532684
 21
419.7812460676626074
 31
-0.0000000000000932
210
0.0000000000000002
220
1.0
230
-0.0000000000000002
  0
LINE
  5
707C795
  8
0
  6
VERDECKT
 62
     1
 10
-60.0000000000002487
 20
269.7812460676626074
 30
-0.0000000000000599
 11
-60.0000000000002416
 21
277.7812460676626074
 31
-0.0000000000000617
210
0.0000000000000002
220
1.0
230
-0.0000000000000002
  0
LINE
  5
707C796
  8
0
  6
VERDECKT
 62
     1
 10
60.000000000000199
 20
269.7812460676626074
 30
-0.0000000000000599
 11
60.0000000000002132
 21
277.7812460676626074
 31
-0.0000000000000617
210
0.0000000000000002
220
1.0
230
-0.0000000000000002
  0
LINE
  5
707C797
  8
0
  6
VERDECKT
 62
     1
 10
29.2500000000018083
 20
336.7920048843075165
 30
-0.0000000000000748
 11
29.2500000000018012
 21
277.7383528488491038
 31
-0.0000000000000617
210
0.0000000000000002
220
1.0
230
-0.0000000000000002
  0
LINE
  5
707C798
  8
0
  6
VERDECKT
 62
     1
 10
-29.2500000000018296
 20
336.7920048843075165
 30
-0.0000000000000748
 11
-29.250000000001851
 21
277.7383528488491038
 31
-0.0000000000000617
210
0.0000000000000002
220
1.0
230
-0.0000000000000002
  0
LINE
  5
707C799
  8
0
  6
VERDECKT
 62
     1
 10
-50.0000000000002416
 20
277.7812460676626074
 30
-0.0000000000000617
 11
-52.00000000000027
 21
279.7812460676626074
 31
-0.0000000000000621
210
0.0000000000000002
220
1.0
230
-0.0000000000000002
  0
LINE
  5
707C79A
  8
0
  6
VERDECKT
 62
     1
 10
50.000000000000199
 20
277.7812460676626074
 30
-0.0000000000000617
 11
52.0000000000002274
 21
279.7812460676626074
 31
-0.0000000000000621
210
0.0000000000000002
220
1.0
230
-0.0000000000000002
  0
LINE
  5
707C79B
  8
0
  6
VERDECKT
 62
     1
 10
58.000000000000199
 20
279.7812460676626074
 30
-0.0000000000000621
 11
60.0000000000002132
 21
277.7812460676626074
 31
-0.0000000000000617
210
0.0000000000000002
220
1.0
230
-0.0000000000000002
  0
LINE
  5
707C79C
  8
0
  6
VERDECKT
 62
     1
 10
-58.0000000000002416
 20
279.7812460676626074
 30
-0.0000000000000621
 11
-60.0000000000002487
 21
277.7812460676626074
 31
-0.0000000000000617
210
0.0000000000000002
220
1.0
230
-0.0000000000000002
  0
LINE
  5
707C79D
  8
0
  6
VERDECKT
 62
     1
 10
-50.0000000000002629
 20
269.7812460676626074
 30
-0.0000000000000599
 11
-50.0000000000002487
 21
277.7812460676626074
 31
-0.0000000000000617
210
0.0000000000000002
220
1.0
230
-0.0000000000000002
  0
LINE
  5
707C79E
  8
0
  6
VERDECKT
 62
     1
 10
50.0000000000002132
 20
269.7812460676626074
 30
-0.0000000000000599
 11
50.0000000000002132
 21
277.7812460676626074
 31
-0.0000000000000617
210
0.0000000000000002
220
1.0
230
-0.0000000000000002
  0
ENDBLK
  5
707C79F
  8
0
  0
BLOCK
  8
0
  2
A$CF76FBA2A
 70
     0
 10
0.0
 20
0.0
 30
0.0
  3
A$CF76FBA2A
  1

  0
LINE
  5
707C7A2
  8
0
  6
CONTINUOUS
 10
-59.5087712549572529
 20
157.7812460676624084
 30
-0.000000000000035
 11
-59.4874134834337127
 21
157.7812460676624084
 31
-0.000000000000035
210
-0.0000000000000002
220
1.0
230
-0.0000000000000002
  0
LINE
  5
707C7A3
  8
0
  6
CONTINUOUS
 10
-57.5044997006525023
 20
159.7812460676624084
 30
-0.0000000000000355
 11
-57.5087712549572387
 21
159.7812460676624084
 31
-0.0000000000000355
210
-0.0000000000000002
220
1.0
230
-0.0000000000000002
  0
LINE
  5
707C7A4
  8
0
  6
CONTINUOUS
 10
-70.0249375003910615
 20
-0.2187539323374978
 30
0.0
 11
70.0249375003908341
 21
-0.2187539323374013
 31
0.0
210
-0.0000000000000002
220
1.0
230
-0.0000000000000002
  0
LINE
  5
707C7A5
  8
0
  6
CONTINUOUS
 10
-59.4874134834335706
 20
157.7812460676624937
 30
-0.000000000000035
 11
60.0000000000002132
 21
157.7812460676624937
 31
-0.000000000000035
210
-0.0000000000000002
220
1.0
230
-0.0000000000000002
  0
LINE
  5
707C7A6
  8
0
  6
CONTINUOUS
 10
58.0000000000000426
 20
159.7812460676624937
 30
-0.0000000000000355
 11
-57.5044997006525023
 21
159.7812460676624084
 31
-0.0000000000000355
210
-0.0000000000000002
220
1.0
230
-0.0000000000000002
  0
LINE
  5
707C7A7
  8
0
  6
CONTINUOUS
 10
-75.7500000000006111
 20
149.7812460676624937
 30
-0.0000000000000333
 11
75.7500000000000853
 21
149.7812460676626927
 31
-0.0000000000000333
210
-0.0000000000000002
220
1.0
230
-0.0000000000000002
  0
LINE
  5
707C7A8
  8
0
  6
CONTINUOUS
 10
-59.5087712549572601
 20
157.7812460676624084
 30
-0.000000000000035
 11
-59.5087712549572529
 21
149.7812460676624937
 31
-0.0000000000000333
210
-0.0000000000000002
220
1.0
230
-0.0000000000000002
  0
LINE
  5
707C7A9
  8
0
  6
CONTINUOUS
 10
-57.5087712549572103
 20
159.7812460676624084
 30
-0.0000000000000355
 11
-59.5087712549572529
 21
157.7812460676624084
 31
-0.000000000000035
210
-0.0000000000000002
220
1.0
230
-0.0000000000000002
  0
LINE
  5
707C7AA
  8
0
  6
CONTINUOUS
 10
60.0000000000000924
 20
149.7812460676626074
 30
-0.0000000000000333
 11
60.0000000000000782
 21
157.7812460676624937
 31
-0.000000000000035
210
-0.0000000000000002
220
1.0
230
-0.0000000000000002
  0
LINE
  5
707C7AB
  8
0
  6
CONTINUOUS
 10
58.0000000000001705
 20
159.7812460676624937
 30
-0.0000000000000355
 11
60.0000000000001492
 21
157.7812460676624937
 31
-0.000000000000035
210
-0.0000000000000002
220
1.0
230
-0.0000000000000002
  0
ARC
  5
707C7AC
  8
0
  6
CONTINUOUS
 10
70.0249375003911467
 20
4.7812460676625941
 30
0.0
 40
4.9999999999999831
210
0.0
220
-0.0000000000000002
230
-1.0
 50
270.0
 51
359.7135234897240252
  0
ARC
  5
707C7AD
  8
0
  6
CONTINUOUS
 10
-70.024937500390692
 20
4.7812460676627087
 30
0.0
 40
4.9999999999999929
210
0.0
220
-0.0000000000000002
230
-1.0
 50
180.2864765102777085
 51
269.9999999999997158
  0
LINE
  5
707C7AE
  8
0
  6
CONTINUOUS
 10
-75.0248750015629611
 20
4.756246380156723
 30
-0.0000000000000011
 11
-75.7500000000005826
 21
149.7812460676624937
 31
-0.0000000000000333
210
-0.0000000000000002
220
1.0
230
-0.0000000000000002
  0
LINE
  5
707C7AF
  8
0
  6
CONTINUOUS
 10
75.0248750015625774
 20
4.756246380156786
 30
-0.0000000000000011
 11
75.7500000000000142
 21
149.7812460676626074
 31
-0.0000000000000333
210
-0.0000000000000002
220
1.0
230
-0.0000000000000002
  0
LINE
  5
707C7B0
  8
0
  6
CONTINUOUS
 10
-76.5000000000005684
 20
419.7812460676626074
 30
-0.0000000000000932
 11
76.5000000000000853
 21
419.7812460676626074
 31
-0.0000000000000932
210
-0.0000000000000002
220
1.0
230
-0.0000000000000002
  0
LINE
  5
707C7B1
  8
0
  6
CONTINUOUS
 10
-75.7500000000004832
 20
269.7812460676627211
 30
-0.0000000000000599
 11
75.7500000000001421
 21
269.7812460676627211
 31
-0.0000000000000599
210
-0.0000000000000002
220
1.0
230
-0.0000000000000002
  0
LINE
  5
707C7B2
  8
0
  6
CONTINUOUS
 10
-75.7500000000004832
 20
269.7812460676626074
 30
-0.0000000000000599
 11
-76.5000000000005684
 21
419.7812460676627211
 31
-0.0000000000000932
210
-0.0000000000000002
220
1.0
230
-0.0000000000000002
  0
LINE
  5
707C7B3
  8
0
  6
CONTINUOUS
 10
75.7500000000001563
 20
269.7812460676626074
 30
-0.0000000000000599
 11
76.5000000000000853
 21
419.7812460676626074
 31
-0.0000000000000932
210
-0.0000000000000002
220
1.0
230
-0.0000000000000002
  0
LINE
  5
707C7B4
  8
0
  6
VERDECKT
 62
     1
 10
-26.0240273593482598
 20
149.7812460676626927
 30
-0.0000000000000333
 11
-26.0240273593481604
 21
-0.218753932337569
 31
0.0
210
-0.0000000000000002
220
1.0
230
-0.0000000000000002
  0
LINE
  5
707C7B5
  8
0
  6
VERDECKT
 62
     1
 10
-40.2500000000019682
 20
149.7812460676624937
 30
-0.0000000000000333
 11
-40.2500000000018616
 21
-0.2187539323375153
 31
0.0
210
-0.0000000000000002
220
1.0
230
-0.0000000000000002
  0
LINE
  5
707C7B6
  8
0
  6
VERDECKT
 62
     1
 10
50.0000000000001705
 20
157.7812460676626074
 30
-0.000000000000035
 11
52.0000000000001421
 21
159.7812460676626074
 31
-0.0000000000000355
210
-0.0000000000000002
220
1.0
230
-0.0000000000000002
  0
LINE
  5
707C7B7
  8
0
  6
VERDECKT
 62
     1
 10
50.0000000000000995
 20
149.7812460676626074
 30
-0.0000000000000333
 11
50.0000000000000924
 21
157.7812460676626074
 31
-0.000000000000035
210
-0.0000000000000002
220
1.0
230
-0.0000000000000002
  0
LINE
  5
707C7B8
  8
0
  6
VERDECKT
 62
     1
 10
26.5000000000014992
 20
149.7812460676626927
 30
-0.0000000000000333
 11
26.5000000000015987
 21
-0.2187539323374437
 31
0.0
210
-0.0000000000000002
220
1.0
230
-0.0000000000000002
  0
LINE
  5
707C7B9
  8
0
  6
VERDECKT
 62
     1
 10
-26.0240273593481497
 20
269.7812460676627211
 30
-0.0000000000000599
 11
-26.0240273593481497
 21
274.9883528488492743
 31
-0.0000000000000611
210
-0.0000000000000002
220
1.0
230
-0.0000000000000002
  0
LINE
  5
707C7BA
  8
0
  6
VERDECKT
 62
     1
 10
-26.0240273593481817
 20
274.9883528488492743
 30
-0.0000000000000611
 11
26.5000000000016804
 21
274.9883528488492743
 31
-0.0000000000000611
210
-0.0000000000000002
220
1.0
230
-0.0000000000000002
  0
POLYLINE
  8
0
  5
707CB0D
  62
1
  66
     1
 10
0.00000
 20
0.00000
 30
0.00000
  70
     8
  0
VERTEX
  8
0
  5
707CB0E
 10
-26.0240
 20
274.988
 30
-6.11000e-14
  70
    32
  0
VERTEX
  8
0
  5
707CB0F
 10
-26.0521
 20
275.016
 30
-6.11042e-14
  70
    32
  0
VERTEX
  8
0
  5
707CB10
 10
-26.0801
 20
275.043
 30
-6.11085e-14
  70
    32
  0
VERTEX
  8
0
  5
707CB11
 10
-26.1082
 20
275.071
 30
-6.11128e-14
  70
    32
  0
VERTEX
  8
0
  5
707CB12
 10
-26.1363
 20
275.099
 30
-6.11172e-14
  70
    32
  0
VERTEX
  8
0
  5
707CB13
 10
-26.1644
 20
275.126
 30
-6.11216e-14
  70
    32
  0
VERTEX
  8
0
  5
707CB14
 10
-26.1926
 20
275.154
 30
-6.11261e-14
  70
    32
  0
VERTEX
  8
0
  5
707CB15
 10
-26.2208
 20
275.182
 30
-6.11306e-14
  70
    32
  0
VERTEX
  8
0
  5
707CB16
 10
-26.2490
 20
275.209
 30
-6.11351e-14
  70
    32
  0
VERTEX
  8
0
  5
707CB17
 10
-26.2773
 20
275.237
 30
-6.11397e-14
  70
    32
  0
VERTEX
  8
0
  5
707CB18
 10
-26.3055
 20
275.265
 30
-6.11444e-14
  70
    32
  0
VERTEX
  8
0
  5
707CB19
 10
-26.3339
 20
275.293
 30
-6.11490e-14
  70
    32
  0
VERTEX
  8
0
  5
707CB1A
 10
-26.3622
 20
275.321
 30
-6.11538e-14
  70
    32
  0
VERTEX
  8
0
  5
707CB1B
 10
-26.3906
 20
275.348
 30
-6.11585e-14
  70
    32
  0
VERTEX
  8
0
  5
707CB1C
 10
-26.4190
 20
275.376
 30
-6.11633e-14
  70
    32
  0
VERTEX
  8
0
  5
707CB1D
 10
-26.4474
 20
275.404
 30
-6.11682e-14
  70
    32
  0
VERTEX
  8
0
  5
707CB1E
 10
-26.4758
 20
275.432
 30
-6.11731e-14
  70
    32
  0
VERTEX
  8
0
  5
707CB1F
 10
-26.5043
 20
275.460
 30
-6.11780e-14
  70
    32
  0
VERTEX
  8
0
  5
707CB20
 10
-26.5328
 20
275.488
 30
-6.11830e-14
  70
    32
  0
VERTEX
  8
0
  5
707CB21
 10
-26.5614
 20
275.516
 30
-6.11880e-14
  70
    32
  0
VERTEX
  8
0
  5
707CB22
 10
-26.5899
 20
275.544
 30
-6.11931e-14
  70
    32
  0
VERTEX
  8
0
  5
707CB23
 10
-26.6185
 20
275.572
 30
-6.11982e-14
  70
    32
  0
VERTEX
  8
0
  5
707CB24
 10
-26.6472
 20
275.601
 30
-6.12034e-14
  70
    32
  0
VERTEX
  8
0
  5
707CB25
 10
-26.6758
 20
275.629
 30
-6.12086e-14
  70
    32
  0
VERTEX
  8
0
  5
707CB26
 10
-26.7045
 20
275.657
 30
-6.12139e-14
  70
    32
  0
VERTEX
  8
0
  5
707CB27
 10
-26.7332
 20
275.685
 30
-6.12192e-14
  70
    32
  0
VERTEX
  8
0
  5
707CB28
 10
-26.7620
 20
275.713
 30
-6.12245e-14
  70
    32
  0
VERTEX
  8
0
  5
707CB29
 10
-26.7908
 20
275.742
 30
-6.12299e-14
  70
    32
  0
VERTEX
  8
0
  5
707CB2A
 10
-26.8196
 20
275.770
 30
-6.12353e-14
  70
    32
  0
VERTEX
  8
0
  5
707CB2B
 10
-26.8484
 20
275.798
 30
-6.12408e-14
  70
    32
  0
VERTEX
  8
0
  5
707CB2C
 10
-26.8773
 20
275.827
 30
-6.12463e-14
  70
    32
  0
VERTEX
  8
0
  5
707CB2D
 10
-26.9062
 20
275.855
 30
-6.12518e-14
  70
    32
  0
VERTEX
  8
0
  5
707CB2E
 10
-26.9351
 20
275.884
 30
-6.12575e-14
  70
    32
  0
VERTEX
  8
0
  5
707CB2F
 10
-26.9640
 20
275.912
 30
-6.12631e-14
  70
    32
  0
VERTEX
  8
0
  5
707CB30
 10
-26.9930
 20
275.941
 30
-6.12688e-14
  70
    32
  0
VERTEX
  8
0
  5
707CB31
 10
-27.0220
 20
275.969
 30
-6.12745e-14
  70
    32
  0
VERTEX
  8
0
  5
707CB32
 10
-27.0511
 20
275.998
 30
-6.12803e-14
  70
    32
  0
VERTEX
  8
0
  5
707CB33
 10
-27.0802
 20
276.026
 30
-6.12861e-14
  70
    32
  0
VERTEX
  8
0
  5
707CB34
 10
-27.1093
 20
276.055
 30
-6.12920e-14
  70
    32
  0
VERTEX
  8
0
  5
707CB35
 10
-27.1384
 20
276.084
 30
-6.12979e-14
  70
    32
  0
VERTEX
  8
0
  5
707CB36
 10
-27.1676
 20
276.112
 30
-6.13039e-14
  70
    32
  0
VERTEX
  8
0
  5
707CB37
 10
-27.1968
 20
276.141
 30
-6.13099e-14
  70
    32
  0
VERTEX
  8
0
  5
707CB38
 10
-27.2260
 20
276.170
 30
-6.13159e-14
  70
    32
  0
VERTEX
  8
0
  5
707CB39
 10
-27.2552
 20
276.198
 30
-6.13220e-14
  70
    32
  0
VERTEX
  8
0
  5
707CB3A
 10
-27.2845
 20
276.227
 30
-6.13281e-14
  70
    32
  0
VERTEX
  8
0
  5
707CB3B
 10
-27.3138
 20
276.256
 30
-6.13343e-14
  70
    32
  0
VERTEX
  8
0
  5
707CB3C
 10
-27.3432
 20
276.285
 30
-6.13406e-14
  70
    32
  0
VERTEX
  8
0
  5
707CB3D
 10
-27.3726
 20
276.314
 30
-6.13468e-14
  70
    32
  0
VERTEX
  8
0
  5
707CB3E
 10
-27.4020
 20
276.343
 30
-6.13531e-14
  70
    32
  0
VERTEX
  8
0
  5
707CB3F
 10
-27.4314
 20
276.372
 30
-6.13595e-14
  70
    32
  0
VERTEX
  8
0
  5
707CB40
 10
-27.4609
 20
276.401
 30
-6.13659e-14
  70
    32
  0
VERTEX
  8
0
  5
707CB41
 10
-27.4904
 20
276.430
 30
-6.13723e-14
  70
    32
  0
VERTEX
  8
0
  5
707CB42
 10
-27.5199
 20
276.459
 30
-6.13788e-14
  70
    32
  0
VERTEX
  8
0
  5
707CB43
 10
-27.5495
 20
276.488
 30
-6.13854e-14
  70
    32
  0
VERTEX
  8
0
  5
707CB44
 10
-27.5791
 20
276.517
 30
-6.13919e-14
  70
    32
  0
VERTEX
  8
0
  5
707CB45
 10
-27.6087
 20
276.546
 30
-6.13986e-14
  70
    32
  0
VERTEX
  8
0
  5
707CB46
 10
-27.6383
 20
276.575
 30
-6.14052e-14
  70
    32
  0
VERTEX
  8
0
  5
707CB47
 10
-27.6680
 20
276.605
 30
-6.14119e-14
  70
    32
  0
VERTEX
  8
0
  5
707CB48
 10
-27.6977
 20
276.634
 30
-6.14187e-14
  70
    32
  0
VERTEX
  8
0
  5
707CB49
 10
-27.7275
 20
276.663
 30
-6.14255e-14
  70
    32
  0
VERTEX
  8
0
  5
707CB4A
 10
-27.7573
 20
276.692
 30
-6.14323e-14
  70
    32
  0
VERTEX
  8
0
  5
707CB4B
 10
-27.7871
 20
276.722
 30
-6.14392e-14
  70
    32
  0
VERTEX
  8
0
  5
707CB4C
 10
-27.8169
 20
276.751
 30
-6.14462e-14
  70
    32
  0
VERTEX
  8
0
  5
707CB4D
 10
-27.8468
 20
276.780
 30
-6.14531e-14
  70
    32
  0
VERTEX
  8
0
  5
707CB4E
 10
-27.8767
 20
276.810
 30
-6.14602e-14
  70
    32
  0
VERTEX
  8
0
  5
707CB4F
 10
-27.9066
 20
276.839
 30
-6.14672e-14
  70
    32
  0
VERTEX
  8
0
  5
707CB50
 10
-27.9366
 20
276.869
 30
-6.14743e-14
  70
    32
  0
VERTEX
  8
0
  5
707CB51
 10
-27.9666
 20
276.898
 30
-6.14815e-14
  70
    32
  0
VERTEX
  8
0
  5
707CB52
 10
-27.9966
 20
276.928
 30
-6.14887e-14
  70
    32
  0
VERTEX
  8
0
  5
707CB53
 10
-28.0267
 20
276.958
 30
-6.14959e-14
  70
    32
  0
VERTEX
  8
0
  5
707CB54
 10
-28.0568
 20
276.987
 30
-6.15032e-14
  70
    32
  0
VERTEX
  8
0
  5
707CB55
 10
-28.0869
 20
277.017
 30
-6.15106e-14
  70
    32
  0
VERTEX
  8
0
  5
707CB56
 10
-28.1170
 20
277.046
 30
-6.15179e-14
  70
    32
  0
VERTEX
  8
0
  5
707CB57
 10
-28.1472
 20
277.076
 30
-6.15254e-14
  70
    32
  0
VERTEX
  8
0
  5
707CB58
 10
-28.1774
 20
277.106
 30
-6.15328e-14
  70
    32
  0
VERTEX
  8
0
  5
707CB59
 10
-28.2077
 20
277.136
 30
-6.15403e-14
  70
    32
  0
VERTEX
  8
0
  5
707CB5A
 10
-28.2380
 20
277.166
 30
-6.15479e-14
  70
    32
  0
VERTEX
  8
0
  5
707CB5B
 10
-28.2683
 20
277.195
 30
-6.15555e-14
  70
    32
  0
VERTEX
  8
0
  5
707CB5C
 10
-28.2986
 20
277.225
 30
-6.15631e-14
  70
    32
  0
VERTEX
  8
0
  5
707CB5D
 10
-28.3290
 20
277.255
 30
-6.15708e-14
  70
    32
  0
VERTEX
  8
0
  5
707CB5E
 10
-28.3594
 20
277.285
 30
-6.15786e-14
  70
    32
  0
VERTEX
  8
0
  5
707CB5F
 10
-28.3899
 20
277.315
 30
-6.15864e-14
  70
    32
  0
VERTEX
  8
0
  5
707CB60
 10
-28.4203
 20
277.345
 30
-6.15942e-14
  70
    32
  0
VERTEX
  8
0
  5
707CB61
 10
-28.4508
 20
277.375
 30
-6.16021e-14
  70
    32
  0
VERTEX
  8
0
  5
707CB62
 10
-28.4814
 20
277.405
 30
-6.16100e-14
  70
    32
  0
VERTEX
  8
0
  5
707CB63
 10
-28.5120
 20
277.435
 30
-6.16179e-14
  70
    32
  0
VERTEX
  8
0
  5
707CB64
 10
-28.5426
 20
277.466
 30
-6.16259e-14
  70
    32
  0
VERTEX
  8
0
  5
707CB65
 10
-28.5732
 20
277.496
 30
-6.16340e-14
  70
    32
  0
VERTEX
  8
0
  5
707CB66
 10
-28.6039
 20
277.526
 30
-6.16421e-14
  70
    32
  0
VERTEX
  8
0
  5
707CB67
 10
-28.6346
 20
277.556
 30
-6.16502e-14
  70
    32
  0
VERTEX
  8
0
  5
707CB68
 10
-28.6653
 20
277.586
 30
-6.16584e-14
  70
    32
  0
VERTEX
  8
0
  5
707CB69
 10
-28.6961
 20
277.617
 30
-6.16666e-14
  70
    32
  0
VERTEX
  8
0
  5
707CB6A
 10
-28.7269
 20
277.647
 30
-6.16749e-14
  70
    32
  0
VERTEX
  8
0
  5
707CB6B
 10
-28.7577
 20
277.677
 30
-6.16832e-14
  70
    32
  0
VERTEX
  8
0
  5
707CB6C
 10
-28.7886
 20
277.708
 30
-6.16916e-14
  70
    32
  0
VERTEX
  8
0
  5
707CB6D
 10
-28.8195
 20
277.738
 30
-6.17000e-14
  70
    32
  0
SEQEND
  8
0
  5
707CB6E
  0
LINE
  5
707C7BC
  8
0
  6
VERDECKT
 62
     1
 10
-28.8194812583451814
 20
277.7383528488491038
 30
-0.0000000000000617
 11
29.2500000000017799
 21
277.7383528488491038
 31
-0.0000000000000617
210
-0.0000000000000002
220
1.0
230
-0.0000000000000002
  0
LINE
  5
707C7BD
  8
0
  6
VERDECKT
 62
     1
 10
-29.5761947178331397
 20
339.057401031107986
 30
-0.0000000000000753
 11
29.99585461338215
 21
339.057401031107986
 31
-0.0000000000000753
210
-0.0000000000000002
220
1.0
230
-0.0000000000000002
  0
LINE
  5
707C7BE
  8
0
  6
VERDECKT
 62
     1
 10
-29.5761947178331503
 20
341.4065538573910885
 30
-0.0000000000000758
 11
-29.5761947178331503
 21
339.057401031107986
 31
-0.0000000000000753
210
-0.0000000000000002
220
1.0
230
-0.0000000000000002
  0
LINE
  5
707C7BF
  8
0
  6
VERDECKT
 62
     1
 10
-29.5761947178331788
 20
341.4065538573909748
 30
-0.0000000000000758
 11
29.99585461338215
 21
341.4065538573909748
 31
-0.0000000000000758
210
-0.0000000000000002
220
1.0
230
-0.0000000000000002
  0
LINE
  5
707C7C0
  8
0
  6
VERDECKT
 62
     1
 10
29.2500000000017693
 20
336.7920048843075733
 30
-0.0000000000000748
 11
-28.8194812583451707
 21
336.7920048843075733
 31
-0.0000000000000748
210
-0.0000000000000002
220
1.0
230
-0.0000000000000002
  0
POLYLINE
  8
0
  5
707CB6F
  62
1
  66
     1
 10
0.00000
 20
0.00000
 30
0.00000
  70
     8
  0
VERTEX
  8
0
  5
707CB70
 10
-29.5762
 20
339.057
 30
-7.53000e-14
  70
    32
  0
VERTEX
  8
0
  5
707CB71
 10
-29.5681
 20
339.033
 30
-7.52937e-14
  70
    32
  0
VERTEX
  8
0
  5
707CB72
 10
-29.5601
 20
339.009
 30
-7.52874e-14
  70
    32
  0
VERTEX
  8
0
  5
707CB73
 10
-29.5520
 20
338.985
 30
-7.52812e-14
  70
    32
  0
VERTEX
  8
0
  5
707CB74
 10
-29.5439
 20
338.961
 30
-7.52749e-14
  70
    32
  0
VERTEX
  8
0
  5
707CB75
 10
-29.5359
 20
338.937
 30
-7.52687e-14
  70
    32
  0
VERTEX
  8
0
  5
707CB76
 10
-29.5278
 20
338.913
 30
-7.52625e-14
  70
    32
  0
VERTEX
  8
0
  5
707CB77
 10
-29.5198
 20
338.888
 30
-7.52563e-14
  70
    32
  0
VERTEX
  8
0
  5
707CB78
 10
-29.5117
 20
338.864
 30
-7.52502e-14
  70
    32
  0
VERTEX
  8
0
  5
707CB79
 10
-29.5037
 20
338.840
 30
-7.52441e-14
  70
    32
  0
VERTEX
  8
0
  5
707CB7A
 10
-29.4956
 20
338.816
 30
-7.52379e-14
  70
    32
  0
VERTEX
  8
0
  5
707CB7B
 10
-29.4876
 20
338.792
 30
-7.52319e-14
  70
    32
  0
VERTEX
  8
0
  5
707CB7C
 10
-29.4796
 20
338.768
 30
-7.52258e-14
  70
    32
  0
VERTEX
  8
0
  5
707CB7D
 10
-29.4715
 20
338.744
 30
-7.52198e-14
  70
    32
  0
VERTEX
  8
0
  5
707CB7E
 10
-29.4635
 20
338.720
 30
-7.52137e-14
  70
    32
  0
VERTEX
  8
0
  5
707CB7F
 10
-29.4554
 20
338.696
 30
-7.52078e-14
  70
    32
  0
VERTEX
  8
0
  5
707CB80
 10
-29.4474
 20
338.672
 30
-7.52018e-14
  70
    32
  0
VERTEX
  8
0
  5
707CB81
 10
-29.4394
 20
338.648
 30
-7.51958e-14
  70
    32
  0
VERTEX
  8
0
  5
707CB82
 10
-29.4313
 20
338.624
 30
-7.51899e-14
  70
    32
  0
VERTEX
  8
0
  5
707CB83
 10
-29.4233
 20
338.600
 30
-7.51840e-14
  70
    32
  0
VERTEX
  8
0
  5
707CB84
 10
-29.4153
 20
338.576
 30
-7.51781e-14
  70
    32
  0
VERTEX
  8
0
  5
707CB85
 10
-29.4073
 20
338.552
 30
-7.51723e-14
  70
    32
  0
VERTEX
  8
0
  5
707CB86
 10
-29.3993
 20
338.528
 30
-7.51664e-14
  70
    32
  0
VERTEX
  8
0
  5
707CB87
 10
-29.3912
 20
338.504
 30
-7.51606e-14
  70
    32
  0
VERTEX
  8
0
  5
707CB88
 10
-29.3832
 20
338.480
 30
-7.51548e-14
  70
    32
  0
VERTEX
  8
0
  5
707CB89
 10
-29.3752
 20
338.456
 30
-7.51490e-14
  70
    32
  0
VERTEX
  8
0
  5
707CB8A
 10
-29.3672
 20
338.432
 30
-7.51433e-14
  70
    32
  0
VERTEX
  8
0
  5
707CB8B
 10
-29.3592
 20
338.408
 30
-7.51375e-14
  70
    32
  0
VERTEX
  8
0
  5
707CB8C
 10
-29.3512
 20
338.384
 30
-7.51318e-14
  70
    32
  0
VERTEX
  8
0
  5
707CB8D
 10
-29.3432
 20
338.360
 30
-7.51262e-14
  70
    32
  0
VERTEX
  8
0
  5
707CB8E
 10
-29.3352
 20
338.336
 30
-7.51205e-14
  70
    32
  0
VERTEX
  8
0
  5
707CB8F
 10
-29.3272
 20
338.312
 30
-7.51149e-14
  70
    32
  0
VERTEX
  8
0
  5
707CB90
 10
-29.3192
 20
338.288
 30
-7.51092e-14
  70
    32
  0
VERTEX
  8
0
  5
707CB91
 10
-29.3112
 20
338.264
 30
-7.51036e-14
  70
    32
  0
VERTEX
  8
0
  5
707CB92
 10
-29.3032
 20
338.240
 30
-7.50981e-14
  70
    32
  0
VERTEX
  8
0
  5
707CB93
 10
-29.2952
 20
338.216
 30
-7.50925e-14
  70
    32
  0
VERTEX
  8
0
  5
707CB94
 10
-29.2872
 20
338.192
 30
-7.50870e-14
  70
    32
  0
VERTEX
  8
0
  5
707CB95
 10
-29.2792
 20
338.168
 30
-7.50815e-14
  70
    32
  0
VERTEX
  8
0
  5
707CB96
 10
-29.2712
 20
338.144
 30
-7.50760e-14
  70
    32
  0
VERTEX
  8
0
  5
707CB97
 10
-29.2632
 20
338.120
 30
-7.50705e-14
  70
    32
  0
VERTEX
  8
0
  5
707CB98
 10
-29.2553
 20
338.096
 30
-7.50651e-14
  70
    32
  0
VERTEX
  8
0
  5
707CB99
 10
-29.2473
 20
338.072
 30
-7.50597e-14
  70
    32
  0
VERTEX
  8
0
  5
707CB9A
 10
-29.2393
 20
338.049
 30
-7.50543e-14
  70
    32
  0
VERTEX
  8
0
  5
707CB9B
 10
-29.2313
 20
338.025
 30
-7.50489e-14
  70
    32
  0
VERTEX
  8
0
  5
707CB9C
 10
-29.2233
 20
338.001
 30
-7.50436e-14
  70
    32
  0
VERTEX
  8
0
  5
707CB9D
 10
-29.2154
 20
337.977
 30
-7.50382e-14
  70
    32
  0
VERTEX
  8
0
  5
707CB9E
 10
-29.2074
 20
337.953
 30
-7.50329e-14
  70
    32
  0
VERTEX
  8
0
  5
707CB9F
 10
-29.1994
 20
337.929
 30
-7.50276e-14
  70
    32
  0
VERTEX
  8
0
  5
707CBA0
 10
-29.1915
 20
337.905
 30
-7.50224e-14
  70
    32
  0
VERTEX
  8
0
  5
707CBA1
 10
-29.1835
 20
337.882
 30
-7.50171e-14
  70
    32
  0
VERTEX
  8
0
  5
707CBA2
 10
-29.1756
 20
337.858
 30
-7.50119e-14
  70
    32
  0
VERTEX
  8
0
  5
707CBA3
 10
-29.1676
 20
337.834
 30
-7.50067e-14
  70
    32
  0
VERTEX
  8
0
  5
707CBA4
 10
-29.1596
 20
337.810
 30
-7.50015e-14
  70
    32
  0
VERTEX
  8
0
  5
707CBA5
 10
-29.1517
 20
337.786
 30
-7.49964e-14
  70
    32
  0
VERTEX
  8
0
  5
707CBA6
 10
-29.1437
 20
337.763
 30
-7.49913e-14
  70
    32
  0
VERTEX
  8
0
  5
707CBA7
 10
-29.1358
 20
337.739
 30
-7.49862e-14
  70
    32
  0
VERTEX
  8
0
  5
707CBA8
 10
-29.1278
 20
337.715
 30
-7.49811e-14
  70
    32
  0
VERTEX
  8
0
  5
707CBA9
 10
-29.1199
 20
337.691
 30
-7.49760e-14
  70
    32
  0
VERTEX
  8
0
  5
707CBAA
 10
-29.1119
 20
337.667
 30
-7.49710e-14
  70
    32
  0
VERTEX
  8
0
  5
707CBAB
 10
-29.1040
 20
337.644
 30
-7.49659e-14
  70
    32
  0
VERTEX
  8
0
  5
707CBAC
 10
-29.0961
 20
337.620
 30
-7.49609e-14
  70
    32
  0
VERTEX
  8
0
  5
707CBAD
 10
-29.0881
 20
337.596
 30
-7.49560e-14
  70
    32
  0
VERTEX
  8
0
  5
707CBAE
 10
-29.0802
 20
337.572
 30
-7.49510e-14
  70
    32
  0
VERTEX
  8
0
  5
707CBAF
 10
-29.0723
 20
337.549
 30
-7.49461e-14
  70
    32
  0
VERTEX
  8
0
  5
707CBB0
 10
-29.0643
 20
337.525
 30
-7.49412e-14
  70
    32
  0
VERTEX
  8
0
  5
707CBB1
 10
-29.0564
 20
337.501
 30
-7.49363e-14
  70
    32
  0
VERTEX
  8
0
  5
707CBB2
 10
-29.0485
 20
337.477
 30
-7.49314e-14
  70
    32
  0
VERTEX
  8
0
  5
707CBB3
 10
-29.0405
 20
337.454
 30
-7.49266e-14
  70
    32
  0
VERTEX
  8
0
  5
707CBB4
 10
-29.0326
 20
337.430
 30
-7.49218e-14
  70
    32
  0
VERTEX
  8
0
  5
707CBB5
 10
-29.0247
 20
337.406
 30
-7.49170e-14
  70
    32
  0
VERTEX
  8
0
  5
707CBB6
 10
-29.0168
 20
337.382
 30
-7.49122e-14
  70
    32
  0
VERTEX
  8
0
  5
707CBB7
 10
-29.0089
 20
337.359
 30
-7.49074e-14
  70
    32
  0
VERTEX
  8
0
  5
707CBB8
 10
-29.0009
 20
337.335
 30
-7.49027e-14
  70
    32
  0
VERTEX
  8
0
  5
707CBB9
 10
-28.9930
 20
337.311
 30
-7.48980e-14
  70
    32
  0
VERTEX
  8
0
  5
707CBBA
 10
-28.9851
 20
337.288
 30
-7.48933e-14
  70
    32
  0
VERTEX
  8
0
  5
707CBBB
 10
-28.9772
 20
337.264
 30
-7.48886e-14
  70
    32
  0
VERTEX
  8
0
  5
707CBBC
 10
-28.9693
 20
337.240
 30
-7.48840e-14
  70
    32
  0
VERTEX
  8
0
  5
707CBBD
 10
-28.9614
 20
337.217
 30
-7.48794e-14
  70
    32
  0
VERTEX
  8
0
  5
707CBBE
 10
-28.9535
 20
337.193
 30
-7.48748e-14
  70
    32
  0
VERTEX
  8
0
  5
707CBBF
 10
-28.9456
 20
337.169
 30
-7.48702e-14
  70
    32
  0
VERTEX
  8
0
  5
707CBC0
 10
-28.9377
 20
337.146
 30
-7.48657e-14
  70
    32
  0
VERTEX
  8
0
  5
707CBC1
 10
-28.9298
 20
337.122
 30
-7.48611e-14
  70
    32
  0
VERTEX
  8
0
  5
707CBC2
 10
-28.9219
 20
337.099
 30
-7.48566e-14
  70
    32
  0
VERTEX
  8
0
  5
707CBC3
 10
-28.9140
 20
337.075
 30
-7.48521e-14
  70
    32
  0
VERTEX
  8
0
  5
707CBC4
 10
-28.9061
 20
337.051
 30
-7.48477e-14
  70
    32
  0
VERTEX
  8
0
  5
707CBC5
 10
-28.8982
 20
337.028
 30
-7.48432e-14
  70
    32
  0
VERTEX
  8
0
  5
707CBC6
 10
-28.8904
 20
337.004
 30
-7.48388e-14
  70
    32
  0
VERTEX
  8
0
  5
707CBC7
 10
-28.8825
 20
336.981
 30
-7.48344e-14
  70
    32
  0
VERTEX
  8
0
  5
707CBC8
 10
-28.8746
 20
336.957
 30
-7.48300e-14
  70
    32
  0
VERTEX
  8
0
  5
707CBC9
 10
-28.8667
 20
336.933
 30
-7.48257e-14
  70
    32
  0
VERTEX
  8
0
  5
707CBCA
 10
-28.8588
 20
336.910
 30
-7.48213e-14
  70
    32
  0
VERTEX
  8
0
  5
707CBCB
 10
-28.8510
 20
336.886
 30
-7.48170e-14
  70
    32
  0
VERTEX
  8
0
  5
707CBCC
 10
-28.8431
 20
336.863
 30
-7.48127e-14
  70
    32
  0
VERTEX
  8
0
  5
707CBCD
 10
-28.8352
 20
336.839
 30
-7.48085e-14
  70
    32
  0
VERTEX
  8
0
  5
707CBCE
 10
-28.8273
 20
336.816
 30
-7.48042e-14
  70
    32
  0
VERTEX
  8
0
  5
707CBCF
 10
-28.8195
 20
336.792
 30
-7.48000e-14
  70
    32
  0
SEQEND
  8
0
  5
707CBD0
  0
POLYLINE
  8
0
  5
707CBD1
  62
1
  66
     1
 10
0.00000
 20
0.00000
 30
0.00000
  70
     8
  0
VERTEX
  8
0
  5
707CBD2
 10
-40.2500
 20
355.946
 30
-7.90000e-14
  70
    32
  0
VERTEX
  8
0
  5
707CBD3
 10
-40.1195
 20
355.768
 30
-7.89617e-14
  70
    32
  0
VERTEX
  8
0
  5
707CBD4
 10
-39.9894
 20
355.590
 30
-7.89235e-14
  70
    32
  0
VERTEX
  8
0
  5
707CBD5
 10
-39.8598
 20
355.413
 30
-7.88855e-14
  70
    32
  0
VERTEX
  8
0
  5
707CBD6
 10
-39.7307
 20
355.237
 30
-7.88475e-14
  70
    32
  0
VERTEX
  8
0
  5
707CBD7
 10
-39.6019
 20
355.061
 30
-7.88097e-14
  70
    32
  0
VERTEX
  8
0
  5
707CBD8
 10
-39.4737
 20
354.886
 30
-7.87720e-14
  70
    32
  0
VERTEX
  8
0
  5
707CBD9
 10
-39.3458
 20
354.711
 30
-7.87344e-14
  70
    32
  0
VERTEX
  8
0
  5
707CBDA
 10
-39.2184
 20
354.537
 30
-7.86969e-14
  70
    32
  0
VERTEX
  8
0
  5
707CBDB
 10
-39.0914
 20
354.364
 30
-7.86595e-14
  70
    32
  0
VERTEX
  8
0
  5
707CBDC
 10
-38.9649
 20
354.191
 30
-7.86222e-14
  70
    32
  0
VERTEX
  8
0
  5
707CBDD
 10
-38.8388
 20
354.019
 30
-7.85851e-14
  70
    32
  0
VERTEX
  8
0
  5
707CBDE
 10
-38.7131
 20
353.847
 30
-7.85480e-14
  70
    32
  0
VERTEX
  8
0
  5
707CBDF
 10
-38.5878
 20
353.676
 30
-7.85111e-14
  70
    32
  0
VERTEX
  8
0
  5
707CBE0
 10
-38.4630
 20
353.506
 30
-7.84743e-14
  70
    32
  0
VERTEX
  8
0
  5
707CBE1
 10
-38.3385
 20
353.336
 30
-7.84376e-14
  70
    32
  0
VERTEX
  8
0
  5
707CBE2
 10
-38.2145
 20
353.167
 30
-7.84009e-14
  70
    32
  0
VERTEX
  8
0
  5
707CBE3
 10
-38.0909
 20
352.998
 30
-7.83644e-14
  70
    32
  0
VERTEX
  8
0
  5
707CBE4
 10
-37.9677
 20
352.830
 30
-7.83280e-14
  70
    32
  0
VERTEX
  8
0
  5
707CBE5
 10
-37.8450
 20
352.663
 30
-7.82917e-14
  70
    32
  0
VERTEX
  8
0
  5
707CBE6
 10
-37.7226
 20
352.496
 30
-7.82555e-14
  70
    32
  0
VERTEX
  8
0
  5
707CBE7
 10
-37.6007
 20
352.329
 30
-7.82195e-14
  70
    32
  0
VERTEX
  8
0
  5
707CBE8
 10
-37.4791
 20
352.163
 30
-7.81835e-14
  70
    32
  0
VERTEX
  8
0
  5
707CBE9
 10
-37.3580
 20
351.998
 30
-7.81476e-14
  70
    32
  0
VERTEX
  8
0
  5
707CBEA
 10
-37.2372
 20
351.833
 30
-7.81118e-14
  70
    32
  0
VERTEX
  8
0
  5
707CBEB
 10
-37.1169
 20
351.669
 30
-7.80761e-14
  70
    32
  0
VERTEX
  8
0
  5
707CBEC
 10
-36.9969
 20
351.506
 30
-7.80406e-14
  70
    32
  0
VERTEX
  8
0
  5
707CBED
 10
-36.8774
 20
351.343
 30
-7.80051e-14
  70
    32
  0
VERTEX
  8
0
  5
707CBEE
 10
-36.7582
 20
351.180
 30
-7.79697e-14
  70
    32
  0
VERTEX
  8
0
  5
707CBEF
 10
-36.6394
 20
351.018
 30
-7.79344e-14
  70
    32
  0
VERTEX
  8
0
  5
707CBF0
 10
-36.5211
 20
350.857
 30
-7.78993e-14
  70
    32
  0
VERTEX
  8
0
  5
707CBF1
 10
-36.4031
 20
350.696
 30
-7.78642e-14
  70
    32
  0
VERTEX
  8
0
  5
707CBF2
 10
-36.2854
 20
350.535
 30
-7.78292e-14
  70
    32
  0
VERTEX
  8
0
  5
707CBF3
 10
-36.1682
 20
350.376
 30
-7.77943e-14
  70
    32
  0
VERTEX
  8
0
  5
707CBF4
 10
-36.0514
 20
350.216
 30
-7.77595e-14
  70
    32
  0
VERTEX
  8
0
  5
707CBF5
 10
-35.9349
 20
350.057
 30
-7.77249e-14
  70
    32
  0
VERTEX
  8
0
  5
707CBF6
 10
-35.8188
 20
349.899
 30
-7.76903e-14
  70
    32
  0
VERTEX
  8
0
  5
707CBF7
 10
-35.7031
 20
349.741
 30
-7.76558e-14
  70
    32
  0
VERTEX
  8
0
  5
707CBF8
 10
-35.5878
 20
349.584
 30
-7.76214e-14
  70
    32
  0
VERTEX
  8
0
  5
707CBF9
 10
-35.4728
 20
349.428
 30
-7.75871e-14
  70
    32
  0
VERTEX
  8
0
  5
707CBFA
 10
-35.3582
 20
349.271
 30
-7.75528e-14
  70
    32
  0
VERTEX
  8
0
  5
707CBFB
 10
-35.2440
 20
349.116
 30
-7.75187e-14
  70
    32
  0
VERTEX
  8
0
  5
707CBFC
 10
-35.1301
 20
348.961
 30
-7.74847e-14
  70
    32
  0
VERTEX
  8
0
  5
707CBFD
 10
-35.0166
 20
348.806
 30
-7.74507e-14
  70
    32
  0
VERTEX
  8
0
  5
707CBFE
 10
-34.9035
 20
348.652
 30
-7.74169e-14
  70
    32
  0
VERTEX
  8
0
  5
707CBFF
 10
-34.7907
 20
348.498
 30
-7.73831e-14
  70
    32
  0
VERTEX
  8
0
  5
707CC00
 10
-34.6783
 20
348.345
 30
-7.73495e-14
  70
    32
  0
VERTEX
  8
0
  5
707CC01
 10
-34.5662
 20
348.192
 30
-7.73159e-14
  70
    32
  0
VERTEX
  8
0
  5
707CC02
 10
-34.4545
 20
348.040
 30
-7.72824e-14
  70
    32
  0
VERTEX
  8
0
  5
707CC03
 10
-34.3432
 20
347.888
 30
-7.72490e-14
  70
    32
  0
VERTEX
  8
0
  5
707CC04
 10
-34.2322
 20
347.737
 30
-7.72157e-14
  70
    32
  0
VERTEX
  8
0
  5
707CC05
 10
-34.1215
 20
347.587
 30
-7.71825e-14
  70
    32
  0
VERTEX
  8
0
  5
707CC06
 10
-34.0112
 20
347.436
 30
-7.71493e-14
  70
    32
  0
VERTEX
  8
0
  5
707CC07
 10
-33.9013
 20
347.287
 30
-7.71163e-14
  70
    32
  0
VERTEX
  8
0
  5
707CC08
 10
-33.7917
 20
347.137
 30
-7.70833e-14
  70
    32
  0
VERTEX
  8
0
  5
707CC09
 10
-33.6824
 20
346.989
 30
-7.70504e-14
  70
    32
  0
VERTEX
  8
0
  5
707CC0A
 10
-33.5735
 20
346.840
 30
-7.70176e-14
  70
    32
  0
VERTEX
  8
0
  5
707CC0B
 10
-33.4649
 20
346.693
 30
-7.69849e-14
  70
    32
  0
VERTEX
  8
0
  5
707CC0C
 10
-33.3567
 20
346.545
 30
-7.69523e-14
  70
    32
  0
VERTEX
  8
0
  5
707CC0D
 10
-33.2488
 20
346.398
 30
-7.69198e-14
  70
    32
  0
VERTEX
  8
0
  5
707CC0E
 10
-33.1412
 20
346.252
 30
-7.68873e-14
  70
    32
  0
VERTEX
  8
0
  5
707CC0F
 10
-33.0340
 20
346.106
 30
-7.68549e-14
  70
    32
  0
VERTEX
  8
0
  5
707CC10
 10
-32.9271
 20
345.961
 30
-7.68226e-14
  70
    32
  0
VERTEX
  8
0
  5
707CC11
 10
-32.8205
 20
345.816
 30
-7.67904e-14
  70
    32
  0
VERTEX
  8
0
  5
707CC12
 10
-32.7143
 20
345.671
 30
-7.67583e-14
  70
    32
  0
VERTEX
  8
0
  5
707CC13
 10
-32.6084
 20
345.527
 30
-7.67262e-14
  70
    32
  0
VERTEX
  8
0
  5
707CC14
 10
-32.5028
 20
345.383
 30
-7.66943e-14
  70
    32
  0
VERTEX
  8
0
  5
707CC15
 10
-32.3975
 20
345.240
 30
-7.66624e-14
  70
    32
  0
VERTEX
  8
0
  5
707CC16
 10
-32.2926
 20
345.097
 30
-7.66306e-14
  70
    32
  0
VERTEX
  8
0
  5
707CC17
 10
-32.1880
 20
344.955
 30
-7.65988e-14
  70
    32
  0
VERTEX
  8
0
  5
707CC18
 10
-32.0837
 20
344.813
 30
-7.65672e-14
  70
    32
  0
VERTEX
  8
0
  5
707CC19
 10
-31.9797
 20
344.672
 30
-7.65356e-14
  70
    32
  0
VERTEX
  8
0
  5
707CC1A
 10
-31.8761
 20
344.531
 30
-7.65041e-14
  70
    32
  0
VERTEX
  8
0
  5
707CC1B
 10
-31.7727
 20
344.390
 30
-7.64727e-14
  70
    32
  0
VERTEX
  8
0
  5
707CC1C
 10
-31.6697
 20
344.250
 30
-7.64414e-14
  70
    32
  0
VERTEX
  8
0
  5
707CC1D
 10
-31.5670
 20
344.111
 30
-7.64101e-14
  70
    32
  0
VERTEX
  8
0
  5
707CC1E
 10
-31.4646
 20
343.971
 30
-7.63789e-14
  70
    32
  0
VERTEX
  8
0
  5
707CC1F
 10
-31.3625
 20
343.833
 30
-7.63478e-14
  70
    32
  0
VERTEX
  8
0
  5
707CC20
 10
-31.2607
 20
343.694
 30
-7.63167e-14
  70
    32
  0
VERTEX
  8
0
  5
707CC21
 10
-31.1592
 20
343.556
 30
-7.62858e-14
  70
    32
  0
VERTEX
  8
0
  5
707CC22
 10
-31.0580
 20
343.419
 30
-7.62549e-14
  70
    32
  0
VERTEX
  8
0
  5
707CC23
 10
-30.9572
 20
343.282
 30
-7.62240e-14
  70
    32
  0
VERTEX
  8
0
  5
707CC24
 10
-30.8566
 20
343.145
 30
-7.61933e-14
  70
    32
  0
VERTEX
  8
0
  5
707CC25
 10
-30.7564
 20
343.009
 30
-7.61626e-14
  70
    32
  0
VERTEX
  8
0
  5
707CC26
 10
-30.6564
 20
342.873
 30
-7.61320e-14
  70
    32
  0
VERTEX
  8
0
  5
707CC27
 10
-30.5567
 20
342.738
 30
-7.61015e-14
  70
    32
  0
VERTEX
  8
0
  5
707CC28
 10
-30.4574
 20
342.603
 30
-7.60710e-14
  70
    32
  0
VERTEX
  8
0
  5
707CC29
 10
-30.3583
 20
342.468
 30
-7.60406e-14
  70
    32
  0
VERTEX
  8
0
  5
707CC2A
 10
-30.2595
 20
342.334
 30
-7.60103e-14
  70
    32
  0
VERTEX
  8
0
  5
707CC2B
 10
-30.1610
 20
342.200
 30
-7.59801e-14
  70
    32
  0
VERTEX
  8
0
  5
707CC2C
 10
-30.0628
 20
342.067
 30
-7.59499e-14
  70
    32
  0
VERTEX
  8
0
  5
707CC2D
 10
-29.9649
 20
341.934
 30
-7.59198e-14
  70
    32
  0
VERTEX
  8
0
  5
707CC2E
 10
-29.8673
 20
341.802
 30
-7.58897e-14
  70
    32
  0
VERTEX
  8
0
  5
707CC2F
 10
-29.7700
 20
341.670
 30
-7.58597e-14
  70
    32
  0
VERTEX
  8
0
  5
707CC30
 10
-29.6729
 20
341.538
 30
-7.58298e-14
  70
    32
  0
VERTEX
  8
0
  5
707CC31
 10
-29.5762
 20
341.407
 30
-7.58000e-14
  70
    32
  0
SEQEND
  8
0
  5
707CC32
  0
LINE
  5
707C7C3
  8
0
  6
VERDECKT
 62
     1
 10
-42.2000000000001734
 20
358.2041189223332935
 30
-0.0000000000000795
 11
42.1999999999999318
 21
358.2041189223332935
 31
-0.0000000000000795
210
-0.0000000000000002
220
1.0
230
-0.0000000000000002
  0
LINE
  5
707C7C4
  8
0
  6
VERDECKT
 62
     1
 10
-43.6367776566741767
 20
373.9363433895383082
 30
-0.000000000000083
 11
43.6367776566739067
 21
373.9363433895383082
 31
-0.000000000000083
210
-0.0000000000000002
220
1.0
230
-0.0000000000000002
  0
LINE
  5
707C7C5
  8
0
  6
VERDECKT
 62
     1
 10
60.0000000000001492
 20
277.7812460676627211
 30
-0.0000000000000617
 11
-59.4874134834335919
 21
277.7812460676627211
 31
-0.0000000000000617
210
-0.0000000000000002
220
1.0
230
-0.0000000000000002
  0
LINE
  5
707C7C6
  8
0
  6
VERDECKT
 62
     1
 10
-28.8194812583451814
 20
336.7920048843071754
 30
-0.0000000000000748
 11
-28.8194812583451707
 21
277.7383528488492175
 31
-0.0000000000000617
210
-0.0000000000000002
220
1.0
230
-0.0000000000000002
  0
LINE
  5
707C7C7
  8
0
  6
VERDECKT
 62
     1
 10
-40.2500000000019611
 20
355.9459855404368227
 30
-0.000000000000079
 11
-40.2500000000019327
 21
269.7812460676626074
 31
-0.0000000000000599
210
-0.0000000000000002
220
1.0
230
-0.0000000000000002
  0
LINE
  5
707C7C8
  8
0
  6
VERDECKT
 62
     1
 10
-57.5087712549571677
 20
279.7812460676627211
 30
-0.0000000000000621
 11
-57.5044997006524525
 21
279.7812460676627211
 31
-0.0000000000000621
210
-0.0000000000000002
220
1.0
230
-0.0000000000000002
  0
LINE
  5
707C7C9
  8
0
  6
VERDECKT
 62
     1
 10
-59.487413483433599
 20
277.7812460676627211
 30
-0.0000000000000617
 11
-59.5087712549572103
 21
277.7812460676627211
 31
-0.0000000000000617
210
-0.0000000000000002
220
1.0
230
-0.0000000000000002
  0
LINE
  5
707C7CA
  8
0
  6
VERDECKT
 62
     1
 10
-57.5044997006524881
 20
279.7812460676627211
 30
-0.0000000000000621
 11
58.0000000000001492
 21
279.7812460676627211
 31
-0.0000000000000621
210
-0.0000000000000002
220
1.0
230
-0.0000000000000002
  0
LINE
  5
707C7CB
  8
0
  6
VERDECKT
 62
     1
 10
26.5000000000016804
 20
274.9883528488492743
 30
-0.0000000000000611
 11
26.5000000000016804
 21
269.7812460676627211
 31
-0.0000000000000599
210
-0.0000000000000002
220
1.0
230
-0.0000000000000002
  0
LINE
  5
707C7CC
  8
0
  6
VERDECKT
 62
     1
 10
26.5000000000017089
 20
274.9883528488492175
 30
-0.0000000000000611
 11
29.2500000000017302
 21
277.7383528488492175
 31
-0.0000000000000617
210
-0.0000000000000002
220
1.0
230
-0.0000000000000002
  0
LINE
  5
707C7CD
  8
0
  6
VERDECKT
 62
     1
 10
29.99585461338215
 20
341.4065538573909748
 30
-0.0000000000000758
 11
29.99585461338215
 21
339.057401031107986
 31
-0.0000000000000753
210
-0.0000000000000002
220
1.0
230
-0.0000000000000002
  0
LINE
  5
707C7CE
  8
0
  6
VERDECKT
 62
     1
 10
29.2500000000016414
 20
336.792004884307687
 30
-0.0000000000000748
 11
29.99585461338215
 21
339.057401031107986
 31
-0.0000000000000753
210
-0.0000000000000002
220
1.0
230
-0.0000000000000002
  0
LINE
  5
707C7CF
  8
0
  6
VERDECKT
 62
     1
 10
-40.2500000000019824
 20
355.5201741774170046
 30
-0.0000000000000789
 11
-42.2000000000001521
 21
358.2041189223332935
 31
-0.0000000000000795
210
-0.0000000000000002
220
1.0
230
-0.0000000000000002
  0
LINE
  5
707C7D0
  8
0
  6
VERDECKT
 62
     1
 10
29.9958546133822317
 20
341.4065538573909748
 30
-0.0000000000000758
 11
42.1999999999999034
 21
358.2041189223332935
 31
-0.0000000000000795
210
-0.0000000000000002
220
1.0
230
-0.0000000000000002
  0
LINE
  5
707C7D1
  8
0
  6
VERDECKT
 62
     1
 10
42.1999999999998892
 20
373.9363433895383082
 30
-0.000000000000083
 11
42.1999999999999034
 21
358.2041189223332935
 31
-0.0000000000000795
210
-0.0000000000000002
220
1.0
230
-0.0000000000000002
  0
LINE
  5
707C7D2
  8
0
  6
VERDECKT
 62
     1
 10
-42.2000000000001521
 20
373.9363433895383082
 30
-0.000000000000083
 11
-42.2000000000001378
 21
358.2041189223332935
 31
-0.0000000000000795
210
-0.0000000000000002
220
1.0
230
-0.0000000000000002
  0
LINE
  5
707C7D3
  8
0
  6
VERDECKT
 62
     1
 10
-43.6367776566741625
 20
373.9363433895383082
 30
-0.000000000000083
 11
-64.0482434041534106
 21
419.7812460676626074
 31
-0.0000000000000932
210
-0.0000000000000002
220
1.0
230
-0.0000000000000002
  0
LINE
  5
707C7D4
  8
0
  6
VERDECKT
 62
     1
 10
43.6367776566738996
 20
373.9363433895383082
 30
-0.000000000000083
 11
64.0482434041531263
 21
419.7812460676626074
 31
-0.0000000000000932
210
-0.0000000000000002
220
1.0
230
-0.0000000000000002
  0
LINE
  5
707C7D5
  8
0
  6
VERDECKT
 62
     1
 10
60.0000000000001705
 20
269.7812460676626074
 30
-0.0000000000000599
 11
60.0000000000001705
 21
277.7812460676627211
 31
-0.0000000000000617
210
-0.0000000000000002
220
1.0
230
-0.0000000000000002
  0
LINE
  5
707C7D6
  8
0
  6
VERDECKT
 62
     1
 10
29.2500000000017693
 20
336.7920048843075733
 30
-0.0000000000000748
 11
29.2500000000017799
 21
277.7383528488491038
 31
-0.0000000000000617
210
-0.0000000000000002
220
1.0
230
-0.0000000000000002
  0
LINE
  5
707C7D7
  8
0
  6
VERDECKT
 62
     1
 10
50.0000000000001492
 20
277.7812460676627211
 30
-0.0000000000000617
 11
52.0000000000001776
 21
279.7812460676627211
 31
-0.0000000000000621
210
-0.0000000000000002
220
1.0
230
-0.0000000000000002
  0
LINE
  5
707C7D8
  8
0
  6
VERDECKT
 62
     1
 10
-57.5087712549571677
 20
279.7812460676627211
 30
-0.0000000000000621
 11
-59.5087712549572103
 21
277.7812460676627211
 31
-0.0000000000000617
210
-0.0000000000000002
220
1.0
230
-0.0000000000000002
  0
LINE
  5
707C7D9
  8
0
  6
VERDECKT
 62
     1
 10
58.0000000000001634
 20
279.7812460676627211
 30
-0.0000000000000621
 11
60.0000000000001705
 21
277.7812460676627211
 31
-0.0000000000000617
210
-0.0000000000000002
220
1.0
230
-0.0000000000000002
  0
LINE
  5
707C7DA
  8
0
  6
VERDECKT
 62
     1
 10
50.0000000000001776
 20
269.7812460676626074
 30
-0.0000000000000599
 11
50.0000000000001705
 21
277.7812460676627211
 31
-0.0000000000000617
210
-0.0000000000000002
220
1.0
230
-0.0000000000000002
  0
LINE
  5
707C7DB
  8
0
  6
VERDECKT
 62
     1
 10
-59.5087712549572103
 20
277.7812460676627211
 30
-0.0000000000000617
 11
-59.5087712549572032
 21
269.7812460676626074
 31
-0.0000000000000599
210
-0.0000000000000002
220
1.0
230
-0.0000000000000002
  0
ENDBLK
  5
707C7DC
  8
0
  0
BLOCK
  8
0
  2
A$C69AA25A7
 70
     0
 10
0.0
 20
0.0
 30
0.0
  3
A$C69AA25A7
  1

  0
ARC
  5
707C7DF
  8
0
  6
CONTINUOUS
 10
-0.0000000000001354
 20
0.0000000000000855
 30
0.0
 40
26.500000000001819
 50
100.8757164946275964
 51
79.124283505371892
  0
POLYLINE
  8
0
  5
707CC33
  66
     1
 10
0.00000
 20
0.00000
 30
0.00000
  70
     8
  0
VERTEX
  8
0
  5
707CC34
 10
-5.00000
 20
26.0240
 30
1.10000e-15
  70
    32
  0
VERTEX
  8
0
  5
707CC35
 10
-5.00000
 20
26.0521
 30
1.10000e-15
  70
    32
  0
VERTEX
  8
0
  5
707CC36
 10
-5.00000
 20
26.0801
 30
1.10000e-15
  70
    32
  0
VERTEX
  8
0
  5
707CC37
 10
-5.00000
 20
26.1082
 30
1.10000e-15
  70
    32
  0
VERTEX
  8
0
  5
707CC38
 10
-5.00000
 20
26.1363
 30
1.10000e-15
  70
    32
  0
VERTEX
  8
0
  5
707CC39
 10
-5.00000
 20
26.1644
 30
1.10000e-15
  70
    32
  0
VERTEX
  8
0
  5
707CC3A
 10
-5.00000
 20
26.1926
 30
1.10000e-15
  70
    32
  0
VERTEX
  8
0
  5
707CC3B
 10
-5.00000
 20
26.2208
 30
1.10000e-15
  70
    32
  0
VERTEX
  8
0
  5
707CC3C
 10
-5.00000
 20
26.2490
 30
1.10000e-15
  70
    32
  0
VERTEX
  8
0
  5
707CC3D
 10
-5.00000
 20
26.2773
 30
1.10000e-15
  70
    32
  0
VERTEX
  8
0
  5
707CC3E
 10
-5.00000
 20
26.3055
 30
1.10000e-15
  70
    32
  0
VERTEX
  8
0
  5
707CC3F
 10
-5.00000
 20
26.3339
 30
1.10000e-15
  70
    32
  0
VERTEX
  8
0
  5
707CC40
 10
-5.00000
 20
26.3622
 30
1.10000e-15
  70
    32
  0
VERTEX
  8
0
  5
707CC41
 10
-5.00000
 20
26.3906
 30
1.10000e-15
  70
    32
  0
VERTEX
  8
0
  5
707CC42
 10
-5.00000
 20
26.4190
 30
1.10000e-15
  70
    32
  0
VERTEX
  8
0
  5
707CC43
 10
-5.00000
 20
26.4474
 30
1.10000e-15
  70
    32
  0
VERTEX
  8
0
  5
707CC44
 10
-5.00000
 20
26.4758
 30
1.10000e-15
  70
    32
  0
VERTEX
  8
0
  5
707CC45
 10
-5.00000
 20
26.5043
 30
1.10000e-15
  70
    32
  0
VERTEX
  8
0
  5
707CC46
 10
-5.00000
 20
26.5328
 30
1.10000e-15
  70
    32
  0
VERTEX
  8
0
  5
707CC47
 10
-5.00000
 20
26.5614
 30
1.10000e-15
  70
    32
  0
VERTEX
  8
0
  5
707CC48
 10
-5.00000
 20
26.5899
 30
1.10000e-15
  70
    32
  0
VERTEX
  8
0
  5
707CC49
 10
-5.00000
 20
26.6185
 30
1.10000e-15
  70
    32
  0
VERTEX
  8
0
  5
707CC4A
 10
-5.00000
 20
26.6472
 30
1.10000e-15
  70
    32
  0
VERTEX
  8
0
  5
707CC4B
 10
-5.00000
 20
26.6758
 30
1.10000e-15
  70
    32
  0
VERTEX
  8
0
  5
707CC4C
 10
-5.00000
 20
26.7045
 30
1.10000e-15
  70
    32
  0
VERTEX
  8
0
  5
707CC4D
 10
-5.00000
 20
26.7332
 30
1.10000e-15
  70
    32
  0
VERTEX
  8
0
  5
707CC4E
 10
-5.00000
 20
26.7620
 30
1.10000e-15
  70
    32
  0
VERTEX
  8
0
  5
707CC4F
 10
-5.00000
 20
26.7908
 30
1.10000e-15
  70
    32
  0
VERTEX
  8
0
  5
707CC50
 10
-5.00000
 20
26.8196
 30
1.10000e-15
  70
    32
  0
VERTEX
  8
0
  5
707CC51
 10
-5.00000
 20
26.8484
 30
1.10000e-15
  70
    32
  0
VERTEX
  8
0
  5
707CC52
 10
-5.00000
 20
26.8773
 30
1.10000e-15
  70
    32
  0
VERTEX
  8
0
  5
707CC53
 10
-5.00000
 20
26.9062
 30
1.10000e-15
  70
    32
  0
VERTEX
  8
0
  5
707CC54
 10
-5.00000
 20
26.9351
 30
1.10000e-15
  70
    32
  0
VERTEX
  8
0
  5
707CC55
 10
-5.00000
 20
26.9640
 30
1.10000e-15
  70
    32
  0
VERTEX
  8
0
  5
707CC56
 10
-5.00000
 20
26.9930
 30
1.10000e-15
  70
    32
  0
VERTEX
  8
0
  5
707CC57
 10
-5.00000
 20
27.0220
 30
1.10000e-15
  70
    32
  0
VERTEX
  8
0
  5
707CC58
 10
-5.00000
 20
27.0511
 30
1.10000e-15
  70
    32
  0
VERTEX
  8
0
  5
707CC59
 10
-5.00000
 20
27.0802
 30
1.10000e-15
  70
    32
  0
VERTEX
  8
0
  5
707CC5A
 10
-5.00000
 20
27.1093
 30
1.10000e-15
  70
    32
  0
VERTEX
  8
0
  5
707CC5B
 10
-5.00000
 20
27.1384
 30
1.10000e-15
  70
    32
  0
VERTEX
  8
0
  5
707CC5C
 10
-5.00000
 20
27.1676
 30
1.10000e-15
  70
    32
  0
VERTEX
  8
0
  5
707CC5D
 10
-5.00000
 20
27.1968
 30
1.10000e-15
  70
    32
  0
VERTEX
  8
0
  5
707CC5E
 10
-5.00000
 20
27.2260
 30
1.10000e-15
  70
    32
  0
VERTEX
  8
0
  5
707CC5F
 10
-5.00000
 20
27.2552
 30
1.10000e-15
  70
    32
  0
VERTEX
  8
0
  5
707CC60
 10
-5.00000
 20
27.2845
 30
1.10000e-15
  70
    32
  0
VERTEX
  8
0
  5
707CC61
 10
-5.00000
 20
27.3138
 30
1.10000e-15
  70
    32
  0
VERTEX
  8
0
  5
707CC62
 10
-5.00000
 20
27.3432
 30
1.10000e-15
  70
    32
  0
VERTEX
  8
0
  5
707CC63
 10
-5.00000
 20
27.3726
 30
1.10000e-15
  70
    32
  0
VERTEX
  8
0
  5
707CC64
 10
-5.00000
 20
27.4020
 30
1.10000e-15
  70
    32
  0
VERTEX
  8
0
  5
707CC65
 10
-5.00000
 20
27.4314
 30
1.10000e-15
  70
    32
  0
VERTEX
  8
0
  5
707CC66
 10
-5.00000
 20
27.4609
 30
1.10000e-15
  70
    32
  0
VERTEX
  8
0
  5
707CC67
 10
-5.00000
 20
27.4904
 30
1.10000e-15
  70
    32
  0
VERTEX
  8
0
  5
707CC68
 10
-5.00000
 20
27.5199
 30
1.10000e-15
  70
    32
  0
VERTEX
  8
0
  5
707CC69
 10
-5.00000
 20
27.5495
 30
1.10000e-15
  70
    32
  0
VERTEX
  8
0
  5
707CC6A
 10
-5.00000
 20
27.5791
 30
1.10000e-15
  70
    32
  0
VERTEX
  8
0
  5
707CC6B
 10
-5.00000
 20
27.6087
 30
1.10000e-15
  70
    32
  0
VERTEX
  8
0
  5
707CC6C
 10
-5.00000
 20
27.6383
 30
1.10000e-15
  70
    32
  0
VERTEX
  8
0
  5
707CC6D
 10
-5.00000
 20
27.6680
 30
1.10000e-15
  70
    32
  0
VERTEX
  8
0
  5
707CC6E
 10
-5.00000
 20
27.6977
 30
1.10000e-15
  70
    32
  0
VERTEX
  8
0
  5
707CC6F
 10
-5.00000
 20
27.7275
 30
1.10000e-15
  70
    32
  0
VERTEX
  8
0
  5
707CC70
 10
-5.00000
 20
27.7573
 30
1.10000e-15
  70
    32
  0
VERTEX
  8
0
  5
707CC71
 10
-5.00000
 20
27.7871
 30
1.10000e-15
  70
    32
  0
VERTEX
  8
0
  5
707CC72
 10
-5.00000
 20
27.8169
 30
1.10000e-15
  70
    32
  0
VERTEX
  8
0
  5
707CC73
 10
-5.00000
 20
27.8468
 30
1.10000e-15
  70
    32
  0
VERTEX
  8
0
  5
707CC74
 10
-5.00000
 20
27.8767
 30
1.10000e-15
  70
    32
  0
VERTEX
  8
0
  5
707CC75
 10
-5.00000
 20
27.9066
 30
1.10000e-15
  70
    32
  0
VERTEX
  8
0
  5
707CC76
 10
-5.00000
 20
27.9366
 30
1.10000e-15
  70
    32
  0
VERTEX
  8
0
  5
707CC77
 10
-5.00000
 20
27.9666
 30
1.10000e-15
  70
    32
  0
VERTEX
  8
0
  5
707CC78
 10
-5.00000
 20
27.9966
 30
1.10000e-15
  70
    32
  0
VERTEX
  8
0
  5
707CC79
 10
-5.00000
 20
28.0267
 30
1.10000e-15
  70
    32
  0
VERTEX
  8
0
  5
707CC7A
 10
-5.00000
 20
28.0568
 30
1.10000e-15
  70
    32
  0
VERTEX
  8
0
  5
707CC7B
 10
-5.00000
 20
28.0869
 30
1.10000e-15
  70
    32
  0
VERTEX
  8
0
  5
707CC7C
 10
-5.00000
 20
28.1170
 30
1.10000e-15
  70
    32
  0
VERTEX
  8
0
  5
707CC7D
 10
-5.00000
 20
28.1472
 30
1.10000e-15
  70
    32
  0
VERTEX
  8
0
  5
707CC7E
 10
-5.00000
 20
28.1774
 30
1.10000e-15
  70
    32
  0
VERTEX
  8
0
  5
707CC7F
 10
-5.00000
 20
28.2077
 30
1.10000e-15
  70
    32
  0
VERTEX
  8
0
  5
707CC80
 10
-5.00000
 20
28.2380
 30
1.10000e-15
  70
    32
  0
VERTEX
  8
0
  5
707CC81
 10
-5.00000
 20
28.2683
 30
1.10000e-15
  70
    32
  0
VERTEX
  8
0
  5
707CC82
 10
-5.00000
 20
28.2986
 30
1.10000e-15
  70
    32
  0
VERTEX
  8
0
  5
707CC83
 10
-5.00000
 20
28.3290
 30
1.10000e-15
  70
    32
  0
VERTEX
  8
0
  5
707CC84
 10
-5.00000
 20
28.3594
 30
1.10000e-15
  70
    32
  0
VERTEX
  8
0
  5
707CC85
 10
-5.00000
 20
28.3899
 30
1.10000e-15
  70
    32
  0
VERTEX
  8
0
  5
707CC86
 10
-5.00000
 20
28.4203
 30
1.10000e-15
  70
    32
  0
VERTEX
  8
0
  5
707CC87
 10
-5.00000
 20
28.4508
 30
1.10000e-15
  70
    32
  0
VERTEX
  8
0
  5
707CC88
 10
-5.00000
 20
28.4814
 30
1.10000e-15
  70
    32
  0
VERTEX
  8
0
  5
707CC89
 10
-5.00000
 20
28.5120
 30
1.10000e-15
  70
    32
  0
VERTEX
  8
0
  5
707CC8A
 10
-5.00000
 20
28.5426
 30
1.10000e-15
  70
    32
  0
VERTEX
  8
0
  5
707CC8B
 10
-5.00000
 20
28.5732
 30
1.10000e-15
  70
    32
  0
VERTEX
  8
0
  5
707CC8C
 10
-5.00000
 20
28.6039
 30
1.10000e-15
  70
    32
  0
VERTEX
  8
0
  5
707CC8D
 10
-5.00000
 20
28.6346
 30
1.10000e-15
  70
    32
  0
VERTEX
  8
0
  5
707CC8E
 10
-5.00000
 20
28.6653
 30
1.10000e-15
  70
    32
  0
VERTEX
  8
0
  5
707CC8F
 10
-5.00000
 20
28.6961
 30
1.10000e-15
  70
    32
  0
VERTEX
  8
0
  5
707CC90
 10
-5.00000
 20
28.7269
 30
1.10000e-15
  70
    32
  0
VERTEX
  8
0
  5
707CC91
 10
-5.00000
 20
28.7577
 30
1.10000e-15
  70
    32
  0
VERTEX
  8
0
  5
707CC92
 10
-5.00000
 20
28.7886
 30
1.10000e-15
  70
    32
  0
VERTEX
  8
0
  5
707CC93
 10
-5.00000
 20
28.8195
 30
1.10000e-15
  70
    32
  0
SEQEND
  8
0
  5
707CC94
  0
POLYLINE
  8
0
  5
707CC95
  66
     1
 10
0.00000
 20
0.00000
 30
0.00000
  70
     8
  0
VERTEX
  8
0
  5
707CC96
 10
5.00000
 20
28.8195
 30
-1.10000e-15
  70
    32
  0
VERTEX
  8
0
  5
707CC97
 10
5.00000
 20
28.7886
 30
-1.10000e-15
  70
    32
  0
VERTEX
  8
0
  5
707CC98
 10
5.00000
 20
28.7577
 30
-1.10000e-15
  70
    32
  0
VERTEX
  8
0
  5
707CC99
 10
5.00000
 20
28.7269
 30
-1.10000e-15
  70
    32
  0
VERTEX
  8
0
  5
707CC9A
 10
5.00000
 20
28.6961
 30
-1.10000e-15
  70
    32
  0
VERTEX
  8
0
  5
707CC9B
 10
5.00000
 20
28.6653
 30
-1.10000e-15
  70
    32
  0
VERTEX
  8
0
  5
707CC9C
 10
5.00000
 20
28.6346
 30
-1.10000e-15
  70
    32
  0
VERTEX
  8
0
  5
707CC9D
 10
5.00000
 20
28.6039
 30
-1.10000e-15
  70
    32
  0
VERTEX
  8
0
  5
707CC9E
 10
5.00000
 20
28.5732
 30
-1.10000e-15
  70
    32
  0
VERTEX
  8
0
  5
707CC9F
 10
5.00000
 20
28.5426
 30
-1.10000e-15
  70
    32
  0
VERTEX
  8
0
  5
707CCA0
 10
5.00000
 20
28.5120
 30
-1.10000e-15
  70
    32
  0
VERTEX
  8
0
  5
707CCA1
 10
5.00000
 20
28.4814
 30
-1.10000e-15
  70
    32
  0
VERTEX
  8
0
  5
707CCA2
 10
5.00000
 20
28.4508
 30
-1.10000e-15
  70
    32
  0
VERTEX
  8
0
  5
707CCA3
 10
5.00000
 20
28.4203
 30
-1.10000e-15
  70
    32
  0
VERTEX
  8
0
  5
707CCA4
 10
5.00000
 20
28.3899
 30
-1.10000e-15
  70
    32
  0
VERTEX
  8
0
  5
707CCA5
 10
5.00000
 20
28.3594
 30
-1.10000e-15
  70
    32
  0
VERTEX
  8
0
  5
707CCA6
 10
5.00000
 20
28.3290
 30
-1.10000e-15
  70
    32
  0
VERTEX
  8
0
  5
707CCA7
 10
5.00000
 20
28.2986
 30
-1.10000e-15
  70
    32
  0
VERTEX
  8
0
  5
707CCA8
 10
5.00000
 20
28.2683
 30
-1.10000e-15
  70
    32
  0
VERTEX
  8
0
  5
707CCA9
 10
5.00000
 20
28.2380
 30
-1.10000e-15
  70
    32
  0
VERTEX
  8
0
  5
707CCAA
 10
5.00000
 20
28.2077
 30
-1.10000e-15
  70
    32
  0
VERTEX
  8
0
  5
707CCAB
 10
5.00000
 20
28.1774
 30
-1.10000e-15
  70
    32
  0
VERTEX
  8
0
  5
707CCAC
 10
5.00000
 20
28.1472
 30
-1.10000e-15
  70
    32
  0
VERTEX
  8
0
  5
707CCAD
 10
5.00000
 20
28.1170
 30
-1.10000e-15
  70
    32
  0
VERTEX
  8
0
  5
707CCAE
 10
5.00000
 20
28.0869
 30
-1.10000e-15
  70
    32
  0
VERTEX
  8
0
  5
707CCAF
 10
5.00000
 20
28.0568
 30
-1.10000e-15
  70
    32
  0
VERTEX
  8
0
  5
707CCB0
 10
5.00000
 20
28.0267
 30
-1.10000e-15
  70
    32
  0
VERTEX
  8
0
  5
707CCB1
 10
5.00000
 20
27.9966
 30
-1.10000e-15
  70
    32
  0
VERTEX
  8
0
  5
707CCB2
 10
5.00000
 20
27.9666
 30
-1.10000e-15
  70
    32
  0
VERTEX
  8
0
  5
707CCB3
 10
5.00000
 20
27.9366
 30
-1.10000e-15
  70
    32
  0
VERTEX
  8
0
  5
707CCB4
 10
5.00000
 20
27.9066
 30
-1.10000e-15
  70
    32
  0
VERTEX
  8
0
  5
707CCB5
 10
5.00000
 20
27.8767
 30
-1.10000e-15
  70
    32
  0
VERTEX
  8
0
  5
707CCB6
 10
5.00000
 20
27.8468
 30
-1.10000e-15
  70
    32
  0
VERTEX
  8
0
  5
707CCB7
 10
5.00000
 20
27.8169
 30
-1.10000e-15
  70
    32
  0
VERTEX
  8
0
  5
707CCB8
 10
5.00000
 20
27.7871
 30
-1.10000e-15
  70
    32
  0
VERTEX
  8
0
  5
707CCB9
 10
5.00000
 20
27.7573
 30
-1.10000e-15
  70
    32
  0
VERTEX
  8
0
  5
707CCBA
 10
5.00000
 20
27.7275
 30
-1.10000e-15
  70
    32
  0
VERTEX
  8
0
  5
707CCBB
 10
5.00000
 20
27.6977
 30
-1.10000e-15
  70
    32
  0
VERTEX
  8
0
  5
707CCBC
 10
5.00000
 20
27.6680
 30
-1.10000e-15
  70
    32
  0
VERTEX
  8
0
  5
707CCBD
 10
5.00000
 20
27.6383
 30
-1.10000e-15
  70
    32
  0
VERTEX
  8
0
  5
707CCBE
 10
5.00000
 20
27.6087
 30
-1.10000e-15
  70
    32
  0
VERTEX
  8
0
  5
707CCBF
 10
5.00000
 20
27.5791
 30
-1.10000e-15
  70
    32
  0
VERTEX
  8
0
  5
707CCC0
 10
5.00000
 20
27.5495
 30
-1.10000e-15
  70
    32
  0
VERTEX
  8
0
  5
707CCC1
 10
5.00000
 20
27.5199
 30
-1.10000e-15
  70
    32
  0
VERTEX
  8
0
  5
707CCC2
 10
5.00000
 20
27.4904
 30
-1.10000e-15
  70
    32
  0
VERTEX
  8
0
  5
707CCC3
 10
5.00000
 20
27.4609
 30
-1.10000e-15
  70
    32
  0
VERTEX
  8
0
  5
707CCC4
 10
5.00000
 20
27.4314
 30
-1.10000e-15
  70
    32
  0
VERTEX
  8
0
  5
707CCC5
 10
5.00000
 20
27.4020
 30
-1.10000e-15
  70
    32
  0
VERTEX
  8
0
  5
707CCC6
 10
5.00000
 20
27.3726
 30
-1.10000e-15
  70
    32
  0
VERTEX
  8
0
  5
707CCC7
 10
5.00000
 20
27.3432
 30
-1.10000e-15
  70
    32
  0
VERTEX
  8
0
  5
707CCC8
 10
5.00000
 20
27.3138
 30
-1.10000e-15
  70
    32
  0
VERTEX
  8
0
  5
707CCC9
 10
5.00000
 20
27.2845
 30
-1.10000e-15
  70
    32
  0
VERTEX
  8
0
  5
707CCCA
 10
5.00000
 20
27.2552
 30
-1.10000e-15
  70
    32
  0
VERTEX
  8
0
  5
707CCCB
 10
5.00000
 20
27.2260
 30
-1.10000e-15
  70
    32
  0
VERTEX
  8
0
  5
707CCCC
 10
5.00000
 20
27.1968
 30
-1.10000e-15
  70
    32
  0
VERTEX
  8
0
  5
707CCCD
 10
5.00000
 20
27.1676
 30
-1.10000e-15
  70
    32
  0
VERTEX
  8
0
  5
707CCCE
 10
5.00000
 20
27.1384
 30
-1.10000e-15
  70
    32
  0
VERTEX
  8
0
  5
707CCCF
 10
5.00000
 20
27.1093
 30
-1.10000e-15
  70
    32
  0
VERTEX
  8
0
  5
707CCD0
 10
5.00000
 20
27.0802
 30
-1.10000e-15
  70
    32
  0
VERTEX
  8
0
  5
707CCD1
 10
5.00000
 20
27.0511
 30
-1.10000e-15
  70
    32
  0
VERTEX
  8
0
  5
707CCD2
 10
5.00000
 20
27.0220
 30
-1.10000e-15
  70
    32
  0
VERTEX
  8
0
  5
707CCD3
 10
5.00000
 20
26.9930
 30
-1.10000e-15
  70
    32
  0
VERTEX
  8
0
  5
707CCD4
 10
5.00000
 20
26.9640
 30
-1.10000e-15
  70
    32
  0
VERTEX
  8
0
  5
707CCD5
 10
5.00000
 20
26.9351
 30
-1.10000e-15
  70
    32
  0
VERTEX
  8
0
  5
707CCD6
 10
5.00000
 20
26.9062
 30
-1.10000e-15
  70
    32
  0
VERTEX
  8
0
  5
707CCD7
 10
5.00000
 20
26.8773
 30
-1.10000e-15
  70
    32
  0
VERTEX
  8
0
  5
707CCD8
 10
5.00000
 20
26.8484
 30
-1.10000e-15
  70
    32
  0
VERTEX
  8
0
  5
707CCD9
 10
5.00000
 20
26.8196
 30
-1.10000e-15
  70
    32
  0
VERTEX
  8
0
  5
707CCDA
 10
5.00000
 20
26.7908
 30
-1.10000e-15
  70
    32
  0
VERTEX
  8
0
  5
707CCDB
 10
5.00000
 20
26.7620
 30
-1.10000e-15
  70
    32
  0
VERTEX
  8
0
  5
707CCDC
 10
5.00000
 20
26.7332
 30
-1.10000e-15
  70
    32
  0
VERTEX
  8
0
  5
707CCDD
 10
5.00000
 20
26.7045
 30
-1.10000e-15
  70
    32
  0
VERTEX
  8
0
  5
707CCDE
 10
5.00000
 20
26.6758
 30
-1.10000e-15
  70
    32
  0
VERTEX
  8
0
  5
707CCDF
 10
5.00000
 20
26.6472
 30
-1.10000e-15
  70
    32
  0
VERTEX
  8
0
  5
707CCE0
 10
5.00000
 20
26.6185
 30
-1.10000e-15
  70
    32
  0
VERTEX
  8
0
  5
707CCE1
 10
5.00000
 20
26.5899
 30
-1.10000e-15
  70
    32
  0
VERTEX
  8
0
  5
707CCE2
 10
5.00000
 20
26.5614
 30
-1.10000e-15
  70
    32
  0
VERTEX
  8
0
  5
707CCE3
 10
5.00000
 20
26.5328
 30
-1.10000e-15
  70
    32
  0
VERTEX
  8
0
  5
707CCE4
 10
5.00000
 20
26.5043
 30
-1.10000e-15
  70
    32
  0
VERTEX
  8
0
  5
707CCE5
 10
5.00000
 20
26.4758
 30
-1.10000e-15
  70
    32
  0
VERTEX
  8
0
  5
707CCE6
 10
5.00000
 20
26.4474
 30
-1.10000e-15
  70
    32
  0
VERTEX
  8
0
  5
707CCE7
 10
5.00000
 20
26.4190
 30
-1.10000e-15
  70
    32
  0
VERTEX
  8
0
  5
707CCE8
 10
5.00000
 20
26.3906
 30
-1.10000e-15
  70
    32
  0
VERTEX
  8
0
  5
707CCE9
 10
5.00000
 20
26.3622
 30
-1.10000e-15
  70
    32
  0
VERTEX
  8
0
  5
707CCEA
 10
5.00000
 20
26.3339
 30
-1.10000e-15
  70
    32
  0
VERTEX
  8
0
  5
707CCEB
 10
5.00000
 20
26.3055
 30
-1.10000e-15
  70
    32
  0
VERTEX
  8
0
  5
707CCEC
 10
5.00000
 20
26.2773
 30
-1.10000e-15
  70
    32
  0
VERTEX
  8
0
  5
707CCED
 10
5.00000
 20
26.2490
 30
-1.10000e-15
  70
    32
  0
VERTEX
  8
0
  5
707CCEE
 10
5.00000
 20
26.2208
 30
-1.10000e-15
  70
    32
  0
VERTEX
  8
0
  5
707CCEF
 10
5.00000
 20
26.1926
 30
-1.10000e-15
  70
    32
  0
VERTEX
  8
0
  5
707CCF0
 10
5.00000
 20
26.1644
 30
-1.10000e-15
  70
    32
  0
VERTEX
  8
0
  5
707CCF1
 10
5.00000
 20
26.1363
 30
-1.10000e-15
  70
    32
  0
VERTEX
  8
0
  5
707CCF2
 10
5.00000
 20
26.1082
 30
-1.10000e-15
  70
    32
  0
VERTEX
  8
0
  5
707CCF3
 10
5.00000
 20
26.0801
 30
-1.10000e-15
  70
    32
  0
VERTEX
  8
0
  5
707CCF4
 10
5.00000
 20
26.0521
 30
-1.10000e-15
  70
    32
  0
VERTEX
  8
0
  5
707CCF5
 10
5.00000
 20
26.0240
 30
-1.10000e-15
  70
    32
  0
SEQEND
  8
0
  5
707CCF6
  0
ARC
  5
707C7E2
  8
0
  6
CONTINUOUS
 10
-0.0000000000001635
 20
0.000000000000123
 30
0.0
 40
29.9958546133823489
 50
99.5954066494835359
 51
80.4045933505165209
  0
POLYLINE
  8
0
  5
707CCF7
  66
     1
 10
0.00000
 20
0.00000
 30
0.00000
  70
     8
  0
VERTEX
  8
0
  5
707CCF8
 10
5.00000
 20
28.8195
 30
-1.10000e-15
  70
    32
  0
VERTEX
  8
0
  5
707CCF9
 10
5.00000
 20
28.8273
 30
-1.10000e-15
  70
    32
  0
VERTEX
  8
0
  5
707CCFA
 10
5.00000
 20
28.8352
 30
-1.10000e-15
  70
    32
  0
VERTEX
  8
0
  5
707CCFB
 10
5.00000
 20
28.8431
 30
-1.10000e-15
  70
    32
  0
VERTEX
  8
0
  5
707CCFC
 10
5.00000
 20
28.8510
 30
-1.10000e-15
  70
    32
  0
VERTEX
  8
0
  5
707CCFD
 10
5.00000
 20
28.8588
 30
-1.10000e-15
  70
    32
  0
VERTEX
  8
0
  5
707CCFE
 10
5.00000
 20
28.8667
 30
-1.10000e-15
  70
    32
  0
VERTEX
  8
0
  5
707CCFF
 10
5.00000
 20
28.8746
 30
-1.10000e-15
  70
    32
  0
VERTEX
  8
0
  5
707CD00
 10
5.00000
 20
28.8825
 30
-1.10000e-15
  70
    32
  0
VERTEX
  8
0
  5
707CD01
 10
5.00000
 20
28.8904
 30
-1.10000e-15
  70
    32
  0
VERTEX
  8
0
  5
707CD02
 10
5.00000
 20
28.8982
 30
-1.10000e-15
  70
    32
  0
VERTEX
  8
0
  5
707CD03
 10
5.00000
 20
28.9061
 30
-1.10000e-15
  70
    32
  0
VERTEX
  8
0
  5
707CD04
 10
5.00000
 20
28.9140
 30
-1.10000e-15
  70
    32
  0
VERTEX
  8
0
  5
707CD05
 10
5.00000
 20
28.9219
 30
-1.10000e-15
  70
    32
  0
VERTEX
  8
0
  5
707CD06
 10
5.00000
 20
28.9298
 30
-1.10000e-15
  70
    32
  0
VERTEX
  8
0
  5
707CD07
 10
5.00000
 20
28.9377
 30
-1.10000e-15
  70
    32
  0
VERTEX
  8
0
  5
707CD08
 10
5.00000
 20
28.9456
 30
-1.10000e-15
  70
    32
  0
VERTEX
  8
0
  5
707CD09
 10
5.00000
 20
28.9535
 30
-1.10000e-15
  70
    32
  0
VERTEX
  8
0
  5
707CD0A
 10
5.00000
 20
28.9614
 30
-1.10000e-15
  70
    32
  0
VERTEX
  8
0
  5
707CD0B
 10
5.00000
 20
28.9693
 30
-1.10000e-15
  70
    32
  0
VERTEX
  8
0
  5
707CD0C
 10
5.00000
 20
28.9772
 30
-1.10000e-15
  70
    32
  0
VERTEX
  8
0
  5
707CD0D
 10
5.00000
 20
28.9851
 30
-1.10000e-15
  70
    32
  0
VERTEX
  8
0
  5
707CD0E
 10
5.00000
 20
28.9930
 30
-1.10000e-15
  70
    32
  0
VERTEX
  8
0
  5
707CD0F
 10
5.00000
 20
29.0009
 30
-1.10000e-15
  70
    32
  0
VERTEX
  8
0
  5
707CD10
 10
5.00000
 20
29.0089
 30
-1.10000e-15
  70
    32
  0
VERTEX
  8
0
  5
707CD11
 10
5.00000
 20
29.0168
 30
-1.10000e-15
  70
    32
  0
VERTEX
  8
0
  5
707CD12
 10
5.00000
 20
29.0247
 30
-1.10000e-15
  70
    32
  0
VERTEX
  8
0
  5
707CD13
 10
5.00000
 20
29.0326
 30
-1.10000e-15
  70
    32
  0
VERTEX
  8
0
  5
707CD14
 10
5.00000
 20
29.0405
 30
-1.10000e-15
  70
    32
  0
VERTEX
  8
0
  5
707CD15
 10
5.00000
 20
29.0485
 30
-1.10000e-15
  70
    32
  0
VERTEX
  8
0
  5
707CD16
 10
5.00000
 20
29.0564
 30
-1.10000e-15
  70
    32
  0
VERTEX
  8
0
  5
707CD17
 10
5.00000
 20
29.0643
 30
-1.10000e-15
  70
    32
  0
VERTEX
  8
0
  5
707CD18
 10
5.00000
 20
29.0723
 30
-1.10000e-15
  70
    32
  0
VERTEX
  8
0
  5
707CD19
 10
5.00000
 20
29.0802
 30
-1.10000e-15
  70
    32
  0
VERTEX
  8
0
  5
707CD1A
 10
5.00000
 20
29.0881
 30
-1.10000e-15
  70
    32
  0
VERTEX
  8
0
  5
707CD1B
 10
5.00000
 20
29.0961
 30
-1.10000e-15
  70
    32
  0
VERTEX
  8
0
  5
707CD1C
 10
5.00000
 20
29.1040
 30
-1.10000e-15
  70
    32
  0
VERTEX
  8
0
  5
707CD1D
 10
5.00000
 20
29.1119
 30
-1.10000e-15
  70
    32
  0
VERTEX
  8
0
  5
707CD1E
 10
5.00000
 20
29.1199
 30
-1.10000e-15
  70
    32
  0
VERTEX
  8
0
  5
707CD1F
 10
5.00000
 20
29.1278
 30
-1.10000e-15
  70
    32
  0
VERTEX
  8
0
  5
707CD20
 10
5.00000
 20
29.1358
 30
-1.10000e-15
  70
    32
  0
VERTEX
  8
0
  5
707CD21
 10
5.00000
 20
29.1437
 30
-1.10000e-15
  70
    32
  0
VERTEX
  8
0
  5
707CD22
 10
5.00000
 20
29.1517
 30
-1.10000e-15
  70
    32
  0
VERTEX
  8
0
  5
707CD23
 10
5.00000
 20
29.1596
 30
-1.10000e-15
  70
    32
  0
VERTEX
  8
0
  5
707CD24
 10
5.00000
 20
29.1676
 30
-1.10000e-15
  70
    32
  0
VERTEX
  8
0
  5
707CD25
 10
5.00000
 20
29.1756
 30
-1.10000e-15
  70
    32
  0
VERTEX
  8
0
  5
707CD26
 10
5.00000
 20
29.1835
 30
-1.10000e-15
  70
    32
  0
VERTEX
  8
0
  5
707CD27
 10
5.00000
 20
29.1915
 30
-1.10000e-15
  70
    32
  0
VERTEX
  8
0
  5
707CD28
 10
5.00000
 20
29.1994
 30
-1.10000e-15
  70
    32
  0
VERTEX
  8
0
  5
707CD29
 10
5.00000
 20
29.2074
 30
-1.10000e-15
  70
    32
  0
VERTEX
  8
0
  5
707CD2A
 10
5.00000
 20
29.2154
 30
-1.10000e-15
  70
    32
  0
VERTEX
  8
0
  5
707CD2B
 10
5.00000
 20
29.2233
 30
-1.10000e-15
  70
    32
  0
VERTEX
  8
0
  5
707CD2C
 10
5.00000
 20
29.2313
 30
-1.10000e-15
  70
    32
  0
VERTEX
  8
0
  5
707CD2D
 10
5.00000
 20
29.2393
 30
-1.10000e-15
  70
    32
  0
VERTEX
  8
0
  5
707CD2E
 10
5.00000
 20
29.2473
 30
-1.10000e-15
  70
    32
  0
VERTEX
  8
0
  5
707CD2F
 10
5.00000
 20
29.2553
 30
-1.10000e-15
  70
    32
  0
VERTEX
  8
0
  5
707CD30
 10
5.00000
 20
29.2632
 30
-1.10000e-15
  70
    32
  0
VERTEX
  8
0
  5
707CD31
 10
5.00000
 20
29.2712
 30
-1.10000e-15
  70
    32
  0
VERTEX
  8
0
  5
707CD32
 10
5.00000
 20
29.2792
 30
-1.10000e-15
  70
    32
  0
VERTEX
  8
0
  5
707CD33
 10
5.00000
 20
29.2872
 30
-1.10000e-15
  70
    32
  0
VERTEX
  8
0
  5
707CD34
 10
5.00000
 20
29.2952
 30
-1.10000e-15
  70
    32
  0
VERTEX
  8
0
  5
707CD35
 10
5.00000
 20
29.3032
 30
-1.10000e-15
  70
    32
  0
VERTEX
  8
0
  5
707CD36
 10
5.00000
 20
29.3112
 30
-1.10000e-15
  70
    32
  0
VERTEX
  8
0
  5
707CD37
 10
5.00000
 20
29.3192
 30
-1.10000e-15
  70
    32
  0
VERTEX
  8
0
  5
707CD38
 10
5.00000
 20
29.3272
 30
-1.10000e-15
  70
    32
  0
VERTEX
  8
0
  5
707CD39
 10
5.00000
 20
29.3352
 30
-1.10000e-15
  70
    32
  0
VERTEX
  8
0
  5
707CD3A
 10
5.00000
 20
29.3432
 30
-1.10000e-15
  70
    32
  0
VERTEX
  8
0
  5
707CD3B
 10
5.00000
 20
29.3512
 30
-1.10000e-15
  70
    32
  0
VERTEX
  8
0
  5
707CD3C
 10
5.00000
 20
29.3592
 30
-1.10000e-15
  70
    32
  0
VERTEX
  8
0
  5
707CD3D
 10
5.00000
 20
29.3672
 30
-1.10000e-15
  70
    32
  0
VERTEX
  8
0
  5
707CD3E
 10
5.00000
 20
29.3752
 30
-1.10000e-15
  70
    32
  0
VERTEX
  8
0
  5
707CD3F
 10
5.00000
 20
29.3832
 30
-1.10000e-15
  70
    32
  0
VERTEX
  8
0
  5
707CD40
 10
5.00000
 20
29.3912
 30
-1.10000e-15
  70
    32
  0
VERTEX
  8
0
  5
707CD41
 10
5.00000
 20
29.3993
 30
-1.10000e-15
  70
    32
  0
VERTEX
  8
0
  5
707CD42
 10
5.00000
 20
29.4073
 30
-1.10000e-15
  70
    32
  0
VERTEX
  8
0
  5
707CD43
 10
5.00000
 20
29.4153
 30
-1.10000e-15
  70
    32
  0
VERTEX
  8
0
  5
707CD44
 10
5.00000
 20
29.4233
 30
-1.10000e-15
  70
    32
  0
VERTEX
  8
0
  5
707CD45
 10
5.00000
 20
29.4313
 30
-1.10000e-15
  70
    32
  0
VERTEX
  8
0
  5
707CD46
 10
5.00000
 20
29.4394
 30
-1.10000e-15
  70
    32
  0
VERTEX
  8
0
  5
707CD47
 10
5.00000
 20
29.4474
 30
-1.10000e-15
  70
    32
  0
VERTEX
  8
0
  5
707CD48
 10
5.00000
 20
29.4554
 30
-1.10000e-15
  70
    32
  0
VERTEX
  8
0
  5
707CD49
 10
5.00000
 20
29.4635
 30
-1.10000e-15
  70
    32
  0
VERTEX
  8
0
  5
707CD4A
 10
5.00000
 20
29.4715
 30
-1.10000e-15
  70
    32
  0
VERTEX
  8
0
  5
707CD4B
 10
5.00000
 20
29.4796
 30
-1.10000e-15
  70
    32
  0
VERTEX
  8
0
  5
707CD4C
 10
5.00000
 20
29.4876
 30
-1.10000e-15
  70
    32
  0
VERTEX
  8
0
  5
707CD4D
 10
5.00000
 20
29.4956
 30
-1.10000e-15
  70
    32
  0
VERTEX
  8
0
  5
707CD4E
 10
5.00000
 20
29.5037
 30
-1.10000e-15
  70
    32
  0
VERTEX
  8
0
  5
707CD4F
 10
5.00000
 20
29.5117
 30
-1.10000e-15
  70
    32
  0
VERTEX
  8
0
  5
707CD50
 10
5.00000
 20
29.5198
 30
-1.10000e-15
  70
    32
  0
VERTEX
  8
0
  5
707CD51
 10
5.00000
 20
29.5278
 30
-1.10000e-15
  70
    32
  0
VERTEX
  8
0
  5
707CD52
 10
5.00000
 20
29.5359
 30
-1.10000e-15
  70
    32
  0
VERTEX
  8
0
  5
707CD53
 10
5.00000
 20
29.5439
 30
-1.10000e-15
  70
    32
  0
VERTEX
  8
0
  5
707CD54
 10
5.00000
 20
29.5520
 30
-1.10000e-15
  70
    32
  0
VERTEX
  8
0
  5
707CD55
 10
5.00000
 20
29.5601
 30
-1.10000e-15
  70
    32
  0
VERTEX
  8
0
  5
707CD56
 10
5.00000
 20
29.5681
 30
-1.10000e-15
  70
    32
  0
VERTEX
  8
0
  5
707CD57
 10
5.00000
 20
29.5762
 30
-1.10000e-15
  70
    32
  0
SEQEND
  8
0
  5
707CD58
  0
ARC
  5
707C7E4
  8
0
  6
CONTINUOUS
 10
-0.0000000000001554
 20
-0.0000000000000166
 30
0.0
 40
29.250000000001819
 50
99.8424870696329521
 51
80.1575129303675311
  0
POLYLINE
  8
0
  5
707CD59
  66
     1
 10
0.00000
 20
0.00000
 30
0.00000
  70
     8
  0
VERTEX
  8
0
  5
707CD5A
 10
-5.00000
 20
29.5762
 30
1.10000e-15
  70
    32
  0
VERTEX
  8
0
  5
707CD5B
 10
-5.00000
 20
29.5681
 30
1.10000e-15
  70
    32
  0
VERTEX
  8
0
  5
707CD5C
 10
-5.00000
 20
29.5601
 30
1.10000e-15
  70
    32
  0
VERTEX
  8
0
  5
707CD5D
 10
-5.00000
 20
29.5520
 30
1.10000e-15
  70
    32
  0
VERTEX
  8
0
  5
707CD5E
 10
-5.00000
 20
29.5439
 30
1.10000e-15
  70
    32
  0
VERTEX
  8
0
  5
707CD5F
 10
-5.00000
 20
29.5359
 30
1.10000e-15
  70
    32
  0
VERTEX
  8
0
  5
707CD60
 10
-5.00000
 20
29.5278
 30
1.10000e-15
  70
    32
  0
VERTEX
  8
0
  5
707CD61
 10
-5.00000
 20
29.5198
 30
1.10000e-15
  70
    32
  0
VERTEX
  8
0
  5
707CD62
 10
-5.00000
 20
29.5117
 30
1.10000e-15
  70
    32
  0
VERTEX
  8
0
  5
707CD63
 10
-5.00000
 20
29.5037
 30
1.10000e-15
  70
    32
  0
VERTEX
  8
0
  5
707CD64
 10
-5.00000
 20
29.4956
 30
1.10000e-15
  70
    32
  0
VERTEX
  8
0
  5
707CD65
 10
-5.00000
 20
29.4876
 30
1.10000e-15
  70
    32
  0
VERTEX
  8
0
  5
707CD66
 10
-5.00000
 20
29.4796
 30
1.10000e-15
  70
    32
  0
VERTEX
  8
0
  5
707CD67
 10
-5.00000
 20
29.4715
 30
1.10000e-15
  70
    32
  0
VERTEX
  8
0
  5
707CD68
 10
-5.00000
 20
29.4635
 30
1.10000e-15
  70
    32
  0
VERTEX
  8
0
  5
707CD69
 10
-5.00000
 20
29.4554
 30
1.10000e-15
  70
    32
  0
VERTEX
  8
0
  5
707CD6A
 10
-5.00000
 20
29.4474
 30
1.10000e-15
  70
    32
  0
VERTEX
  8
0
  5
707CD6B
 10
-5.00000
 20
29.4394
 30
1.10000e-15
  70
    32
  0
VERTEX
  8
0
  5
707CD6C
 10
-5.00000
 20
29.4313
 30
1.10000e-15
  70
    32
  0
VERTEX
  8
0
  5
707CD6D
 10
-5.00000
 20
29.4233
 30
1.10000e-15
  70
    32
  0
VERTEX
  8
0
  5
707CD6E
 10
-5.00000
 20
29.4153
 30
1.10000e-15
  70
    32
  0
VERTEX
  8
0
  5
707CD6F
 10
-5.00000
 20
29.4073
 30
1.10000e-15
  70
    32
  0
VERTEX
  8
0
  5
707CD70
 10
-5.00000
 20
29.3993
 30
1.10000e-15
  70
    32
  0
VERTEX
  8
0
  5
707CD71
 10
-5.00000
 20
29.3912
 30
1.10000e-15
  70
    32
  0
VERTEX
  8
0
  5
707CD72
 10
-5.00000
 20
29.3832
 30
1.10000e-15
  70
    32
  0
VERTEX
  8
0
  5
707CD73
 10
-5.00000
 20
29.3752
 30
1.10000e-15
  70
    32
  0
VERTEX
  8
0
  5
707CD74
 10
-5.00000
 20
29.3672
 30
1.10000e-15
  70
    32
  0
VERTEX
  8
0
  5
707CD75
 10
-5.00000
 20
29.3592
 30
1.10000e-15
  70
    32
  0
VERTEX
  8
0
  5
707CD76
 10
-5.00000
 20
29.3512
 30
1.10000e-15
  70
    32
  0
VERTEX
  8
0
  5
707CD77
 10
-5.00000
 20
29.3432
 30
1.10000e-15
  70
    32
  0
VERTEX
  8
0
  5
707CD78
 10
-5.00000
 20
29.3352
 30
1.10000e-15
  70
    32
  0
VERTEX
  8
0
  5
707CD79
 10
-5.00000
 20
29.3272
 30
1.10000e-15
  70
    32
  0
VERTEX
  8
0
  5
707CD7A
 10
-5.00000
 20
29.3192
 30
1.10000e-15
  70
    32
  0
VERTEX
  8
0
  5
707CD7B
 10
-5.00000
 20
29.3112
 30
1.10000e-15
  70
    32
  0
VERTEX
  8
0
  5
707CD7C
 10
-5.00000
 20
29.3032
 30
1.10000e-15
  70
    32
  0
VERTEX
  8
0
  5
707CD7D
 10
-5.00000
 20
29.2952
 30
1.10000e-15
  70
    32
  0
VERTEX
  8
0
  5
707CD7E
 10
-5.00000
 20
29.2872
 30
1.10000e-15
  70
    32
  0
VERTEX
  8
0
  5
707CD7F
 10
-5.00000
 20
29.2792
 30
1.10000e-15
  70
    32
  0
VERTEX
  8
0
  5
707CD80
 10
-5.00000
 20
29.2712
 30
1.10000e-15
  70
    32
  0
VERTEX
  8
0
  5
707CD81
 10
-5.00000
 20
29.2632
 30
1.10000e-15
  70
    32
  0
VERTEX
  8
0
  5
707CD82
 10
-5.00000
 20
29.2553
 30
1.10000e-15
  70
    32
  0
VERTEX
  8
0
  5
707CD83
 10
-5.00000
 20
29.2473
 30
1.10000e-15
  70
    32
  0
VERTEX
  8
0
  5
707CD84
 10
-5.00000
 20
29.2393
 30
1.10000e-15
  70
    32
  0
VERTEX
  8
0
  5
707CD85
 10
-5.00000
 20
29.2313
 30
1.10000e-15
  70
    32
  0
VERTEX
  8
0
  5
707CD86
 10
-5.00000
 20
29.2233
 30
1.10000e-15
  70
    32
  0
VERTEX
  8
0
  5
707CD87
 10
-5.00000
 20
29.2154
 30
1.10000e-15
  70
    32
  0
VERTEX
  8
0
  5
707CD88
 10
-5.00000
 20
29.2074
 30
1.10000e-15
  70
    32
  0
VERTEX
  8
0
  5
707CD89
 10
-5.00000
 20
29.1994
 30
1.10000e-15
  70
    32
  0
VERTEX
  8
0
  5
707CD8A
 10
-5.00000
 20
29.1915
 30
1.10000e-15
  70
    32
  0
VERTEX
  8
0
  5
707CD8B
 10
-5.00000
 20
29.1835
 30
1.10000e-15
  70
    32
  0
VERTEX
  8
0
  5
707CD8C
 10
-5.00000
 20
29.1756
 30
1.10000e-15
  70
    32
  0
VERTEX
  8
0
  5
707CD8D
 10
-5.00000
 20
29.1676
 30
1.10000e-15
  70
    32
  0
VERTEX
  8
0
  5
707CD8E
 10
-5.00000
 20
29.1596
 30
1.10000e-15
  70
    32
  0
VERTEX
  8
0
  5
707CD8F
 10
-5.00000
 20
29.1517
 30
1.10000e-15
  70
    32
  0
VERTEX
  8
0
  5
707CD90
 10
-5.00000
 20
29.1437
 30
1.10000e-15
  70
    32
  0
VERTEX
  8
0
  5
707CD91
 10
-5.00000
 20
29.1358
 30
1.10000e-15
  70
    32
  0
VERTEX
  8
0
  5
707CD92
 10
-5.00000
 20
29.1278
 30
1.10000e-15
  70
    32
  0
VERTEX
  8
0
  5
707CD93
 10
-5.00000
 20
29.1199
 30
1.10000e-15
  70
    32
  0
VERTEX
  8
0
  5
707CD94
 10
-5.00000
 20
29.1119
 30
1.10000e-15
  70
    32
  0
VERTEX
  8
0
  5
707CD95
 10
-5.00000
 20
29.1040
 30
1.10000e-15
  70
    32
  0
VERTEX
  8
0
  5
707CD96
 10
-5.00000
 20
29.0961
 30
1.10000e-15
  70
    32
  0
VERTEX
  8
0
  5
707CD97
 10
-5.00000
 20
29.0881
 30
1.10000e-15
  70
    32
  0
VERTEX
  8
0
  5
707CD98
 10
-5.00000
 20
29.0802
 30
1.10000e-15
  70
    32
  0
VERTEX
  8
0
  5
707CD99
 10
-5.00000
 20
29.0723
 30
1.10000e-15
  70
    32
  0
VERTEX
  8
0
  5
707CD9A
 10
-5.00000
 20
29.0643
 30
1.10000e-15
  70
    32
  0
VERTEX
  8
0
  5
707CD9B
 10
-5.00000
 20
29.0564
 30
1.10000e-15
  70
    32
  0
VERTEX
  8
0
  5
707CD9C
 10
-5.00000
 20
29.0485
 30
1.10000e-15
  70
    32
  0
VERTEX
  8
0
  5
707CD9D
 10
-5.00000
 20
29.0405
 30
1.10000e-15
  70
    32
  0
VERTEX
  8
0
  5
707CD9E
 10
-5.00000
 20
29.0326
 30
1.10000e-15
  70
    32
  0
VERTEX
  8
0
  5
707CD9F
 10
-5.00000
 20
29.0247
 30
1.10000e-15
  70
    32
  0
VERTEX
  8
0
  5
707CDA0
 10
-5.00000
 20
29.0168
 30
1.10000e-15
  70
    32
  0
VERTEX
  8
0
  5
707CDA1
 10
-5.00000
 20
29.0089
 30
1.10000e-15
  70
    32
  0
VERTEX
  8
0
  5
707CDA2
 10
-5.00000
 20
29.0009
 30
1.10000e-15
  70
    32
  0
VERTEX
  8
0
  5
707CDA3
 10
-5.00000
 20
28.9930
 30
1.10000e-15
  70
    32
  0
VERTEX
  8
0
  5
707CDA4
 10
-5.00000
 20
28.9851
 30
1.10000e-15
  70
    32
  0
VERTEX
  8
0
  5
707CDA5
 10
-5.00000
 20
28.9772
 30
1.10000e-15
  70
    32
  0
VERTEX
  8
0
  5
707CDA6
 10
-5.00000
 20
28.9693
 30
1.10000e-15
  70
    32
  0
VERTEX
  8
0
  5
707CDA7
 10
-5.00000
 20
28.9614
 30
1.10000e-15
  70
    32
  0
VERTEX
  8
0
  5
707CDA8
 10
-5.00000
 20
28.9535
 30
1.10000e-15
  70
    32
  0
VERTEX
  8
0
  5
707CDA9
 10
-5.00000
 20
28.9456
 30
1.10000e-15
  70
    32
  0
VERTEX
  8
0
  5
707CDAA
 10
-5.00000
 20
28.9377
 30
1.10000e-15
  70
    32
  0
VERTEX
  8
0
  5
707CDAB
 10
-5.00000
 20
28.9298
 30
1.10000e-15
  70
    32
  0
VERTEX
  8
0
  5
707CDAC
 10
-5.00000
 20
28.9219
 30
1.10000e-15
  70
    32
  0
VERTEX
  8
0
  5
707CDAD
 10
-5.00000
 20
28.9140
 30
1.10000e-15
  70
    32
  0
VERTEX
  8
0
  5
707CDAE
 10
-5.00000
 20
28.9061
 30
1.10000e-15
  70
    32
  0
VERTEX
  8
0
  5
707CDAF
 10
-5.00000
 20
28.8982
 30
1.10000e-15
  70
    32
  0
VERTEX
  8
0
  5
707CDB0
 10
-5.00000
 20
28.8904
 30
1.10000e-15
  70
    32
  0
VERTEX
  8
0
  5
707CDB1
 10
-5.00000
 20
28.8825
 30
1.10000e-15
  70
    32
  0
VERTEX
  8
0
  5
707CDB2
 10
-5.00000
 20
28.8746
 30
1.10000e-15
  70
    32
  0
VERTEX
  8
0
  5
707CDB3
 10
-5.00000
 20
28.8667
 30
1.10000e-15
  70
    32
  0
VERTEX
  8
0
  5
707CDB4
 10
-5.00000
 20
28.8588
 30
1.10000e-15
  70
    32
  0
VERTEX
  8
0
  5
707CDB5
 10
-5.00000
 20
28.8510
 30
1.10000e-15
  70
    32
  0
VERTEX
  8
0
  5
707CDB6
 10
-5.00000
 20
28.8431
 30
1.10000e-15
  70
    32
  0
VERTEX
  8
0
  5
707CDB7
 10
-5.00000
 20
28.8352
 30
1.10000e-15
  70
    32
  0
VERTEX
  8
0
  5
707CDB8
 10
-5.00000
 20
28.8273
 30
1.10000e-15
  70
    32
  0
VERTEX
  8
0
  5
707CDB9
 10
-5.00000
 20
28.8195
 30
1.10000e-15
  70
    32
  0
SEQEND
  8
0
  5
707CDBA
  0
POLYLINE
  8
0
  5
707CDBB
  66
     1
 10
0.00000
 20
0.00000
 30
0.00000
  70
     8
  0
VERTEX
  8
0
  5
707CDBC
 10
5.00000
 20
29.5762
 30
-1.10000e-15
  70
    32
  0
VERTEX
  8
0
  5
707CDBD
 10
5.00000
 20
29.6729
 30
-1.10000e-15
  70
    32
  0
VERTEX
  8
0
  5
707CDBE
 10
5.00000
 20
29.7700
 30
-1.10000e-15
  70
    32
  0
VERTEX
  8
0
  5
707CDBF
 10
5.00000
 20
29.8673
 30
-1.10000e-15
  70
    32
  0
VERTEX
  8
0
  5
707CDC0
 10
5.00000
 20
29.9649
 30
-1.10000e-15
  70
    32
  0
VERTEX
  8
0
  5
707CDC1
 10
5.00000
 20
30.0628
 30
-1.10000e-15
  70
    32
  0
VERTEX
  8
0
  5
707CDC2
 10
5.00000
 20
30.1610
 30
-1.10000e-15
  70
    32
  0
VERTEX
  8
0
  5
707CDC3
 10
5.00000
 20
30.2595
 30
-1.10000e-15
  70
    32
  0
VERTEX
  8
0
  5
707CDC4
 10
5.00000
 20
30.3583
 30
-1.10000e-15
  70
    32
  0
VERTEX
  8
0
  5
707CDC5
 10
5.00000
 20
30.4574
 30
-1.10000e-15
  70
    32
  0
VERTEX
  8
0
  5
707CDC6
 10
5.00000
 20
30.5567
 30
-1.10000e-15
  70
    32
  0
VERTEX
  8
0
  5
707CDC7
 10
5.00000
 20
30.6564
 30
-1.10000e-15
  70
    32
  0
VERTEX
  8
0
  5
707CDC8
 10
5.00000
 20
30.7564
 30
-1.10000e-15
  70
    32
  0
VERTEX
  8
0
  5
707CDC9
 10
5.00000
 20
30.8566
 30
-1.10000e-15
  70
    32
  0
VERTEX
  8
0
  5
707CDCA
 10
5.00000
 20
30.9572
 30
-1.10000e-15
  70
    32
  0
VERTEX
  8
0
  5
707CDCB
 10
5.00000
 20
31.0580
 30
-1.10000e-15
  70
    32
  0
VERTEX
  8
0
  5
707CDCC
 10
5.00000
 20
31.1592
 30
-1.10000e-15
  70
    32
  0
VERTEX
  8
0
  5
707CDCD
 10
5.00000
 20
31.2607
 30
-1.10000e-15
  70
    32
  0
VERTEX
  8
0
  5
707CDCE
 10
5.00000
 20
31.3625
 30
-1.10000e-15
  70
    32
  0
VERTEX
  8
0
  5
707CDCF
 10
5.00000
 20
31.4646
 30
-1.10000e-15
  70
    32
  0
VERTEX
  8
0
  5
707CDD0
 10
5.00000
 20
31.5670
 30
-1.10000e-15
  70
    32
  0
VERTEX
  8
0
  5
707CDD1
 10
5.00000
 20
31.6697
 30
-1.10000e-15
  70
    32
  0
VERTEX
  8
0
  5
707CDD2
 10
5.00000
 20
31.7727
 30
-1.10000e-15
  70
    32
  0
VERTEX
  8
0
  5
707CDD3
 10
5.00000
 20
31.8761
 30
-1.10000e-15
  70
    32
  0
VERTEX
  8
0
  5
707CDD4
 10
5.00000
 20
31.9797
 30
-1.10000e-15
  70
    32
  0
VERTEX
  8
0
  5
707CDD5
 10
5.00000
 20
32.0837
 30
-1.10000e-15
  70
    32
  0
VERTEX
  8
0
  5
707CDD6
 10
5.00000
 20
32.1880
 30
-1.10000e-15
  70
    32
  0
VERTEX
  8
0
  5
707CDD7
 10
5.00000
 20
32.2926
 30
-1.10000e-15
  70
    32
  0
VERTEX
  8
0
  5
707CDD8
 10
5.00000
 20
32.3975
 30
-1.10000e-15
  70
    32
  0
VERTEX
  8
0
  5
707CDD9
 10
5.00000
 20
32.5028
 30
-1.10000e-15
  70
    32
  0
VERTEX
  8
0
  5
707CDDA
 10
5.00000
 20
32.6084
 30
-1.10000e-15
  70
    32
  0
VERTEX
  8
0
  5
707CDDB
 10
5.00000
 20
32.7143
 30
-1.10000e-15
  70
    32
  0
VERTEX
  8
0
  5
707CDDC
 10
5.00000
 20
32.8205
 30
-1.10000e-15
  70
    32
  0
VERTEX
  8
0
  5
707CDDD
 10
5.00000
 20
32.9271
 30
-1.10000e-15
  70
    32
  0
VERTEX
  8
0
  5
707CDDE
 10
5.00000
 20
33.0340
 30
-1.10000e-15
  70
    32
  0
VERTEX
  8
0
  5
707CDDF
 10
5.00000
 20
33.1412
 30
-1.10000e-15
  70
    32
  0
VERTEX
  8
0
  5
707CDE0
 10
5.00000
 20
33.2488
 30
-1.10000e-15
  70
    32
  0
VERTEX
  8
0
  5
707CDE1
 10
5.00000
 20
33.3567
 30
-1.10000e-15
  70
    32
  0
VERTEX
  8
0
  5
707CDE2
 10
5.00000
 20
33.4649
 30
-1.10000e-15
  70
    32
  0
VERTEX
  8
0
  5
707CDE3
 10
5.00000
 20
33.5735
 30
-1.10000e-15
  70
    32
  0
VERTEX
  8
0
  5
707CDE4
 10
5.00000
 20
33.6824
 30
-1.10000e-15
  70
    32
  0
VERTEX
  8
0
  5
707CDE5
 10
5.00000
 20
33.7917
 30
-1.10000e-15
  70
    32
  0
VERTEX
  8
0
  5
707CDE6
 10
5.00000
 20
33.9013
 30
-1.10000e-15
  70
    32
  0
VERTEX
  8
0
  5
707CDE7
 10
5.00000
 20
34.0112
 30
-1.10000e-15
  70
    32
  0
VERTEX
  8
0
  5
707CDE8
 10
5.00000
 20
34.1215
 30
-1.10000e-15
  70
    32
  0
VERTEX
  8
0
  5
707CDE9
 10
5.00000
 20
34.2322
 30
-1.10000e-15
  70
    32
  0
VERTEX
  8
0
  5
707CDEA
 10
5.00000
 20
34.3432
 30
-1.10000e-15
  70
    32
  0
VERTEX
  8
0
  5
707CDEB
 10
5.00000
 20
34.4545
 30
-1.10000e-15
  70
    32
  0
VERTEX
  8
0
  5
707CDEC
 10
5.00000
 20
34.5662
 30
-1.10000e-15
  70
    32
  0
VERTEX
  8
0
  5
707CDED
 10
5.00000
 20
34.6783
 30
-1.10000e-15
  70
    32
  0
VERTEX
  8
0
  5
707CDEE
 10
5.00000
 20
34.7907
 30
-1.10000e-15
  70
    32
  0
VERTEX
  8
0
  5
707CDEF
 10
5.00000
 20
34.9035
 30
-1.10000e-15
  70
    32
  0
VERTEX
  8
0
  5
707CDF0
 10
5.00000
 20
35.0166
 30
-1.10000e-15
  70
    32
  0
VERTEX
  8
0
  5
707CDF1
 10
5.00000
 20
35.1301
 30
-1.10000e-15
  70
    32
  0
VERTEX
  8
0
  5
707CDF2
 10
5.00000
 20
35.2440
 30
-1.10000e-15
  70
    32
  0
VERTEX
  8
0
  5
707CDF3
 10
5.00000
 20
35.3582
 30
-1.10000e-15
  70
    32
  0
VERTEX
  8
0
  5
707CDF4
 10
5.00000
 20
35.4728
 30
-1.10000e-15
  70
    32
  0
VERTEX
  8
0
  5
707CDF5
 10
5.00000
 20
35.5878
 30
-1.10000e-15
  70
    32
  0
VERTEX
  8
0
  5
707CDF6
 10
5.00000
 20
35.7031
 30
-1.10000e-15
  70
    32
  0
VERTEX
  8
0
  5
707CDF7
 10
5.00000
 20
35.8188
 30
-1.10000e-15
  70
    32
  0
VERTEX
  8
0
  5
707CDF8
 10
5.00000
 20
35.9349
 30
-1.10000e-15
  70
    32
  0
VERTEX
  8
0
  5
707CDF9
 10
5.00000
 20
36.0514
 30
-1.10000e-15
  70
    32
  0
VERTEX
  8
0
  5
707CDFA
 10
5.00000
 20
36.1682
 30
-1.10000e-15
  70
    32
  0
VERTEX
  8
0
  5
707CDFB
 10
5.00000
 20
36.2854
 30
-1.10000e-15
  70
    32
  0
VERTEX
  8
0
  5
707CDFC
 10
5.00000
 20
36.4031
 30
-1.10000e-15
  70
    32
  0
VERTEX
  8
0
  5
707CDFD
 10
5.00000
 20
36.5211
 30
-1.10000e-15
  70
    32
  0
VERTEX
  8
0
  5
707CDFE
 10
5.00000
 20
36.6394
 30
-1.10000e-15
  70
    32
  0
VERTEX
  8
0
  5
707CDFF
 10
5.00000
 20
36.7582
 30
-1.10000e-15
  70
    32
  0
VERTEX
  8
0
  5
707CE00
 10
5.00000
 20
36.8774
 30
-1.10000e-15
  70
    32
  0
VERTEX
  8
0
  5
707CE01
 10
5.00000
 20
36.9969
 30
-1.10000e-15
  70
    32
  0
VERTEX
  8
0
  5
707CE02
 10
5.00000
 20
37.1169
 30
-1.10000e-15
  70
    32
  0
VERTEX
  8
0
  5
707CE03
 10
5.00000
 20
37.2372
 30
-1.10000e-15
  70
    32
  0
VERTEX
  8
0
  5
707CE04
 10
5.00000
 20
37.3580
 30
-1.10000e-15
  70
    32
  0
VERTEX
  8
0
  5
707CE05
 10
5.00000
 20
37.4791
 30
-1.10000e-15
  70
    32
  0
VERTEX
  8
0
  5
707CE06
 10
5.00000
 20
37.6007
 30
-1.10000e-15
  70
    32
  0
VERTEX
  8
0
  5
707CE07
 10
5.00000
 20
37.7226
 30
-1.10000e-15
  70
    32
  0
VERTEX
  8
0
  5
707CE08
 10
5.00000
 20
37.8450
 30
-1.10000e-15
  70
    32
  0
VERTEX
  8
0
  5
707CE09
 10
5.00000
 20
37.9677
 30
-1.10000e-15
  70
    32
  0
VERTEX
  8
0
  5
707CE0A
 10
5.00000
 20
38.0909
 30
-1.10000e-15
  70
    32
  0
VERTEX
  8
0
  5
707CE0B
 10
5.00000
 20
38.2145
 30
-1.10000e-15
  70
    32
  0
VERTEX
  8
0
  5
707CE0C
 10
5.00000
 20
38.3385
 30
-1.10000e-15
  70
    32
  0
VERTEX
  8
0
  5
707CE0D
 10
5.00000
 20
38.4630
 30
-1.10000e-15
  70
    32
  0
VERTEX
  8
0
  5
707CE0E
 10
5.00000
 20
38.5878
 30
-1.10000e-15
  70
    32
  0
VERTEX
  8
0
  5
707CE0F
 10
5.00000
 20
38.7131
 30
-1.10000e-15
  70
    32
  0
VERTEX
  8
0
  5
707CE10
 10
5.00000
 20
38.8388
 30
-1.10000e-15
  70
    32
  0
VERTEX
  8
0
  5
707CE11
 10
5.00000
 20
38.9649
 30
-1.10000e-15
  70
    32
  0
VERTEX
  8
0
  5
707CE12
 10
5.00000
 20
39.0914
 30
-1.10000e-15
  70
    32
  0
VERTEX
  8
0
  5
707CE13
 10
5.00000
 20
39.2184
 30
-1.10000e-15
  70
    32
  0
VERTEX
  8
0
  5
707CE14
 10
5.00000
 20
39.3458
 30
-1.10000e-15
  70
    32
  0
VERTEX
  8
0
  5
707CE15
 10
5.00000
 20
39.4737
 30
-1.10000e-15
  70
    32
  0
VERTEX
  8
0
  5
707CE16
 10
5.00000
 20
39.6019
 30
-1.10000e-15
  70
    32
  0
VERTEX
  8
0
  5
707CE17
 10
5.00000
 20
39.7307
 30
-1.10000e-15
  70
    32
  0
VERTEX
  8
0
  5
707CE18
 10
5.00000
 20
39.8598
 30
-1.10000e-15
  70
    32
  0
VERTEX
  8
0
  5
707CE19
 10
5.00000
 20
39.9894
 30
-1.10000e-15
  70
    32
  0
VERTEX
  8
0
  5
707CE1A
 10
5.00000
 20
40.1195
 30
-1.10000e-15
  70
    32
  0
VERTEX
  8
0
  5
707CE1B
 10
5.00000
 20
40.2500
 30
-1.10000e-15
  70
    32
  0
SEQEND
  8
0
  5
707CE1C
  0
POLYLINE
  8
0
  5
707CE1D
  66
     1
 10
0.00000
 20
0.00000
 30
0.00000
  70
     8
  0
VERTEX
  8
0
  5
707CE1E
 10
-5.00000
 20
40.2500
 30
1.10000e-15
  70
    32
  0
VERTEX
  8
0
  5
707CE1F
 10
-5.00000
 20
40.1195
 30
1.10000e-15
  70
    32
  0
VERTEX
  8
0
  5
707CE20
 10
-5.00000
 20
39.9894
 30
1.10000e-15
  70
    32
  0
VERTEX
  8
0
  5
707CE21
 10
-5.00000
 20
39.8598
 30
1.10000e-15
  70
    32
  0
VERTEX
  8
0
  5
707CE22
 10
-5.00000
 20
39.7307
 30
1.10000e-15
  70
    32
  0
VERTEX
  8
0
  5
707CE23
 10
-5.00000
 20
39.6019
 30
1.10000e-15
  70
    32
  0
VERTEX
  8
0
  5
707CE24
 10
-5.00000
 20
39.4737
 30
1.10000e-15
  70
    32
  0
VERTEX
  8
0
  5
707CE25
 10
-5.00000
 20
39.3458
 30
1.10000e-15
  70
    32
  0
VERTEX
  8
0
  5
707CE26
 10
-5.00000
 20
39.2184
 30
1.10000e-15
  70
    32
  0
VERTEX
  8
0
  5
707CE27
 10
-5.00000
 20
39.0914
 30
1.10000e-15
  70
    32
  0
VERTEX
  8
0
  5
707CE28
 10
-5.00000
 20
38.9649
 30
1.10000e-15
  70
    32
  0
VERTEX
  8
0
  5
707CE29
 10
-5.00000
 20
38.8388
 30
1.10000e-15
  70
    32
  0
VERTEX
  8
0
  5
707CE2A
 10
-5.00000
 20
38.7131
 30
1.10000e-15
  70
    32
  0
VERTEX
  8
0
  5
707CE2B
 10
-5.00000
 20
38.5878
 30
1.10000e-15
  70
    32
  0
VERTEX
  8
0
  5
707CE2C
 10
-5.00000
 20
38.4630
 30
1.10000e-15
  70
    32
  0
VERTEX
  8
0
  5
707CE2D
 10
-5.00000
 20
38.3385
 30
1.10000e-15
  70
    32
  0
VERTEX
  8
0
  5
707CE2E
 10
-5.00000
 20
38.2145
 30
1.10000e-15
  70
    32
  0
VERTEX
  8
0
  5
707CE2F
 10
-5.00000
 20
38.0909
 30
1.10000e-15
  70
    32
  0
VERTEX
  8
0
  5
707CE30
 10
-5.00000
 20
37.9677
 30
1.10000e-15
  70
    32
  0
VERTEX
  8
0
  5
707CE31
 10
-5.00000
 20
37.8450
 30
1.10000e-15
  70
    32
  0
VERTEX
  8
0
  5
707CE32
 10
-5.00000
 20
37.7226
 30
1.10000e-15
  70
    32
  0
VERTEX
  8
0
  5
707CE33
 10
-5.00000
 20
37.6007
 30
1.10000e-15
  70
    32
  0
VERTEX
  8
0
  5
707CE34
 10
-5.00000
 20
37.4791
 30
1.10000e-15
  70
    32
  0
VERTEX
  8
0
  5
707CE35
 10
-5.00000
 20
37.3580
 30
1.10000e-15
  70
    32
  0
VERTEX
  8
0
  5
707CE36
 10
-5.00000
 20
37.2372
 30
1.10000e-15
  70
    32
  0
VERTEX
  8
0
  5
707CE37
 10
-5.00000
 20
37.1169
 30
1.10000e-15
  70
    32
  0
VERTEX
  8
0
  5
707CE38
 10
-5.00000
 20
36.9969
 30
1.10000e-15
  70
    32
  0
VERTEX
  8
0
  5
707CE39
 10
-5.00000
 20
36.8774
 30
1.10000e-15
  70
    32
  0
VERTEX
  8
0
  5
707CE3A
 10
-5.00000
 20
36.7582
 30
1.10000e-15
  70
    32
  0
VERTEX
  8
0
  5
707CE3B
 10
-5.00000
 20
36.6394
 30
1.10000e-15
  70
    32
  0
VERTEX
  8
0
  5
707CE3C
 10
-5.00000
 20
36.5211
 30
1.10000e-15
  70
    32
  0
VERTEX
  8
0
  5
707CE3D
 10
-5.00000
 20
36.4031
 30
1.10000e-15
  70
    32
  0
VERTEX
  8
0
  5
707CE3E
 10
-5.00000
 20
36.2854
 30
1.10000e-15
  70
    32
  0
VERTEX
  8
0
  5
707CE3F
 10
-5.00000
 20
36.1682
 30
1.10000e-15
  70
    32
  0
VERTEX
  8
0
  5
707CE40
 10
-5.00000
 20
36.0514
 30
1.10000e-15
  70
    32
  0
VERTEX
  8
0
  5
707CE41
 10
-5.00000
 20
35.9349
 30
1.10000e-15
  70
    32
  0
VERTEX
  8
0
  5
707CE42
 10
-5.00000
 20
35.8188
 30
1.10000e-15
  70
    32
  0
VERTEX
  8
0
  5
707CE43
 10
-5.00000
 20
35.7031
 30
1.10000e-15
  70
    32
  0
VERTEX
  8
0
  5
707CE44
 10
-5.00000
 20
35.5878
 30
1.10000e-15
  70
    32
  0
VERTEX
  8
0
  5
707CE45
 10
-5.00000
 20
35.4728
 30
1.10000e-15
  70
    32
  0
VERTEX
  8
0
  5
707CE46
 10
-5.00000
 20
35.3582
 30
1.10000e-15
  70
    32
  0
VERTEX
  8
0
  5
707CE47
 10
-5.00000
 20
35.2440
 30
1.10000e-15
  70
    32
  0
VERTEX
  8
0
  5
707CE48
 10
-5.00000
 20
35.1301
 30
1.10000e-15
  70
    32
  0
VERTEX
  8
0
  5
707CE49
 10
-5.00000
 20
35.0166
 30
1.10000e-15
  70
    32
  0
VERTEX
  8
0
  5
707CE4A
 10
-5.00000
 20
34.9035
 30
1.10000e-15
  70
    32
  0
VERTEX
  8
0
  5
707CE4B
 10
-5.00000
 20
34.7907
 30
1.10000e-15
  70
    32
  0
VERTEX
  8
0
  5
707CE4C
 10
-5.00000
 20
34.6783
 30
1.10000e-15
  70
    32
  0
VERTEX
  8
0
  5
707CE4D
 10
-5.00000
 20
34.5662
 30
1.10000e-15
  70
    32
  0
VERTEX
  8
0
  5
707CE4E
 10
-5.00000
 20
34.4545
 30
1.10000e-15
  70
    32
  0
VERTEX
  8
0
  5
707CE4F
 10
-5.00000
 20
34.3432
 30
1.10000e-15
  70
    32
  0
VERTEX
  8
0
  5
707CE50
 10
-5.00000
 20
34.2322
 30
1.10000e-15
  70
    32
  0
VERTEX
  8
0
  5
707CE51
 10
-5.00000
 20
34.1215
 30
1.10000e-15
  70
    32
  0
VERTEX
  8
0
  5
707CE52
 10
-5.00000
 20
34.0112
 30
1.10000e-15
  70
    32
  0
VERTEX
  8
0
  5
707CE53
 10
-5.00000
 20
33.9013
 30
1.10000e-15
  70
    32
  0
VERTEX
  8
0
  5
707CE54
 10
-5.00000
 20
33.7917
 30
1.10000e-15
  70
    32
  0
VERTEX
  8
0
  5
707CE55
 10
-5.00000
 20
33.6824
 30
1.10000e-15
  70
    32
  0
VERTEX
  8
0
  5
707CE56
 10
-5.00000
 20
33.5735
 30
1.10000e-15
  70
    32
  0
VERTEX
  8
0
  5
707CE57
 10
-5.00000
 20
33.4649
 30
1.10000e-15
  70
    32
  0
VERTEX
  8
0
  5
707CE58
 10
-5.00000
 20
33.3567
 30
1.10000e-15
  70
    32
  0
VERTEX
  8
0
  5
707CE59
 10
-5.00000
 20
33.2488
 30
1.10000e-15
  70
    32
  0
VERTEX
  8
0
  5
707CE5A
 10
-5.00000
 20
33.1412
 30
1.10000e-15
  70
    32
  0
VERTEX
  8
0
  5
707CE5B
 10
-5.00000
 20
33.0340
 30
1.10000e-15
  70
    32
  0
VERTEX
  8
0
  5
707CE5C
 10
-5.00000
 20
32.9271
 30
1.10000e-15
  70
    32
  0
VERTEX
  8
0
  5
707CE5D
 10
-5.00000
 20
32.8205
 30
1.10000e-15
  70
    32
  0
VERTEX
  8
0
  5
707CE5E
 10
-5.00000
 20
32.7143
 30
1.10000e-15
  70
    32
  0
VERTEX
  8
0
  5
707CE5F
 10
-5.00000
 20
32.6084
 30
1.10000e-15
  70
    32
  0
VERTEX
  8
0
  5
707CE60
 10
-5.00000
 20
32.5028
 30
1.10000e-15
  70
    32
  0
VERTEX
  8
0
  5
707CE61
 10
-5.00000
 20
32.3975
 30
1.10000e-15
  70
    32
  0
VERTEX
  8
0
  5
707CE62
 10
-5.00000
 20
32.2926
 30
1.10000e-15
  70
    32
  0
VERTEX
  8
0
  5
707CE63
 10
-5.00000
 20
32.1880
 30
1.10000e-15
  70
    32
  0
VERTEX
  8
0
  5
707CE64
 10
-5.00000
 20
32.0837
 30
1.10000e-15
  70
    32
  0
VERTEX
  8
0
  5
707CE65
 10
-5.00000
 20
31.9797
 30
1.10000e-15
  70
    32
  0
VERTEX
  8
0
  5
707CE66
 10
-5.00000
 20
31.8761
 30
1.10000e-15
  70
    32
  0
VERTEX
  8
0
  5
707CE67
 10
-5.00000
 20
31.7727
 30
1.10000e-15
  70
    32
  0
VERTEX
  8
0
  5
707CE68
 10
-5.00000
 20
31.6697
 30
1.10000e-15
  70
    32
  0
VERTEX
  8
0
  5
707CE69
 10
-5.00000
 20
31.5670
 30
1.10000e-15
  70
    32
  0
VERTEX
  8
0
  5
707CE6A
 10
-5.00000
 20
31.4646
 30
1.10000e-15
  70
    32
  0
VERTEX
  8
0
  5
707CE6B
 10
-5.00000
 20
31.3625
 30
1.10000e-15
  70
    32
  0
VERTEX
  8
0
  5
707CE6C
 10
-5.00000
 20
31.2607
 30
1.10000e-15
  70
    32
  0
VERTEX
  8
0
  5
707CE6D
 10
-5.00000
 20
31.1592
 30
1.10000e-15
  70
    32
  0
VERTEX
  8
0
  5
707CE6E
 10
-5.00000
 20
31.0580
 30
1.10000e-15
  70
    32
  0
VERTEX
  8
0
  5
707CE6F
 10
-5.00000
 20
30.9572
 30
1.10000e-15
  70
    32
  0
VERTEX
  8
0
  5
707CE70
 10
-5.00000
 20
30.8566
 30
1.10000e-15
  70
    32
  0
VERTEX
  8
0
  5
707CE71
 10
-5.00000
 20
30.7564
 30
1.10000e-15
  70
    32
  0
VERTEX
  8
0
  5
707CE72
 10
-5.00000
 20
30.6564
 30
1.10000e-15
  70
    32
  0
VERTEX
  8
0
  5
707CE73
 10
-5.00000
 20
30.5567
 30
1.10000e-15
  70
    32
  0
VERTEX
  8
0
  5
707CE74
 10
-5.00000
 20
30.4574
 30
1.10000e-15
  70
    32
  0
VERTEX
  8
0
  5
707CE75
 10
-5.00000
 20
30.3583
 30
1.10000e-15
  70
    32
  0
VERTEX
  8
0
  5
707CE76
 10
-5.00000
 20
30.2595
 30
1.10000e-15
  70
    32
  0
VERTEX
  8
0
  5
707CE77
 10
-5.00000
 20
30.1610
 30
1.10000e-15
  70
    32
  0
VERTEX
  8
0
  5
707CE78
 10
-5.00000
 20
30.0628
 30
1.10000e-15
  70
    32
  0
VERTEX
  8
0
  5
707CE79
 10
-5.00000
 20
29.9649
 30
1.10000e-15
  70
    32
  0
VERTEX
  8
0
  5
707CE7A
 10
-5.00000
 20
29.8673
 30
1.10000e-15
  70
    32
  0
VERTEX
  8
0
  5
707CE7B
 10
-5.00000
 20
29.7700
 30
1.10000e-15
  70
    32
  0
VERTEX
  8
0
  5
707CE7C
 10
-5.00000
 20
29.6729
 30
1.10000e-15
  70
    32
  0
VERTEX
  8
0
  5
707CE7D
 10
-5.00000
 20
29.5762
 30
1.10000e-15
  70
    32
  0
SEQEND
  8
0
  5
707CE7E
  0
POLYLINE
  8
0
  5
707CE7F
  66
     1
 10
0.00000
 20
0.00000
 30
0.00000
  70
     8
  0
VERTEX
  8
0
  5
707CE80
 10
5.00000
 20
40.2500
 30
-1.10000e-15
  70
    32
  0
VERTEX
  8
0
  5
707CE81
 10
4.89395
 20
40.2500
 30
-1.07667e-15
  70
    32
  0
VERTEX
  8
0
  5
707CE82
 10
4.78796
 20
40.2500
 30
-1.05335e-15
  70
    32
  0
VERTEX
  8
0
  5
707CE83
 10
4.68201
 20
40.2500
 30
-1.03004e-15
  70
    32
  0
VERTEX
  8
0
  5
707CE84
 10
4.57611
 20
40.2500
 30
-1.00674e-15
  70
    32
  0
VERTEX
  8
0
  5
707CE85
 10
4.47026
 20
40.2500
 30
-9.83457e-16
  70
    32
  0
VERTEX
  8
0
  5
707CE86
 10
4.36445
 20
40.2500
 30
-9.60179e-16
  70
    32
  0
VERTEX
  8
0
  5
707CE87
 10
4.25869
 20
40.2500
 30
-9.36912e-16
  70
    32
  0
VERTEX
  8
0
  5
707CE88
 10
4.15297
 20
40.2500
 30
-9.13654e-16
  70
    32
  0
VERTEX
  8
0
  5
707CE89
 10
4.04730
 20
40.2500
 30
-8.90405e-16
  70
    32
  0
VERTEX
  8
0
  5
707CE8A
 10
3.94166
 20
40.2500
 30
-8.67166e-16
  70
    32
  0
VERTEX
  8
0
  5
707CE8B
 10
3.83607
 20
40.2500
 30
-8.43935e-16
  70
    32
  0
VERTEX
  8
0
  5
707CE8C
 10
3.73051
 20
40.2500
 30
-8.20713e-16
  70
    32
  0
VERTEX
  8
0
  5
707CE8D
 10
3.62500
 20
40.2500
 30
-7.97499e-16
  70
    32
  0
VERTEX
  8
0
  5
707CE8E
 10
3.51952
 20
40.2500
 30
-7.74294e-16
  70
    32
  0
VERTEX
  8
0
  5
707CE8F
 10
3.41407
 20
40.2500
 30
-7.51096e-16
  70
    32
  0
VERTEX
  8
0
  5
707CE90
 10
3.30867
 20
40.2500
 30
-7.27907e-16
  70
    32
  0
VERTEX
  8
0
  5
707CE91
 10
3.20329
 20
40.2500
 30
-7.04724e-16
  70
    32
  0
VERTEX
  8
0
  5
707CE92
 10
3.09795
 20
40.2500
 30
-6.81549e-16
  70
    32
  0
VERTEX
  8
0
  5
707CE93
 10
2.99264
 20
40.2500
 30
-6.58381e-16
  70
    32
  0
VERTEX
  8
0
  5
707CE94
 10
2.88736
 20
40.2500
 30
-6.35219e-16
  70
    32
  0
VERTEX
  8
0
  5
707CE95
 10
2.78211
 20
40.2500
 30
-6.12064e-16
  70
    32
  0
VERTEX
  8
0
  5
707CE96
 10
2.67689
 20
40.2500
 30
-5.88915e-16
  70
    32
  0
VERTEX
  8
0
  5
707CE97
 10
2.57169
 20
40.2500
 30
-5.65773e-16
  70
    32
  0
VERTEX
  8
0
  5
707CE98
 10
2.46653
 20
40.2500
 30
-5.42636e-16
  70
    32
  0
VERTEX
  8
0
  5
707CE99
 10
2.36138
 20
40.2500
 30
-5.19504e-16
  70
    32
  0
VERTEX
  8
0
  5
707CE9A
 10
2.25626
 20
40.2500
 30
-4.96378e-16
  70
    32
  0
VERTEX
  8
0
  5
707CE9B
 10
2.15117
 20
40.2500
 30
-4.73257e-16
  70
    32
  0
VERTEX
  8
0
  5
707CE9C
 10
2.04609
 20
40.2500
 30
-4.50141e-16
  70
    32
  0
VERTEX
  8
0
  5
707CE9D
 10
1.94104
 20
40.2500
 30
-4.27029e-16
  70
    32
  0
VERTEX
  8
0
  5
707CE9E
 10
1.83601
 20
40.2500
 30
-4.03922e-16
  70
    32
  0
VERTEX
  8
0
  5
707CE9F
 10
1.73099
 20
40.2500
 30
-3.80818e-16
  70
    32
  0
VERTEX
  8
0
  5
707CEA0
 10
1.62600
 20
40.2500
 30
-3.57719e-16
  70
    32
  0
VERTEX
  8
0
  5
707CEA1
 10
1.52102
 20
40.2500
 30
-3.34623e-16
  70
    32
  0
VERTEX
  8
0
  5
707CEA2
 10
1.41605
 20
40.2500
 30
-3.11531e-16
  70
    32
  0
VERTEX
  8
0
  5
707CEA3
 10
1.31110
 20
40.2500
 30
-2.88442e-16
  70
    32
  0
VERTEX
  8
0
  5
707CEA4
 10
1.20616
 20
40.2500
 30
-2.65356e-16
  70
    32
  0
VERTEX
  8
0
  5
707CEA5
 10
1.10124
 20
40.2500
 30
-2.42272e-16
  70
    32
  0
VERTEX
  8
0
  5
707CEA6
 10
0.996324
 20
40.2500
 30
-2.19191e-16
  70
    32
  0
VERTEX
  8
0
  5
707CEA7
 10
0.891421
 20
40.2500
 30
-1.96113e-16
  70
    32
  0
VERTEX
  8
0
  5
707CEA8
 10
0.786526
 20
40.2500
 30
-1.73036e-16
  70
    32
  0
VERTEX
  8
0
  5
707CEA9
 10
0.681640
 20
40.2500
 30
-1.49961e-16
  70
    32
  0
VERTEX
  8
0
  5
707CEAA
 10
0.576761
 20
40.2500
 30
-1.26887e-16
  70
    32
  0
VERTEX
  8
0
  5
707CEAB
 10
0.471887
 20
40.2500
 30
-1.03815e-16
  70
    32
  0
VERTEX
  8
0
  5
707CEAC
 10
0.367018
 20
40.2500
 30
-8.07440e-17
  70
    32
  0
VERTEX
  8
0
  5
707CEAD
 10
0.262153
 20
40.2500
 30
-5.76737e-17
  70
    32
  0
VERTEX
  8
0
  5
707CEAE
 10
0.157291
 20
40.2500
 30
-3.46040e-17
  70
    32
  0
VERTEX
  8
0
  5
707CEAF
 10
0.0524301
 20
40.2500
 30
-1.15346e-17
  70
    32
  0
VERTEX
  8
0
  5
707CEB0
 10
-0.0524301
 20
40.2500
 30
1.15346e-17
  70
    32
  0
VERTEX
  8
0
  5
707CEB1
 10
-0.157291
 20
40.2500
 30
3.46040e-17
  70
    32
  0
VERTEX
  8
0
  5
707CEB2
 10
-0.262153
 20
40.2500
 30
5.76737e-17
  70
    32
  0
VERTEX
  8
0
  5
707CEB3
 10
-0.367018
 20
40.2500
 30
8.07440e-17
  70
    32
  0
VERTEX
  8
0
  5
707CEB4
 10
-0.471887
 20
40.2500
 30
1.03815e-16
  70
    32
  0
VERTEX
  8
0
  5
707CEB5
 10
-0.576761
 20
40.2500
 30
1.26887e-16
  70
    32
  0
VERTEX
  8
0
  5
707CEB6
 10
-0.681640
 20
40.2500
 30
1.49961e-16
  70
    32
  0
VERTEX
  8
0
  5
707CEB7
 10
-0.786526
 20
40.2500
 30
1.73036e-16
  70
    32
  0
VERTEX
  8
0
  5
707CEB8
 10
-0.891421
 20
40.2500
 30
1.96113e-16
  70
    32
  0
VERTEX
  8
0
  5
707CEB9
 10
-0.996324
 20
40.2500
 30
2.19191e-16
  70
    32
  0
VERTEX
  8
0
  5
707CEBA
 10
-1.10124
 20
40.2500
 30
2.42272e-16
  70
    32
  0
VERTEX
  8
0
  5
707CEBB
 10
-1.20616
 20
40.2500
 30
2.65356e-16
  70
    32
  0
VERTEX
  8
0
  5
707CEBC
 10
-1.31110
 20
40.2500
 30
2.88442e-16
  70
    32
  0
VERTEX
  8
0
  5
707CEBD
 10
-1.41605
 20
40.2500
 30
3.11531e-16
  70
    32
  0
VERTEX
  8
0
  5
707CEBE
 10
-1.52102
 20
40.2500
 30
3.34623e-16
  70
    32
  0
VERTEX
  8
0
  5
707CEBF
 10
-1.62600
 20
40.2500
 30
3.57719e-16
  70
    32
  0
VERTEX
  8
0
  5
707CEC0
 10
-1.73099
 20
40.2500
 30
3.80818e-16
  70
    32
  0
VERTEX
  8
0
  5
707CEC1
 10
-1.83601
 20
40.2500
 30
4.03922e-16
  70
    32
  0
VERTEX
  8
0
  5
707CEC2
 10
-1.94104
 20
40.2500
 30
4.27029e-16
  70
    32
  0
VERTEX
  8
0
  5
707CEC3
 10
-2.04609
 20
40.2500
 30
4.50141e-16
  70
    32
  0
VERTEX
  8
0
  5
707CEC4
 10
-2.15117
 20
40.2500
 30
4.73257e-16
  70
    32
  0
VERTEX
  8
0
  5
707CEC5
 10
-2.25626
 20
40.2500
 30
4.96378e-16
  70
    32
  0
VERTEX
  8
0
  5
707CEC6
 10
-2.36138
 20
40.2500
 30
5.19504e-16
  70
    32
  0
VERTEX
  8
0
  5
707CEC7
 10
-2.46653
 20
40.2500
 30
5.42636e-16
  70
    32
  0
VERTEX
  8
0
  5
707CEC8
 10
-2.57169
 20
40.2500
 30
5.65773e-16
  70
    32
  0
VERTEX
  8
0
  5
707CEC9
 10
-2.67689
 20
40.2500
 30
5.88915e-16
  70
    32
  0
VERTEX
  8
0
  5
707CECA
 10
-2.78211
 20
40.2500
 30
6.12064e-16
  70
    32
  0
VERTEX
  8
0
  5
707CECB
 10
-2.88736
 20
40.2500
 30
6.35219e-16
  70
    32
  0
VERTEX
  8
0
  5
707CECC
 10
-2.99264
 20
40.2500
 30
6.58381e-16
  70
    32
  0
VERTEX
  8
0
  5
707CECD
 10
-3.09795
 20
40.2500
 30
6.81549e-16
  70
    32
  0
VERTEX
  8
0
  5
707CECE
 10
-3.20329
 20
40.2500
 30
7.04724e-16
  70
    32
  0
VERTEX
  8
0
  5
707CECF
 10
-3.30867
 20
40.2500
 30
7.27907e-16
  70
    32
  0
VERTEX
  8
0
  5
707CED0
 10
-3.41407
 20
40.2500
 30
7.51096e-16
  70
    32
  0
VERTEX
  8
0
  5
707CED1
 10
-3.51952
 20
40.2500
 30
7.74294e-16
  70
    32
  0
VERTEX
  8
0
  5
707CED2
 10
-3.62500
 20
40.2500
 30
7.97499e-16
  70
    32
  0
VERTEX
  8
0
  5
707CED3
 10
-3.73051
 20
40.2500
 30
8.20713e-16
  70
    32
  0
VERTEX
  8
0
  5
707CED4
 10
-3.83607
 20
40.2500
 30
8.43935e-16
  70
    32
  0
VERTEX
  8
0
  5
707CED5
 10
-3.94166
 20
40.2500
 30
8.67166e-16
  70
    32
  0
VERTEX
  8
0
  5
707CED6
 10
-4.04730
 20
40.2500
 30
8.90405e-16
  70
    32
  0
VERTEX
  8
0
  5
707CED7
 10
-4.15297
 20
40.2500
 30
9.13654e-16
  70
    32
  0
VERTEX
  8
0
  5
707CED8
 10
-4.25869
 20
40.2500
 30
9.36912e-16
  70
    32
  0
VERTEX
  8
0
  5
707CED9
 10
-4.36445
 20
40.2500
 30
9.60179e-16
  70
    32
  0
VERTEX
  8
0
  5
707CEDA
 10
-4.47026
 20
40.2500
 30
9.83457e-16
  70
    32
  0
VERTEX
  8
0
  5
707CEDB
 10
-4.57611
 20
40.2500
 30
1.00674e-15
  70
    32
  0
VERTEX
  8
0
  5
707CEDC
 10
-4.68201
 20
40.2500
 30
1.03004e-15
  70
    32
  0
VERTEX
  8
0
  5
707CEDD
 10
-4.78796
 20
40.2500
 30
1.05335e-15
  70
    32
  0
VERTEX
  8
0
  5
707CEDE
 10
-4.89395
 20
40.2500
 30
1.07667e-15
  70
    32
  0
VERTEX
  8
0
  5
707CEDF
 10
-5.00000
 20
40.2500
 30
1.10000e-15
  70
    32
  0
SEQEND
  8
0
  5
707CEE0
  0
CIRCLE
  5
707C7E9
  8
0
  6
CONTINUOUS
 10
-0.0000000000001681
 20
0.0000000000000453
 30
0.0
 40
42.1999999999999815
  0
CIRCLE
  5
707C7EA
  8
0
  6
CONTINUOUS
 10
-0.0000000000001681
 20
0.0000000000000453
 30
0.0
 40
43.6367776566740417
  0
CIRCLE
  5
707C7EB
  8
0
  6
CONTINUOUS
 10
-0.0000000000001783
 20
0.0000000000000436
 30
0.0
 40
64.0482434041532684
  0
CIRCLE
  5
707C7EC
  8
0
  6
CONTINUOUS
 10
-0.0000000000001609
 20
0.0000000000001351
 30
0.0
 40
76.5000000000003126
  0
ARC
  5
707C7ED
  8
0
  6
VERDECKT
 62
     1
 10
-0.000000000000164
 20
0.0000000000000083
 30
0.0
 40
60.0000000000002274
 50
97.4947174539266541
 51
82.5052825460733033
  0
LINE
  5
707C7EE
  8
0
  6
VERDECKT
 62
     1
 10
4.9999999999998526
 20
57.0087712549571179
 30
0.0
 11
4.9999999999998526
 21
51.9615242270665689
 31
0.0
  0
LINE
  5
707C7EF
  8
0
  6
VERDECKT
 62
     1
 10
6.9999999999998517
 20
51.9615242270665689
 30
0.0
 11
6.9999999999998517
 21
57.0087712549571179
 31
0.0
  0
ARC
  5
707C7F0
  8
0
  6
VERDECKT
 62
     1
 10
7.4999999999998623
 20
51.9615242270665831
 30
0.0
 40
0.5000000000000103
 50
180.0000000000007105
 51
261.7867892982498006
  0
ARC
  5
707C7F1
  8
0
  6
VERDECKT
 62
     1
 10
7.4999999999998588
 20
51.9615242270665689
 30
0.0
 40
2.5000000000000062
 50
180.0
 51
261.7867892982609987
  0
ARC
  5
707C7F2
  8
0
  6
VERDECKT
 62
     1
 10
-0.0000000000000988
 20
0.0000000000000064
 30
0.0
 40
50.0000000000002203
 50
98.2132107017381628
 51
81.7867892982619367
  0
ARC
  5
707C7F3
  8
0
  6
VERDECKT
 62
     1
 10
-0.0000000000001569
 20
0.0000000000000035
 30
0.0
 40
52.0000000000002416
 50
98.2132107017381628
 51
81.7867892982619225
  0
ARC
  5
707C7F4
  8
0
  6
VERDECKT
 62
     1
 10
-7.5000000000001501
 20
51.9615242270665689
 30
0.0
 40
0.5000000000000054
 50
278.2132107017367275
 51
359.9999999999992042
  0
ARC
  5
707C7F5
  8
0
  6
VERDECKT
 62
     1
 10
-7.5000000000001483
 20
51.9615242270665618
 30
0.0
 40
2.5000000000000022
 50
278.2132107017390013
 51
0.0000000000000064
  0
LINE
  5
707C7F6
  8
0
  6
VERDECKT
 62
     1
 10
-5.0000000000001457
 20
51.9615242270665618
 30
0.0
 11
-5.0000000000001457
 21
57.0087712549571179
 31
0.0
  0
LINE
  5
707C7F7
  8
0
  6
VERDECKT
 62
     1
 10
-7.0000000000001474
 20
57.0087712549571179
 30
0.0
 11
-7.0000000000001474
 21
51.9615242270665618
 31
0.0
  0
ARC
  5
707C7F8
  8
0
  6
VERDECKT
 62
     1
 10
-7.5000000000001448
 20
57.0087712549571393
 30
0.0
 40
0.4999999999999617
 50
359.9999999999984084
 51
97.4947174539303063
  0
ARC
  5
707C7F9
  8
0
  6
VERDECKT
 62
     1
 10
-7.5000000000001519
 20
57.0087712549571322
 30
0.0
 40
2.5000000000000062
 50
0.0
 51
97.4947174539267536
  0
ARC
  5
707C7FA
  8
0
  6
VERDECKT
 62
     1
 10
-0.0000000000001507
 20
0.0000000000000088
 30
0.0
 40
58.0000000000002203
 50
97.4947174539267252
 51
82.505282546073289
  0
ARC
  5
707C7FB
  8
0
  6
VERDECKT
 62
     1
 10
7.4999999999998579
 20
57.0087712549571179
 30
0.0
 40
0.4999999999999725
 50
82.5052825460713137
 51
180.0
  0
ARC
  5
707C7FC
  8
0
  6
VERDECKT
 62
     1
 10
7.4999999999998579
 20
57.0087712549571322
 30
0.0
 40
2.5000000000000022
 50
82.5052825460732464
 51
180.0
  0
CIRCLE
  5
707C7FD
  8
0
  6
VERDECKT
 62
     1
 10
-0.0000000000001609
 20
0.0000000000001075
 30
0.0
 40
75.7500000000003126
  0
ENDBLK
  5
707C7FE
  8
0
  0
ENDSEC
  0
SECTION
  2
ENTITIES
  0
INSERT
  5
7075311
  8
ADSK_ASSOC_ENTITY_BACKUPS
  2
*S0
 10
0.0
 20
0.0
 30
0.0
  0
INSERT
  5
707C809
  8
STEMPEL
  2
A$C26F06F01
 10
0.0000000000001705
 20
170.0
 30
0.0
  0
INSERT
  5
707C80A
  8
STEMPEL
  2
A$CF76FBA2A
 10
300.0000000000002274
 20
170.0
 30
0.0
  0
INSERT
  5
707C80B
  8
STEMPEL
  2
A$C69AA25A7
 10
0.0000000000001705
 20
0.0000000000000284
 30
0.0
  0
VIEWPORT
  5
74E74
 67
     1
  8
0
 10
197.4196879210352904
 20
91.5472987382204337
 30
0.0
 40
2359.8125708932279849
 41
1136.7674192790989309
 68
     1
 69
     1
1001
ACAD
1000
MVIEW
1002
{
1070
    16
1010
0.0
1020
0.0
1030
0.0
1010
0.0
1020
0.0
1030
1.0
1040
0.0
1040
1136.7674192790989309
1040
197.4196879210352904
1040
91.5472987382204337
1040
50.0
1040
0.0
1040
0.0
1070
     0
1070
  1500
1070
     1
1070
     1
1070
     0
1070
     0
1070
     0
1070
     0
1040
0.0
1040
0.0
1040
0.0
1040
10.0
1040
10.0
1040
10.0
1040
10.0
1070
     0
1002
{
1002
}
1002
}
  0
ENDSEC
  0
EOF
