  0
SECTION
  2
HEADER
  9
$ACADVER
  1
AC1009
  9
$INSBASE
 10
0.0
 20
0.0
 30
0.0
  9
$EXTMIN
 10
-50.9999999999999929
 20
-121.0
 30
-0.000000000000111
  9
$EXTMAX
 10
51.0000000000001705
 20
500.0000000000001137
 30
0.0
  9
$LIMMIN
 10
0.0
 20
0.0
  9
$LIMMAX
 10
594.0
 20
840.0
  9
$ORTHOMODE
 70
     1
  9
$REGENMODE
 70
     1
  9
$FILLMODE
 70
     1
  9
$QTEXTMODE
 70
     0
  9
$MIRRTEXT
 70
     1
  9
$DRAGMODE
 70
     2
  9
$LTSCALE
 40
10.0
  9
$OSMODE
 70
   511
  9
$ATTMODE
 70
     1
  9
$TEXTSIZE
 40
3.5
  9
$TRACEWID
 40
1.0
  9
$TEXTSTYLE
  7
STANDARD
  9
$CLAYER
  8
STEMPEL
  9
$CELTYPE
  6
BYLAYER
  9
$CECOLOR
 62
   256
  9
$DIMSCALE
 40
1.0
  9
$DIMASZ
 40
3.5
  9
$DIMEXO
 40
1.0
  9
$DIMDLI
 40
0.38
  9
$DIMRND
 40
0.0
  9
$DIMDLE
 40
0.0
  9
$DIMEXE
 40
1.0
  9
$DIMTP
 40
0.0
  9
$DIMTM
 40
0.000000001
  9
$DIMTXT
 40
3.5
  9
$DIMCEN
 40
0.09
  9
$DIMTSZ
 40
0.0
  9
$DIMTOL
 70
     0
  9
$DIMLIM
 70
     0
  9
$DIMTIH
 70
     0
  9
$DIMTOH
 70
     0
  9
$DIMSE1
 70
     0
  9
$DIMSE2
 70
     0
  9
$DIMTAD
 70
     1
  9
$DIMZIN
 70
     8
  9
$DIMBLK
  1

  9
$DIMASO
 70
     1
  9
$DIMSHO
 70
     0
  9
$DIMPOST
  1

  9
$DIMAPOST
  1

  9
$DIMALT
 70
     0
  9
$DIMALTD
 70
     2
  9
$DIMALTF
 40
25.3999999999999986
  9
$DIMLFAC
 40
2.0
  9
$DIMTOFL
 70
     1
  9
$DIMTVP
 40
0.0
  9
$DIMTIX
 70
     0
  9
$DIMSOXD
 70
     0
  9
$DIMSAH
 70
     0
  9
$DIMBLK1
  1

  9
$DIMBLK2
  1

  9
$DIMSTYLE
  2
LORO
  9
$DIMCLRD
 70
     0
  9
$DIMCLRE
 70
     0
  9
$DIMCLRT
 70
     1
  9
$DIMTFAC
 40
0.5
  9
$DIMGAP
 40
1.5
  9
$LUNITS
 70
     2
  9
$LUPREC
 70
     2
  9
$SKETCHINC
 40
1.0
  9
$FILLETRAD
 40
0.5
  9
$AUNITS
 70
     0
  9
$AUPREC
 70
     0
  9
$MENU
  1
ACAD
  9
$ELEVATION
 40
0.0
  9
$PELEVATION
 40
0.0
  9
$THICKNESS
 40
0.0
  9
$LIMCHECK
 70
     0
  9
$BLIPMODE
 70
     0
  9
$CHAMFERA
 40
0.0
  9
$CHAMFERB
 40
0.0
  9
$SKPOLY
 70
     0
  9
$TDCREATE
 40
2455397.867048610933125
  9
$TDUPDATE
 40
2460423.4376851851120591
  9
$TDINDWG
 40
1.3997053472000001
  9
$TDUSRTIMER
 40
1.3997053472000001
  9
$USRTIMER
 70
     1
  9
$ANGBASE
 50
0.0
  9
$ANGDIR
 70
     0
  9
$PDMODE
 70
     0
  9
$PDSIZE
 40
0.0
  9
$PLINEWID
 40
0.0
  9
$COORDS
 70
     1
  9
$SPLFRAME
 70
     0
  9
$SPLINETYPE
 70
     6
  9
$SPLINESEGS
 70
     8
  9
$ATTDIA
 70
     1
  9
$ATTREQ
 70
     1
  9
$HANDLING
 70
     1
  9
$HANDSEED
  5
102B3
  9
$SURFTAB1
 70
     6
  9
$SURFTAB2
 70
     6
  9
$SURFTYPE
 70
     6
  9
$SURFU
 70
     6
  9
$SURFV
 70
     6
  9
$UCSNAME
  2

  9
$UCSORG
 10
0.0
 20
0.0
 30
0.0
  9
$UCSXDIR
 10
1.0
 20
0.0
 30
0.0
  9
$UCSYDIR
 10
0.0
 20
1.0
 30
0.0
  9
$PUCSNAME
  2

  9
$PUCSORG
 10
0.0
 20
0.0
 30
0.0
  9
$PUCSXDIR
 10
1.0
 20
0.0
 30
0.0
  9
$PUCSYDIR
 10
0.0
 20
1.0
 30
0.0
  9
$USERI1
 70
     0
  9
$USERI2
 70
     0
  9
$USERI3
 70
     0
  9
$USERI4
 70
     0
  9
$USERI5
 70
     0
  9
$USERR1
 40
0.0
  9
$USERR2
 40
0.0
  9
$USERR3
 40
0.0
  9
$USERR4
 40
0.0
  9
$USERR5
 40
0.0
  9
$WORLDVIEW
 70
     1
  9
$SHADEDGE
 70
     3
  9
$SHADEDIF
 70
    70
  9
$TILEMODE
 70
     1
  9
$MAXACTVP
 70
    16
  9
$PLIMCHECK
 70
     0
  9
$PEXTMIN
 10
1.0000000000000000E+20
 20
1.0000000000000000E+20
 30
1.0000000000000000E+20
  9
$PEXTMAX
 10
-1.0000000000000000E+20
 20
-1.0000000000000000E+20
 30
-1.0000000000000000E+20
  9
$PLIMMIN
 10
-0.2072923596263366
 20
-0.2497745788575969
  9
$PLIMMAX
 10
209.7927076403736919
 20
296.7502254211423747
  9
$UNITMODE
 70
     0
  9
$VISRETAIN
 70
     0
  9
$PLINEGEN
 70
     0
  9
$PSLTSCALE
 70
     0
  0
ENDSEC
  0
SECTION
  2
TABLES
  0
TABLE
  2
VPORT
 70
     1
  0
VPORT
  2
*ACTIVE
 70
     0
 10
0.0
 20
0.0
 11
1.0
 21
1.0
 12
0.0
 22
-35.0028533935546307
 13
0.0
 23
0.0
 14
1.0
 24
1.0
 15
10.0
 25
10.0
 16
-0.0000000000003323
 26
0.0
 36
1496.6681333791389079
 17
0.0
 27
224.5028533935546875
 37
-0.0000000000000555
 40
624.1764705882352473
 41
1.8720136518771331
 42
50.0
 43
0.0
 44
0.0
 50
0.0
 51
0.0
 71
     0
 72
  1500
 73
     1
 74
     0
 75
     0
 76
     0
 77
     0
 78
     0
  0
ENDTAB
  0
TABLE
  2
LTYPE
 70
     3
  0
LTYPE
  2
CONTINUOUS
 70
     0
  3
Solid line
 72
    65
 73
     0
 40
0.0
  0
LTYPE
  2
STRICHPUNKT
 70
     0
  3
__ . __ . __ . __ . __ . __ . __ . __ . __ . __
 72
    65
 73
     4
 40
1.0
 49
0.5
 49
-0.25
 49
0.0
 49
-0.25
  0
LTYPE
  2
VERDECKT
 70
     0
  3
Verdeckt __ __ __ __ __ __ __ __ __ __ __ __ __
 72
    65
 73
     2
 40
0.375
 49
0.25
 49
-0.125
  0
ENDTAB
  0
TABLE
  2
LAYER
 70
     5
  0
LAYER
  2
0
 70
     0
 62
     7
  6
CONTINUOUS
  0
LAYER
  2
STEMPEL
 70
     0
 62
     3
  6
CONTINUOUS
  0
LAYER
  2
ADSK_ASSOC_ENTITY_BACKUPS
 70
     1
 62
    -7
  6
CONTINUOUS
  0
ENDTAB
  0
TABLE
  2
STYLE
 70
     1
  0
STYLE
  2
STANDARD
 70
     0
 40
0.0
 41
0.8
 50
0.0
 71
     0
 42
3.5
  3
simplex.shx
  4

  0
ENDTAB
  0
TABLE
  2
VIEW
 70
     0
  0
ENDTAB
  0
TABLE
  2
UCS
 70
     0
  0
ENDTAB
  0
TABLE
  2
APPID
 70
    27
  0
APPID
  2
ACAD
 70
     0
  0
APPID
  2
ACAECLAYERSTANDARD
 70
     0
  0
APPID
  2
ACCMTRANSPARENCY
 70
     0
  0
APPID
  2
ACAD_NAV_VCDISPLAY
 70
     0
  0
APPID
  2
ACAD_PSEXT
 70
     0
  0
APPID
  2
ACAD_STEPID
 70
     0
  0
APPID
  2
ACAD_EXEMPT_FROM_CAD_STANDARDS
 70
     0
  0
APPID
  2
ACSYNERGY
 70
     0
  0
APPID
  2
SYNERGY_BODY_TBR_ID
 70
     0
  0
APPID
  2
ACAD_VIEW_EDGE_ID
 70
     0
  0
APPID
  2
GRADIENTCOLOR1ACI
 70
     0
  0
APPID
  2
GRADIENTCOLOR2ACI
 70
     0
  0
APPID
  2
ACAD_DSTYLE_DIMRADIAL_EXTENSION
 70
     0
  0
APPID
  2
ACADANNOMONITORALERTICONDI
 70
     0
  0
APPID
  2
ACAD_MLEADERVER
 70
     0
  0
APPID
  2
ACSYNERGYSKETCH
 70
     0
  0
APPID
  2
ACAD_MODELDOC_XFORM
 70
     0
  0
APPID
  2
ACDBDYNAMICBLOCKGUID
 70
     0
  0
APPID
  2
ACAD_DSTYLE_DIMJAG
 70
     0
  0
APPID
  2
ACAD_DSTYLE_DIMBREAK
 70
     0
  0
APPID
  2
ACAD_DSTYLE_DIMTALN
 70
     0
  0
APPID
  2
ACADANNOPO
 70
     0
  0
APPID
  2
PLOTTRANSPARENCY
 70
     0
  0
APPID
  2
ACADANNOTATIVE
 70
     0
  0
APPID
  2
ACAD_DIMASSOC_CALC_DIMLFAC
 70
     0
  0
APPID
  2
ACAD_DIMASSOC_DIMLFAC
 70
     0
  0
APPID
  2
ACAD_DIMASSOC_OVERRIDDEN_D
 70
     0
  0
ENDTAB
  0
TABLE
  2
DIMSTYLE
 70
     3
  0
DIMSTYLE
  2
LORO
 70
     0
  3

  4

  5

  6

  7

 40
1.0
 41
3.5
 42
1.0
 43
0.38
 44
1.0
 45
0.0
 46
0.0
 47
0.0
 48
0.000000001
140
3.5
141
0.09
142
0.0
143
25.3999999999999986
144
2.0
145
0.0
146
0.5
147
1.5
 71
     0
 72
     0
 73
     0
 74
     0
 75
     0
 76
     0
 77
     1
 78
     8
170
     0
171
     2
172
     1
173
     0
174
     0
175
     0
176
     0
177
     0
178
     1
  0
ENDTAB
  0
ENDSEC
  0
SECTION
  2
BLOCKS
  0
BLOCK
  8
0
  2
$MODEL_SPACE
 70
     0
 10
0.0
 20
0.0
 30
0.0
  3
$MODEL_SPACE
  1

  0
ENDBLK
  5
38
  8
0
  0
BLOCK
 67
     1
  8
0
  2
$PAPER_SPACE
 70
     0
 10
0.0
 20
0.0
 30
0.0
  3
$PAPER_SPACE
  1

  0
ENDBLK
  5
36
 67
     1
  8
0
  0
BLOCK
  8
0
  2
*S0
 70
     1
 10
0.0
 20
0.0
 30
0.0
  3
*S0
  1

  0
ENDBLK
  5
7128
  8
0
  0
BLOCK
  8
0
  2
A$C25CF9F83
 70
     0
 10
0.0
 20
0.0
 30
0.0
  3
A$C25CF9F83
  1

  0
CIRCLE
  5
1022F
  8
0
  6
CONTINUOUS
 62
     3
 10
0.0000000000001722
 20
0.0
 30
0.0
 40
48.0154442465726703
  0
CIRCLE
  5
10230
  8
0
  6
CONTINUOUS
 62
     3
 10
0.0000000000001695
 20
0.0
 30
0.0
 40
51.0
  0
CIRCLE
  5
10231
  8
0
  6
CONTINUOUS
 62
     3
 10
0.0000000000001723
 20
0.0
 30
0.0
 40
50.0
  0
CIRCLE
  5
10232
  8
0
  6
CONTINUOUS
 62
     3
 10
0.0000000000000189
 20
0.0
 30
0.0
 40
45.4999999999999929
  0
CIRCLE
  5
10233
  8
0
  6
VERDECKT
 62
     1
 10
0.0000000000001694
 20
0.0
 30
0.0
 40
49.0
  0
CIRCLE
  5
10234
  8
0
  6
VERDECKT
 62
     1
 10
0.0000000000000189
 20
0.0
 30
0.0
 40
47.5
  0
ENDBLK
  5
10236
  8
0
  0
BLOCK
  8
0
  2
A$C7FD0969A
 70
     0
 10
0.0
 20
0.0
 30
0.0
  3
A$C7FD0969A
  1

  0
LINE
  5
1023A
  8
0
  6
CONTINUOUS
 62
     3
 10
-49.9999999999999432
 20
500.0
 30
-0.000000000000111
 11
50.0000000000000711
 21
500.0
 31
-0.000000000000111
210
0.0
220
1.0
230
-0.0000000000000002
  0
LINE
  5
1023B
  8
0
  6
CONTINUOUS
 62
     3
 10
-47.5
 20
0.0000000000000058
 30
0.0
 11
47.5
 21
-0.0000000000000058
 31
0.0
210
0.0
220
1.0
230
-0.0000000000000002
  0
ARC
  5
1023C
  8
0
  6
CONTINUOUS
 62
     3
 10
50.000000000000469
 20
491.937742251701593
 30
0.0
 40
0.999999999999467
210
0.0
220
-0.0000000000000002
230
-1.0
 50
359.9999999999968168
 51
7.125016348901954
  0
ARC
  5
1023D
  8
0
  6
CONTINUOUS
 62
     3
 10
-50.0000000000001421
 20
491.937742251701593
 30
0.0
 40
0.999999999999919
210
0.0
220
-0.0000000000000002
230
-1.0
 50
172.874983651098006
 51
180.0000000000032117
  0
LINE
  5
1023E
  8
0
  6
CONTINUOUS
 62
     3
 10
50.0000000000000711
 20
500.0
 30
-0.000000000000111
 11
50.992277876713743
 21
492.0617769862906812
 31
-0.0000000000001093
210
0.0
220
1.0
230
-0.0000000000000002
  0
LINE
  5
1023F
  8
0
  6
CONTINUOUS
 62
     3
 10
-49.9999999999999432
 20
500.0
 30
-0.000000000000111
 11
-50.9922778767136009
 21
492.0617769862906812
 31
-0.0000000000001093
210
0.0
220
1.0
230
-0.0000000000000002
  0
LINE
  5
10240
  8
0
  6
CONTINUOUS
 62
     3
 10
51.0000000000000568
 20
491.9377422517014793
 30
-0.0000000000001092
 11
51.0000000000000071
 21
65.0000000000000142
 31
-0.0000000000000144
210
0.0
220
1.0
230
-0.0000000000000002
  0
LINE
  5
10241
  8
0
  6
CONTINUOUS
 62
     3
 10
-50.9999999999999432
 20
491.9377422517014793
 30
-0.0000000000001092
 11
-50.9999999999999929
 21
65.0000000000000142
 31
-0.0000000000000144
210
0.0
220
1.0
230
-0.0000000000000002
  0
LINE
  5
10242
  8
0
  6
CONTINUOUS
 62
     3
 10
47.5
 20
55.0
 30
-0.0000000000000122
 11
47.5
 21
-0.0000000000000071
 31
0.0
210
0.0
220
1.0
230
-0.0000000000000002
  0
LINE
  5
10243
  8
0
  6
CONTINUOUS
 62
     3
 10
-47.5
 20
55.0000000000000213
 30
-0.0000000000000122
 11
-47.5
 21
0.0000000000000071
 31
0.0
210
0.0
220
1.0
230
-0.0000000000000002
  0
ARC
  5
10244
  8
0
  6
CONTINUOUS
 62
     3
 10
41.9999999999999432
 20
65.0000000000000142
 30
0.0
 40
9.0000000000000355
210
0.0
220
-0.0000000000000002
230
-1.0
 50
323.1301023541589075
 51
0.0000000000000064
  0
ARC
  5
10245
  8
0
  6
CONTINUOUS
 62
     3
 10
-42.0000000000001066
 20
64.9999999999999716
 30
0.0
 40
8.9999999999998792
210
0.0
220
-0.0000000000000002
230
-1.0
 50
179.999999999999801
 51
216.8698976458416041
  0
LINE
  5
10246
  8
0
  6
CONTINUOUS
 62
     3
 10
-48.8999999999998067
 20
59.199999999999747
 30
-0.0000000000000131
 11
-49.2000000000002302
 21
59.6000000000003567
 31
-0.0000000000000132
210
0.0
220
1.0
230
-0.0000000000000002
  0
LINE
  5
10247
  8
0
  6
CONTINUOUS
 62
     3
 10
48.8999999999998209
 20
59.1999999999997399
 30
-0.0000000000000131
 11
49.2000000000002302
 21
59.6000000000003425
 31
-0.0000000000000132
210
0.0
220
1.0
230
-0.0000000000000002
  0
ARC
  5
10248
  8
0
  6
CONTINUOUS
 62
     3
 10
54.5000000000000924
 20
54.9999999999999929
 30
0.0
 40
7.000000000000079
210
0.0
220
-0.0000000000000002
230
-1.0
 50
143.1301023541589075
 51
179.9999999999996874
  0
ARC
  5
10249
  8
0
  6
CONTINUOUS
 62
     3
 10
-54.5000000000000924
 20
54.9999999999999716
 30
0.0
 40
7.0000000000000782
210
0.0
220
-0.0000000000000002
230
-1.0
 50
0.0000000000002926
 51
36.8698976458410996
  0
LINE
  5
1024A
  8
0
  6
VERDECKT
 62
     1
 10
-48.0154442465725992
 20
499.7519305308217099
 30
-0.000000000000111
 11
48.01544424657272
 21
499.7519305308217099
 31
-0.000000000000111
210
0.0
220
1.0
230
-0.0000000000000002
  0
ARC
  5
1024B
  8
0
  6
VERDECKT
 62
     1
 10
48.000000000000469
 20
491.8132267551047221
 30
0.0
 40
0.999999999999467
210
0.0
220
-0.0000000000000002
230
-1.0
 50
359.9999999999968168
 51
7.125016348901954
  0
ARC
  5
1024C
  8
0
  6
VERDECKT
 62
     1
 10
-48.0000000000001421
 20
491.8132267551047221
 30
0.0
 40
0.999999999999919
210
0.0
220
-0.0000000000000002
230
-1.0
 50
172.874983651098006
 51
180.0000000000032117
  0
LINE
  5
1024D
  8
0
  6
VERDECKT
 62
     1
 10
49.0000000000000568
 20
491.8132267551047221
 30
-0.0000000000001092
 11
49.0000000000000071
 21
65.0000000000000142
 31
-0.0000000000000144
210
0.0
220
1.0
230
-0.0000000000000002
  0
LINE
  5
1024E
  8
0
  6
VERDECKT
 62
     1
 10
-48.9999999999999432
 20
491.8132267551047221
 30
-0.0000000000001092
 11
-48.9999999999999929
 21
65.0000000000000142
 31
-0.0000000000000144
210
0.0
220
1.0
230
-0.0000000000000002
  0
LINE
  5
1024F
  8
0
  6
VERDECKT
 62
     1
 10
48.0154442465727413
 20
499.7519305308217099
 30
-0.000000000000111
 11
48.9922778767137217
 21
491.937261489693924
 31
-0.0000000000001092
210
0.0
220
1.0
230
-0.0000000000000002
  0
LINE
  5
10250
  8
0
  6
VERDECKT
 62
     1
 10
-48.0154442465726206
 20
499.7519305308217099
 30
-0.000000000000111
 11
-48.9922778767136009
 21
491.9372614896938103
 31
-0.0000000000001092
210
0.0
220
1.0
230
-0.0000000000000002
  0
LINE
  5
10251
  8
0
  6
VERDECKT
 62
     1
 10
45.4999999999999787
 20
55.0
 30
-0.0000000000000122
 11
45.4999999999999787
 21
-0.0000000000000142
 31
0.0
210
0.0
220
1.0
230
-0.0000000000000002
  0
LINE
  5
10252
  8
0
  6
VERDECKT
 62
     1
 10
-45.4999999999999787
 20
55.0000000000000213
 30
-0.0000000000000122
 11
-45.4999999999999787
 21
0.0000000000000071
 31
0.0
210
0.0
220
1.0
230
-0.0000000000000002
  0
ARC
  5
10253
  8
0
  6
VERDECKT
 62
     1
 10
54.4999999999999503
 20
55.0000000000000284
 30
0.0
 40
8.9999999999999432
210
0.0
220
-0.0000000000000002
230
-1.0
 50
143.1301023541585948
 51
180.0000000000001137
  0
ARC
  5
10254
  8
0
  6
VERDECKT
 62
     1
 10
-54.5000000000000071
 20
55.0
 30
0.0
 40
8.9999999999999911
210
0.0
220
-0.0000000000000002
230
-1.0
 50
0.0
 51
36.8698976458412204
  0
LINE
  5
10255
  8
0
  6
VERDECKT
 62
     1
 10
-47.2999999999997485
 20
60.3999999999996717
 30
-0.0000000000000134
 11
-47.6000000000001933
 21
60.8000000000002601
 31
-0.0000000000000135
210
0.0
220
1.0
230
-0.0000000000000002
  0
LINE
  5
10256
  8
0
  6
VERDECKT
 62
     1
 10
47.2999999999997698
 20
60.3999999999996504
 30
-0.0000000000000134
 11
47.6000000000002075
 21
60.800000000000253
 31
-0.0000000000000135
210
0.0
220
1.0
230
-0.0000000000000002
  0
ARC
  5
10257
  8
0
  6
VERDECKT
 62
     1
 10
41.9999999999999432
 20
65.0
 30
0.0
 40
7.0000000000000231
210
0.0
220
-0.0000000000000002
230
-1.0
 50
323.1301023541589075
 51
0.0
  0
ARC
  5
10258
  8
0
  6
VERDECKT
 62
     1
 10
-41.9999999999999929
 20
65.0
 30
0.0
 40
7.0
210
0.0
220
-0.0000000000000002
230
-1.0
 50
180.0
 51
216.8698976458412915
  0
LINE
  5
10259
  8
0
  6
VERDECKT
 62
     1
 10
-48.0154442465726135
 20
499.7519305308217099
 30
-0.000000000000111
 11
-49.9999999999999289
 21
500.0000000000001137
 31
-0.000000000000111
210
0.0
220
1.0
230
-0.0000000000000002
  0
LINE
  5
1025A
  8
0
  6
VERDECKT
 62
     1
 10
48.01544424657272
 20
499.7519305308217099
 30
-0.000000000000111
 11
50.0000000000000711
 21
500.0000000000001137
 31
-0.000000000000111
210
0.0
220
1.0
230
-0.0000000000000002
  0
ENDBLK
  5
1025C
  8
0
  0
ENDSEC
  0
SECTION
  2
ENTITIES
  0
INSERT
  5
712A
  8
ADSK_ASSOC_ENTITY_BACKUPS
  2
*S0
 10
0.0
 20
0.0
 30
0.0
  0
INSERT
  5
10237
  8
STEMPEL
  2
A$C25CF9F83
 10
0.0
 20
-70.0
 30
0.0
  0
INSERT
  5
1025D
  8
STEMPEL
  2
A$C7FD0969A
 10
0.0
 20
0.0
 30
0.0
  0
VIEWPORT
  5
7108
 67
     1
  8
0
 10
104.7927076403737061
 20
148.2502254211424031
 30
0.0
 40
558.8319832755776133
 41
298.5191815856778135
 68
     1
 69
     1
1001
ACAD
1000
MVIEW
1002
{
1070
    16
1010
0.0
1020
0.0
1030
0.0
1010
0.0
1020
0.0
1030
1.0
1040
0.0
1040
298.5191815856778135
1040
104.7927076403737061
1040
148.2502254211424031
1040
50.0
1040
0.0
1040
0.0
1070
     0
1070
  1500
1070
     1
1070
     1
1070
     0
1070
     0
1070
     0
1070
     0
1040
0.0
1040
0.0
1040
0.0
1040
10.0
1040
10.0
1040
10.0
1040
10.0
1070
     0
1002
{
1002
}
1002
}
  0
ENDSEC
  0
EOF
