  0
SECTION
  2
HEADER
  9
$ACADVER
  1
AC1009
  9
$INSBASE
 10
0.0
 20
0.0
 30
0.0
  9
$EXTMIN
 10
-165.0
 20
-380.0000000000001137
 30
-0.0000000000000614
  9
$EXTMAX
 10
165.0
 20
270.0000000000001137
 30
0.0
  9
$LIMMIN
 10
0.0
 20
0.0
  9
$LIMMAX
 10
419.9999999999998863
 20
594.0
  9
$ORTHOMODE
 70
     1
  9
$REGENMODE
 70
     1
  9
$FILLMODE
 70
     1
  9
$QTEXTMODE
 70
     0
  9
$MIRRTEXT
 70
     1
  9
$DRAGMODE
 70
     2
  9
$LTSCALE
 40
10.0
  9
$OSMODE
 70
   511
  9
$ATTMODE
 70
     1
  9
$TEXTSIZE
 40
3.5
  9
$TRACEWID
 40
0.5
  9
$TEXTSTYLE
  7
STANDARD
  9
$CLAYER
  8
STEMPEL
  9
$CELTYPE
  6
BYLAYER
  9
$CECOLOR
 62
   256
  9
$DIMSCALE
 40
1.0
  9
$DIMASZ
 40
3.5
  9
$DIMEXO
 40
1.0
  9
$DIMDLI
 40
0.38
  9
$DIMRND
 40
0.0
  9
$DIMDLE
 40
0.0
  9
$DIMEXE
 40
1.0
  9
$DIMTP
 40
0.0
  9
$DIMTM
 40
0.000000001
  9
$DIMTXT
 40
3.5
  9
$DIMCEN
 40
0.09
  9
$DIMTSZ
 40
0.0
  9
$DIMTOL
 70
     0
  9
$DIMLIM
 70
     0
  9
$DIMTIH
 70
     0
  9
$DIMTOH
 70
     0
  9
$DIMSE1
 70
     0
  9
$DIMSE2
 70
     0
  9
$DIMTAD
 70
     1
  9
$DIMZIN
 70
     8
  9
$DIMBLK
  1

  9
$DIMASO
 70
     1
  9
$DIMSHO
 70
     0
  9
$DIMPOST
  1

  9
$DIMAPOST
  1

  9
$DIMALT
 70
     0
  9
$DIMALTD
 70
     2
  9
$DIMALTF
 40
25.3999999999999986
  9
$DIMLFAC
 40
2.0
  9
$DIMTOFL
 70
     1
  9
$DIMTVP
 40
0.0
  9
$DIMTIX
 70
     0
  9
$DIMSOXD
 70
     0
  9
$DIMSAH
 70
     0
  9
$DIMBLK1
  1

  9
$DIMBLK2
  1

  9
$DIMSTYLE
  2
LORO
  9
$DIMCLRD
 70
     0
  9
$DIMCLRE
 70
     0
  9
$DIMCLRT
 70
     1
  9
$DIMTFAC
 40
0.5
  9
$DIMGAP
 40
1.5
  9
$LUNITS
 70
     2
  9
$LUPREC
 70
     2
  9
$SKETCHINC
 40
1.0
  9
$FILLETRAD
 40
3.0
  9
$AUNITS
 70
     0
  9
$AUPREC
 70
     0
  9
$MENU
  1
ACAD
  9
$ELEVATION
 40
0.0
  9
$PELEVATION
 40
0.0
  9
$THICKNESS
 40
0.0
  9
$LIMCHECK
 70
     0
  9
$BLIPMODE
 70
     0
  9
$CHAMFERA
 40
0.0
  9
$CHAMFERB
 40
0.0
  9
$SKPOLY
 70
     0
  9
$TDCREATE
 40
2455397.8646990740671754
  9
$TDUPDATE
 40
2459807.4206712958402932
  9
$TDINDWG
 40
0.3192632639
  9
$TDUSRTIMER
 40
0.3192632639
  9
$USRTIMER
 70
     1
  9
$ANGBASE
 50
0.0
  9
$ANGDIR
 70
     0
  9
$PDMODE
 70
     0
  9
$PDSIZE
 40
0.0
  9
$PLINEWID
 40
0.0
  9
$COORDS
 70
     1
  9
$SPLFRAME
 70
     0
  9
$SPLINETYPE
 70
     6
  9
$SPLINESEGS
 70
     8
  9
$ATTDIA
 70
     1
  9
$ATTREQ
 70
     1
  9
$HANDLING
 70
     1
  9
$HANDSEED
  5
31D7
  9
$SURFTAB1
 70
     6
  9
$SURFTAB2
 70
     6
  9
$SURFTYPE
 70
     6
  9
$SURFU
 70
     6
  9
$SURFV
 70
     6
  9
$UCSNAME
  2

  9
$UCSORG
 10
0.0
 20
0.0
 30
0.0
  9
$UCSXDIR
 10
1.0
 20
0.0
 30
0.0
  9
$UCSYDIR
 10
0.0
 20
1.0
 30
0.0
  9
$PUCSNAME
  2

  9
$PUCSORG
 10
0.0
 20
0.0
 30
0.0
  9
$PUCSXDIR
 10
1.0
 20
0.0
 30
0.0
  9
$PUCSYDIR
 10
0.0
 20
1.0
 30
0.0
  9
$USERI1
 70
     0
  9
$USERI2
 70
     0
  9
$USERI3
 70
     0
  9
$USERI4
 70
     0
  9
$USERI5
 70
     0
  9
$USERR1
 40
0.0
  9
$USERR2
 40
0.0
  9
$USERR3
 40
0.0
  9
$USERR4
 40
0.0
  9
$USERR5
 40
0.0
  9
$WORLDVIEW
 70
     1
  9
$SHADEDGE
 70
     3
  9
$SHADEDIF
 70
    70
  9
$TILEMODE
 70
     1
  9
$MAXACTVP
 70
    16
  9
$PLIMCHECK
 70
     0
  9
$PEXTMIN
 10
1.0000000000000000E+20
 20
1.0000000000000000E+20
 30
1.0000000000000000E+20
  9
$PEXTMAX
 10
-1.0000000000000000E+20
 20
-1.0000000000000000E+20
 30
-1.0000000000000000E+20
  9
$PLIMMIN
 10
-3.0005775254871869
 20
-4.2762717145876641
  9
$PLIMMAX
 10
293.9994224745128122
 20
415.7237282854122782
  9
$UNITMODE
 70
     0
  9
$VISRETAIN
 70
     0
  9
$PLINEGEN
 70
     0
  9
$PSLTSCALE
 70
     0
  0
ENDSEC
  0
SECTION
  2
TABLES
  0
TABLE
  2
VPORT
 70
     1
  0
VPORT
  2
*ACTIVE
 70
     0
 10
0.0
 20
0.0
 11
1.0
 21
1.0
 12
-5.744138049783146
 22
-252.2765091819842951
 13
0.0
 23
0.0
 14
1.0
 24
1.0
 15
10.0
 25
10.0
 16
-0.0000000000006768
 26
0.0
 36
3049.7128365232729266
 17
5.7441380497832677
 27
197.2765091819842098
 37
-0.0000000000000287
 40
653.3248081841433077
 41
1.8720136518771331
 42
50.0
 43
0.0
 44
0.0
 50
0.0
 51
0.0
 71
     0
 72
  1500
 73
     1
 74
     0
 75
     0
 76
     0
 77
     0
 78
     0
  0
ENDTAB
  0
TABLE
  2
LTYPE
 70
     6
  0
LTYPE
  2
CONTINUOUS
 70
     0
  3
Solid line
 72
    65
 73
     0
 40
0.0
  0
LTYPE
  2
STRICHPUNKT
 70
     0
  3
__ . __ . __ . __ . __ . __ . __ . __ . __ . __
 72
    65
 73
     4
 40
1.0
 49
0.5
 49
-0.25
 49
0.0
 49
-0.25
  0
LTYPE
  2
AUSGEZOGEN
 70
     0
  3
Ausgezogene Linie
 72
    65
 73
     0
 40
0.0
  0
LTYPE
  2
VERDECKT
 70
     0
  3
_ _ _ _ _ _ _ _ _ _ _ _ _ _ _ _ _ _ _ _ _ _ _
 72
    65
 73
     2
 40
0.375
 49
0.25
 49
-0.125
  0
ENDTAB
  0
TABLE
  2
LAYER
 70
    18
  0
LAYER
  2
0
 70
     0
 62
     7
  6
CONTINUOUS
  0
LAYER
  2
VOLL
 70
     0
 62
     1
  6
CONTINUOUS
  0
LAYER
  2
TEXT
 70
     0
 62
     7
  6
CONTINUOUS
  0
LAYER
  2
ADSK_ASSOC_ENTITY_BACKUPS
 70
     1
 62
    -7
  6
CONTINUOUS
  0
LAYER
  2
STEMPEL
 70
     0
 62
     3
  6
CONTINUOUS
  0
ENDTAB
  0
TABLE
  2
STYLE
 70
     3
  0
STYLE
  2
STANDARD
 70
     0
 40
0.0
 41
0.8
 50
0.0
 71
     0
 42
3.5
  3
simplex.shx
  4

  0
STYLE
  2
GREEKS
 70
     0
 40
0.0
 41
0.8
 50
0.0
 71
     0
 42
2.5
  3
SIMPLEX.shx
  4

  0
ENDTAB
  0
TABLE
  2
VIEW
 70
     0
  0
ENDTAB
  0
TABLE
  2
UCS
 70
     0
  0
ENDTAB
  0
TABLE
  2
APPID
 70
    43
  0
APPID
  2
ACAD
 70
     0
  0
APPID
  2
ACAD_NAV_VCDISPLAY
 70
     0
  0
APPID
  2
ACAD_EXEMPT_FROM_CAD_STANDARDS
 70
     0
  0
APPID
  2
ACAD_MLEADERVER
 70
     0
  0
APPID
  2
ACAD_PSEXT
 70
     0
  0
APPID
  2
ACAECLAYERSTANDARD
 70
     0
  0
APPID
  2
ACCMTRANSPARENCY
 70
     0
  0
APPID
  2
ACSYNERGY
 70
     0
  0
APPID
  2
SYNERGY_BODY_TBR_ID
 70
     0
  0
APPID
  2
ACAD_VIEW_EDGE_ID
 70
     0
  0
APPID
  2
ACADANNOMONITORALERTICONDI
 70
     0
  0
APPID
  2
ACSYNERGYSKETCH
 70
     0
  0
APPID
  2
ACAD_MODELDOC_XFORM
 70
     0
  0
APPID
  2
ACAD_STEPID
 70
     0
  0
APPID
  2
ACAD_DSTYLE_DIMJAG
 70
     0
  0
APPID
  2
ACAD_DSTYLE_DIMTALN
 70
     0
  0
APPID
  2
ACADANNOPO
 70
     0
  0
APPID
  2
GRADIENTCOLOR1ACI
 70
     0
  0
APPID
  2
GRADIENTCOLOR2ACI
 70
     0
  0
APPID
  2
ACAD_DSTYLE_DIMRADIAL_EXTENSION
 70
     0
  0
APPID
  2
ACAD_OBJECT_CHANGE_GUID
 70
     0
  0
APPID
  2
MCAD_NO_VIS
 70
     0
  0
APPID
  2
ACAD_TEMP_GRAPHIC
 70
     0
  0
APPID
  2
ACATTRIBSERVICES
 70
     0
  0
APPID
  2
DESIGNERASSEMBLIES
 70
     0
  0
APPID
  2
ACAD_DSTYLE_DIMBREAK
 70
     0
  0
APPID
  2
GENIUS_GENSCREG_15
 70
     0
  0
APPID
  2
GENIUS_GENOBJ-N-SDF_13
 70
     0
  0
APPID
  2
GENIUS_GENODEF_13
 70
     0
  0
APPID
  2
ACAD_DSTYLE_DIMARC_LENGTH_
 70
     0
  0
APPID
  2
ACAD_DSTYLE_DIM_LINETYPE
 70
     0
  0
APPID
  2
ACAD_DSTYLE_DIM_EXT1_LINETYPE
 70
     0
  0
APPID
  2
ACAD_DSTYLE_DIM_EXT2_LINETYPE
 70
     0
  0
APPID
  2
RAK
 70
     0
  0
APPID
  2
GENIUS_GENDTOL_13
 70
     0
  0
APPID
  2
ACAD_DSTYLE_DIMINSPECT
 70
     0
  0
APPID
  2
ACAD_DSTYLE_DIMANGULAR_EXT
 70
     0
  0
APPID
  2
PLOTTRANSPARENCY
 70
     0
  0
APPID
  2
ACAUTHENVIRON
 70
     0
  0
APPID
  2
ACDBDYNAMICBLOCKTRUENAME
 70
     0
  0
APPID
  2
ACDBDYNAMICBLOCKGUID
 70
     0
  0
APPID
  2
PE_URL
 70
     0
  0
APPID
  2
ACADANNOAV
 70
     0
  0
ENDTAB
  0
TABLE
  2
DIMSTYLE
 70
     4
  0
DIMSTYLE
  2
LORO
 70
     0
  3

  4

  5

  6

  7

 40
1.0
 41
3.5
 42
1.0
 43
0.38
 44
1.0
 45
0.0
 46
0.0
 47
0.0
 48
0.000000001
140
3.5
141
0.09
142
0.0
143
25.3999999999999986
144
2.0
145
0.0
146
0.5
147
1.5
 71
     0
 72
     0
 73
     0
 74
     0
 75
     0
 76
     0
 77
     1
 78
     8
170
     0
171
     2
172
     1
173
     0
174
     0
175
     0
176
     0
177
     0
178
     1
  0
ENDTAB
  0
ENDSEC
  0
SECTION
  2
BLOCKS
  0
BLOCK
  8
0
  2
$MODEL_SPACE
 70
     0
 10
0.0
 20
0.0
 30
0.0
  3
$MODEL_SPACE
  1

  0
ENDBLK
  5
36
  8
0
  0
BLOCK
 67
     1
  8
0
  2
$PAPER_SPACE
 70
     0
 10
0.0
 20
0.0
 30
0.0
  3
$PAPER_SPACE
  1

  0
ENDBLK
  5
34
 67
     1
  8
0
  0
BLOCK
  8
0
  2
*S0
 70
     1
 10
0.0
 20
0.0
 30
0.0
  3
*S0
  1

  0
ENDBLK
  5
D02
  8
0
  0
BLOCK
  8
0
  2
A$C16AFD992
 70
     0
 10
0.0
 20
0.0
 30
0.0
  3
A$C16AFD992
  1

  0
CIRCLE
  5
30B2
  8
0
  6
CONTINUOUS
 62
     3
 10
72.5000000000001279
 20
125.573683548743503
 30
0.0
 40
3.0000000000000031
  0
CIRCLE
  5
30B3
  8
0
  6
CONTINUOUS
 62
     3
 10
72.5000000000000142
 20
-125.5736835487436025
 30
0.0
 40
3.0000000000000031
  0
CIRCLE
  5
30B4
  8
0
  6
CONTINUOUS
 62
     3
 10
-144.9999999999998863
 20
0.0000000000000089
 30
-0.0000000000000568
 40
3.0000000000000031
  0
CIRCLE
  5
30B5
  8
0
  6
CONTINUOUS
 62
     3
 10
0.00000000000006
 20
0.0
 30
0.0
 40
165.0
  0
CIRCLE
  5
30B6
  8
0
  6
CONTINUOUS
 62
     3
 10
0.0000000000000503
 20
0.0
 30
0.0
 40
76.0
  0
CIRCLE
  5
30B7
  8
0
  6
CONTINUOUS
 62
     3
 10
0.0000000000000584
 20
0.0
 30
0.0
 40
85.3788868248696957
  0
CIRCLE
  5
30B8
  8
0
  6
CONTINUOUS
 62
     3
 10
-0.0000000000000568
 20
-0.0000000000000143
 30
0.0
 40
63.4140023097425001
  0
CIRCLE
  5
30B9
  8
0
  6
CONTINUOUS
 62
     3
 10
0.0000000000000461
 20
-0.0000000000000016
 30
0.0
 40
64.5
  0
CIRCLE
  5
30BA
  8
0
  6
VERDECKT
 62
     1
 10
0.0000000000000557
 20
0.0
 30
0.0
 40
89.0
  0
CIRCLE
  5
30BB
  8
0
  6
VERDECKT
 62
     1
 10
0.0000000000000556
 20
0.0
 30
0.0
 40
87.0000000000000142
  0
CIRCLE
  5
30BC
  8
0
  6
VERDECKT
 62
     1
 10
0.0000000000000584
 20
0.0
 30
0.0
 40
87.3788868248696957
  0
CIRCLE
  5
30BD
  8
0
  6
VERDECKT
 62
     1
 10
-0.0000000000000568
 20
-0.0000000000000143
 30
0.0
 40
65.4063917059258983
  0
CIRCLE
  5
30BE
  8
0
  6
VERDECKT
 62
     1
 10
0.0000000000000461
 20
-0.0000000000000016
 30
0.0
 40
66.5
  0
CIRCLE
  5
30BF
  8
0
  6
VERDECKT
 62
     1
 10
0.0000000000000518
 20
-0.0000000000000001
 30
0.0
 40
77.7737290945915447
  0
ENDBLK
  5
30C1
  8
0
  0
BLOCK
  8
0
  2
A$CA7FEE263
 70
     0
 10
0.0
 20
0.0
 30
0.0
  3
A$CA7FEE263
  1

  0
LINE
  5
3111
  8
0
  6
CONTINUOUS
 62
     3
 10
-164.9999999999998863
 20
270.0000000000001137
 30
-0.00000000000006
 11
-0.0000000000000284
 21
270.0000000000001137
 31
-0.00000000000006
210
0.0
220
1.0
230
-0.0000000000000002
  0
LINE
  5
3112
  8
0
  6
CONTINUOUS
 62
     3
 10
0.0000000000000243
 20
270.0000000000001137
 30
-0.00000000000006
 11
165.0
 21
270.0000000000001137
 31
-0.00000000000006
210
0.0
220
1.0
230
-0.0000000000000002
  0
LINE
  5
3113
  8
0
  6
CONTINUOUS
 62
     3
 10
-164.9999999999998863
 20
268.0000000000001137
 30
-0.0000000000000595
 11
-0.0000000000000284
 21
268.0000000000001137
 31
-0.0000000000000595
210
0.0
220
1.0
230
-0.0000000000000002
  0
LINE
  5
3114
  8
0
  6
CONTINUOUS
 62
     3
 10
0.0000000000000242
 20
268.0000000000001137
 30
-0.0000000000000595
 11
165.0
 21
268.0000000000001137
 31
-0.0000000000000595
210
0.0
220
1.0
230
-0.0000000000000002
  0
LINE
  5
3115
  8
0
  6
CONTINUOUS
 62
     3
 10
-76.0000000000000142
 20
234.0000000000001137
 30
-0.000000000000052
 11
-0.0000000000000142
 21
234.0000000000001137
 31
-0.000000000000052
210
0.0
220
1.0
230
-0.0000000000000002
  0
LINE
  5
3116
  8
0
  6
CONTINUOUS
 62
     3
 10
-0.0000000000000055
 20
234.0000000000001137
 30
-0.000000000000052
 11
76.0000000000000142
 21
234.0000000000001137
 31
-0.000000000000052
210
0.0
220
1.0
230
-0.0000000000000002
  0
ARC
  5
3117
  8
0
  6
CONTINUOUS
 62
     3
 10
87.9999999999998579
 20
254.9125113364740969
 30
0.0
 40
1.0000000000001421
210
0.0
220
-0.0000000000000002
230
-1.0
 50
0.0000000000032569
 51
10.0000000000003908
  0
ARC
  5
3118
  8
0
  6
CONTINUOUS
 62
     3
 10
-87.9999999999998579
 20
254.9125113364740969
 30
0.0
 40
1.0000000000001421
210
0.0
220
-0.0000000000000002
230
-1.0
 50
169.9999999999996021
 51
179.9999999999967031
  0
LINE
  5
3119
  8
0
  6
CONTINUOUS
 62
     3
 10
89.0
 20
254.9125113364742106
 30
-0.0000000000000566
 11
89.0
 21
251.267949192431189
 31
-0.0000000000000558
210
0.0
220
1.0
230
-0.0000000000000002
  0
LINE
  5
311A
  8
0
  6
CONTINUOUS
 62
     3
 10
-89.0
 20
254.9125113364742106
 30
-0.0000000000000566
 11
-89.0
 21
251.267949192431189
 31
-0.0000000000000558
210
0.0
220
1.0
230
-0.0000000000000002
  0
LINE
  5
311B
  8
0
  6
CONTINUOUS
 62
     3
 10
87.4320596893269339
 20
263.8922313781657749
 30
-0.0000000000000586
 11
88.9848077530122055
 21
255.0861595141410874
 31
-0.0000000000000566
210
0.0
220
1.0
230
-0.0000000000000002
  0
LINE
  5
311C
  8
0
  6
CONTINUOUS
 62
     3
 10
-87.4320596893269339
 20
263.8922313781657749
 30
-0.0000000000000586
 11
-88.9848077530122055
 21
255.0861595141410874
 31
-0.0000000000000566
210
0.0
220
1.0
230
-0.0000000000000002
  0
ARC
  5
311D
  8
0
  6
CONTINUOUS
 62
     3
 10
87.9999999999999432
 20
251.267949192431189
 30
0.0
 40
1.0000000000000591
210
0.0
220
-0.0000000000000002
230
-1.0
 50
330.0000000000001137
 51
359.9999999999984084
  0
ARC
  5
311E
  8
0
  6
CONTINUOUS
 62
     3
 10
-87.9999999999999432
 20
251.267949192431189
 30
0.0
 40
1.000000000000056
210
0.0
220
-0.0000000000000002
230
-1.0
 50
180.0000000000015064
 51
209.9999999999998863
  0
LINE
  5
311F
  8
0
  6
CONTINUOUS
 62
     3
 10
-81.41057568140873
 20
237.8547314800011918
 30
-0.0000000000000528
 11
-88.8660254037844339
 21
250.767949192431189
 31
-0.0000000000000557
210
0.0
220
1.0
230
-0.0000000000000002
  0
LINE
  5
3120
  8
0
  6
CONTINUOUS
 62
     3
 10
81.41057568140873
 20
237.8547314800011918
 30
-0.0000000000000528
 11
88.8660254037844339
 21
250.767949192431189
 31
-0.0000000000000557
210
0.0
220
1.0
230
-0.0000000000000002
  0
LINE
  5
3121
  8
0
  6
CONTINUOUS
 62
     3
 10
165.0
 20
270.0000000000001137
 30
-0.00000000000006
 11
165.0
 21
268.0000000000001137
 31
-0.0000000000000595
210
0.0
220
1.0
230
-0.0000000000000002
  0
LINE
  5
3122
  8
0
  6
CONTINUOUS
 62
     3
 10
-165.0
 20
270.0000000000001137
 30
-0.00000000000006
 11
-165.0
 21
268.0000000000001137
 31
-0.0000000000000595
210
0.0
220
1.0
230
-0.0000000000000002
  0
ARC
  5
3123
  8
0
  6
CONTINUOUS
 62
     3
 10
90.8788868248697099
 20
264.5
 30
0.0
 40
3.5
210
0.0
220
-0.0000000000000002
230
-1.0
 50
90.0000000000002132
 51
189.9999999999992895
  0
ARC
  5
3124
  8
0
  6
CONTINUOUS
 62
     3
 10
-90.8788868248697099
 20
264.5
 30
0.0
 40
3.5000000000000129
210
0.0
220
-0.0000000000000002
230
-1.0
 50
350.0000000000006253
 51
89.9999999999997584
  0
ARC
  5
3125
  8
0
  6
CONTINUOUS
 62
     3
 10
74.4823724511332443
 20
241.8547314800011918
 30
0.0
 40
7.9999999999999547
210
0.0
220
-0.0000000000000002
230
-1.0
 50
280.9354780177674229
 51
330.0000000000001137
  0
ARC
  5
3126
  8
0
  6
CONTINUOUS
 62
     3
 10
-74.4823724511332443
 20
241.8547314800011918
 30
0.0
 40
7.9999999999999662
210
0.0
220
-0.0000000000000002
230
-1.0
 50
209.9999999999998863
 51
259.0645219822325771
  0
LINE
  5
3127
  8
0
  6
CONTINUOUS
 62
     3
 10
-65.4063917059259552
 20
-0.0000000000000568
 30
0.0
 11
65.4063917059258415
 21
-0.0000000000000568
 31
0.0
210
0.0
220
1.0
230
-0.0000000000000002
  0
LINE
  5
3128
  8
0
  6
CONTINUOUS
 62
     3
 10
-75.9999999999998863
 20
234.0000000000001137
 30
-0.000000000000052
 11
75.9999999999998863
 21
234.0000000000001137
 31
-0.000000000000052
210
0.0
220
1.0
230
-0.0000000000000002
  0
LINE
  5
3129
  8
0
  6
CONTINUOUS
 62
     3
 10
-77.7737290945915447
 20
233.0759409656307923
 30
-0.0000000000000518
 11
77.7737290945915447
 21
233.0759409656307923
 31
-0.0000000000000518
210
0.0
220
1.0
230
-0.0000000000000002
  0
ARC
  5
312A
  8
0
  6
CONTINUOUS
 62
     3
 10
65.5000000000026716
 20
12.5436609429083497
 30
0.0
 40
0.9999999999973282
210
0.0
220
-0.0000000000000002
230
-1.0
 50
354.9999999999907914
 51
0.0000000000053052
  0
ARC
  5
312B
  8
0
  6
CONTINUOUS
 62
     3
 10
-65.500000000003709
 20
12.5436609429083603
 30
0.0
 40
0.9999999999962909
210
0.0
220
-0.0000000000000002
230
-1.0
 50
179.9999999999947988
 51
185.0000000000117097
  0
LINE
  5
312C
  8
0
  6
CONTINUOUS
 62
     3
 10
-65.4063917059258415
 20
-0.000000000000048
 30
0.0
 11
-66.4961946980917986
 21
12.4565052001607697
 31
-0.0000000000000028
210
0.0
220
1.0
230
-0.0000000000000002
  0
LINE
  5
312D
  8
0
  6
CONTINUOUS
 62
     3
 10
65.4063917059257278
 20
-0.000000000000048
 30
0.0
 11
66.4961946980916991
 21
12.4565052001608194
 31
-0.0000000000000028
210
0.0
220
1.0
230
-0.0000000000000002
  0
LINE
  5
312E
  8
0
  6
CONTINUOUS
 62
     3
 10
66.5
 20
207.7630507597453118
 30
-0.0000000000000461
 11
66.5
 21
12.5436609429084491
 31
-0.0000000000000028
210
0.0
220
1.0
230
-0.0000000000000002
  0
LINE
  5
312F
  8
0
  6
CONTINUOUS
 62
     3
 10
-66.5
 20
207.7630507597453118
 30
-0.0000000000000461
 11
-66.5
 21
12.5436609429084491
 31
-0.0000000000000028
210
0.0
220
1.0
230
-0.0000000000000002
  0
LINE
  5
3130
  8
0
  6
CONTINUOUS
 62
     3
 10
75.9999999999998863
 20
234.0000000000001137
 30
-0.000000000000052
 11
77.7737290945915447
 21
233.0759409656307923
 31
-0.0000000000000518
210
0.0
220
1.0
230
-0.0000000000000002
  0
LINE
  5
3131
  8
0
  6
CONTINUOUS
 62
     3
 10
-75.9999999999998863
 20
234.0000000000001137
 30
-0.000000000000052
 11
-77.7737290945915447
 21
233.0759409656307923
 31
-0.0000000000000518
210
0.0
220
1.0
230
-0.0000000000000002
  0
LINE
  5
3132
  8
0
  6
CONTINUOUS
 62
     3
 10
-68.1970317905635852
 20
214.693493517515094
 30
-0.0000000000000477
 11
-77.7737290945915447
 21
233.0759409656307923
 31
-0.0000000000000518
210
0.0
220
1.0
230
-0.0000000000000002
  0
LINE
  5
3133
  8
0
  6
CONTINUOUS
 62
     3
 10
68.1970317905635852
 20
214.693493517515094
 30
-0.0000000000000477
 11
77.7737290945915447
 21
233.0759409656307923
 31
-0.0000000000000518
210
0.0
220
1.0
230
-0.0000000000000002
  0
ARC
  5
3134
  8
0
  6
CONTINUOUS
 62
     3
 10
81.4999999999995453
 20
207.763050759745397
 30
0.0
 40
14.9999999999995506
210
0.0
220
-0.0000000000000002
230
-1.0
 50
152.4818537301945867
 51
180.0000000000003979
  0
ARC
  5
3135
  8
0
  6
CONTINUOUS
 62
     3
 10
-81.4999999999995453
 20
207.763050759745397
 30
0.0
 40
14.9999999999995595
210
0.0
220
-0.0000000000000002
230
-1.0
 50
359.9999999999996021
 51
27.5181462698054098
  0
LINE
  5
3136
  8
0
  6
VERDECKT
 62
     1
 10
-75.9999999999999858
 20
236.0498364229893866
 30
-0.0000000000000524
 11
-0.0000000000000142
 21
236.0498364229893866
 31
-0.0000000000000524
210
0.0
220
1.0
230
-0.0000000000000002
  0
LINE
  5
3137
  8
0
  6
VERDECKT
 62
     1
 10
0.0000000000000061
 20
236.0498364229893866
 30
-0.0000000000000524
 11
76.0
 21
236.0498364229893866
 31
-0.0000000000000524
210
0.0
220
1.0
230
-0.0000000000000002
  0
ARC
  5
3138
  8
0
  6
VERDECKT
 62
     1
 10
85.9999999999998863
 20
254.7375340094222054
 30
0.0
 40
1.0000000000001421
210
0.0
220
-0.0000000000000002
230
-1.0
 50
0.0000000000032569
 51
10.0000000000003908
  0
ARC
  5
3139
  8
0
  6
VERDECKT
 62
     1
 10
-85.9999999999998863
 20
254.7375340094222054
 30
0.0
 40
1.0000000000001421
210
0.0
220
-0.0000000000000002
230
-1.0
 50
169.9999999999996021
 51
179.9999999999967031
  0
LINE
  5
313A
  8
0
  6
VERDECKT
 62
     1
 10
87.0000000000000142
 20
254.7375340094222054
 30
-0.0000000000000566
 11
87.0000000000000142
 21
251.8038475772933964
 31
-0.0000000000000559
210
0.0
220
1.0
230
-0.0000000000000002
  0
LINE
  5
313B
  8
0
  6
VERDECKT
 62
     1
 10
-87.0000000000000142
 20
254.7375340094222054
 30
-0.0000000000000566
 11
-87.0000000000000142
 21
251.8038475772933964
 31
-0.0000000000000559
210
0.0
220
1.0
230
-0.0000000000000002
  0
LINE
  5
313C
  8
0
  6
VERDECKT
 62
     1
 10
85.4624441833025514
 20
263.5449350228320213
 30
-0.0000000000000585
 11
86.9848077530122481
 21
254.9111821870891106
 31
-0.0000000000000566
210
0.0
220
1.0
230
-0.0000000000000002
  0
LINE
  5
313D
  8
0
  6
VERDECKT
 62
     1
 10
-85.4624441833025514
 20
263.5449350228320213
 30
-0.0000000000000585
 11
-86.9848077530122481
 21
254.9111821870891106
 31
-0.0000000000000566
210
0.0
220
1.0
230
-0.0000000000000002
  0
ARC
  5
313E
  8
0
  6
VERDECKT
 62
     1
 10
85.9999999999999716
 20
251.8038475772935101
 30
0.0
 40
1.0000000000000591
210
0.0
220
-0.0000000000000002
230
-1.0
 50
330.0000000000001137
 51
359.9999999999984084
  0
ARC
  5
313F
  8
0
  6
VERDECKT
 62
     1
 10
-85.9999999999999716
 20
251.8038475772935101
 30
0.0
 40
1.000000000000056
210
0.0
220
-0.0000000000000002
230
-1.0
 50
180.0000000000015064
 51
209.9999999999998863
  0
LINE
  5
3140
  8
0
  6
VERDECKT
 62
     1
 10
-79.6785248738398479
 20
238.8547314800011918
 30
-0.000000000000053
 11
-86.8660254037844766
 21
251.3038475772935101
 31
-0.0000000000000558
210
0.0
220
1.0
230
-0.0000000000000002
  0
LINE
  5
3141
  8
0
  6
VERDECKT
 62
     1
 10
79.6785248738398479
 20
238.8547314800011918
 30
-0.000000000000053
 11
86.8660254037844766
 21
251.3038475772935101
 31
-0.0000000000000558
210
0.0
220
1.0
230
-0.0000000000000002
  0
LINE
  5
3142
  8
0
  6
VERDECKT
 62
     1
 10
75.4999999999999574
 20
270.0000000000001137
 30
-0.00000000000006
 11
75.4999999999999574
 21
268.0000000000001137
 31
-0.0000000000000595
210
0.0
220
1.0
230
-0.0000000000000002
  0
LINE
  5
3143
  8
0
  6
VERDECKT
 62
     1
 10
69.4999999999999432
 20
270.0000000000001137
 30
-0.00000000000006
 11
69.4999999999999432
 21
268.0000000000001137
 31
-0.0000000000000595
210
0.0
220
1.0
230
-0.0000000000000002
  0
LINE
  5
3144
  8
0
  6
VERDECKT
 62
     1
 10
-142.0
 20
270.0000000000001137
 30
-0.00000000000006
 11
-142.0
 21
268.0000000000001137
 31
-0.0000000000000595
210
0.0
220
1.0
230
-0.0000000000000002
  0
LINE
  5
3145
  8
0
  6
VERDECKT
 62
     1
 10
-148.0
 20
270.0000000000001137
 30
-0.00000000000006
 11
-148.0
 21
268.0000000000001137
 31
-0.0000000000000595
210
0.0
220
1.0
230
-0.0000000000000002
  0
ARC
  5
3146
  8
0
  6
VERDECKT
 62
     1
 10
90.8788868248696673
 20
264.5
 30
0.0
 40
5.5
210
0.0
220
-0.0000000000000002
230
-1.0
 50
89.9999999999998437
 51
190.0000000000003126
  0
ARC
  5
3147
  8
0
  6
VERDECKT
 62
     1
 10
-90.8788868248696673
 20
264.5
 30
0.0
 40
5.4999999999999902
210
0.0
220
-0.0000000000000002
230
-1.0
 50
349.9999999999996021
 51
90.0000000000001705
  0
LINE
  5
3148
  8
0
  6
VERDECKT
 62
     1
 10
76.0000000000000142
 20
236.0498364229893866
 30
-0.0000000000000524
 11
76.0000000000000142
 21
234.0000000000001137
 31
-0.000000000000052
210
0.0
220
1.0
230
-0.0000000000000002
  0
LINE
  5
3149
  8
0
  6
VERDECKT
 62
     1
 10
-76.0000000000000142
 20
236.0498364229893866
 30
-0.0000000000000524
 11
-76.0000000000000142
 21
234.0000000000001137
 31
-0.000000000000052
210
0.0
220
1.0
230
-0.0000000000000002
  0
ARC
  5
314A
  8
0
  6
VERDECKT
 62
     1
 10
74.4823724511331022
 20
241.8547314800013055
 30
0.0
 40
6.0000000000001483
210
0.0
220
-0.0000000000000002
230
-1.0
 50
284.6514317994926841
 51
329.9999999999996021
  0
ARC
  5
314B
  8
0
  6
VERDECKT
 62
     1
 10
-74.4823724511331022
 20
241.8547314800013055
 30
0.0
 40
6.0000000000001563
210
0.0
220
-0.0000000000000002
230
-1.0
 50
210.0000000000003979
 51
255.3485682005072022
  0
LINE
  5
314C
  8
0
  6
VERDECKT
 62
     1
 10
-63.4140023097425498
 20
0.1743114854953092
 30
0.0
 11
63.4140023097424432
 21
0.1743114854953092
 31
0.0
210
0.0
220
1.0
230
-0.0000000000000002
  0
ARC
  5
314D
  8
0
  6
VERDECKT
 62
     1
 10
63.5000000000033182
 20
12.6309828287247292
 30
0.0
 40
0.9999999999966745
210
0.0
220
-0.0000000000000002
230
-1.0
 50
354.9999999999890861
 51
0.0000000000053052
  0
ARC
  5
314E
  8
0
  6
VERDECKT
 62
     1
 10
-63.5000000000030624
 20
12.6309828287247399
 30
0.0
 40
0.9999999999969374
210
0.0
220
-0.0000000000000002
230
-1.0
 50
179.9999999999947988
 51
185.0000000000100044
  0
LINE
  5
314F
  8
0
  6
VERDECKT
 62
     1
 10
-63.4140023097425498
 20
0.1743114854953083
 30
0.0
 11
-64.4961946980917986
 21
12.5438270859771794
 31
-0.0000000000000028
210
0.0
220
1.0
230
-0.0000000000000002
  0
LINE
  5
3150
  8
0
  6
VERDECKT
 62
     1
 10
63.4140023097424432
 20
0.1743114854953083
 30
0.0
 11
64.4961946980916849
 21
12.5438270859771794
 31
-0.0000000000000028
210
0.0
220
1.0
230
-0.0000000000000002
  0
LINE
  5
3151
  8
0
  6
VERDECKT
 62
     1
 10
64.5
 20
207.763050759745596
 30
-0.0000000000000461
 11
64.5
 21
12.6309828287248305
 31
-0.0000000000000028
210
0.0
220
1.0
230
-0.0000000000000002
  0
LINE
  5
3152
  8
0
  6
VERDECKT
 62
     1
 10
-64.5
 20
207.763050759745596
 30
-0.0000000000000461
 11
-64.5
 21
12.6309828287248305
 31
-0.0000000000000028
210
0.0
220
1.0
230
-0.0000000000000002
  0
LINE
  5
3153
  8
0
  6
VERDECKT
 62
     1
 10
63.4140023097424432
 20
0.1743114854952711
 30
0.0
 11
65.4063917059258415
 21
-0.0000000000000949
 31
0.0
210
0.0
220
1.0
230
-0.0000000000000002
  0
LINE
  5
3154
  8
0
  6
VERDECKT
 62
     1
 10
-63.4140023097425498
 20
0.1743114854952711
 30
0.0
 11
-65.4063917059259552
 21
-0.0000000000000949
 31
0.0
210
0.0
220
1.0
230
-0.0000000000000002
  0
LINE
  5
3155
  8
0
  6
VERDECKT
 62
     1
 10
-66.4233026959721542
 20
215.6175525518848985
 30
-0.0000000000000479
 11
-75.9999999999998863
 21
234.0000000000001137
 31
-0.000000000000052
210
0.0
220
1.0
230
-0.0000000000000002
  0
LINE
  5
3156
  8
0
  6
VERDECKT
 62
     1
 10
66.4233026959721542
 20
215.6175525518848985
 30
-0.0000000000000479
 11
75.9999999999998863
 21
234.0000000000001137
 31
-0.000000000000052
210
0.0
220
1.0
230
-0.0000000000000002
  0
ARC
  5
3157
  8
0
  6
VERDECKT
 62
     1
 10
81.5000000000003837
 20
207.7630507597455107
 30
0.0
 40
17.0000000000004015
210
0.0
220
-0.0000000000000002
230
-1.0
 50
152.4818537301945867
 51
179.999999999999801
  0
ARC
  5
3158
  8
0
  6
VERDECKT
 62
     1
 10
-81.4999999999999858
 20
207.763050759745596
 30
0.0
 40
16.9999999999999787
210
0.0
220
-0.0000000000000002
230
-1.0
 50
359.9999999999997726
 51
27.5181462698056087
  0
ENDBLK
  5
315A
  8
0
  0
BLOCK
  8
0
  2
*U17
 70
     1
 10
0.0
 20
0.0
 30
0.0
  3
*U17
  1

  0
TEXT
  5
31B0
  8
STEMPEL
 62
     1
 10
115.7011648699515973
 20
120.415720199025202
 30
0.0
 40
3.5
  1
\U+2205290
 50
338.2649394401192922
 41
0.8
  0
ENDBLK
  5
31B2
  8
0
  0
BLOCK
  8
0
  2
*U18
 70
     1
 10
0.0
 20
0.0
 30
0.0
  3
*U18
  1

  0
TEXT
  5
31B4
  8
STEMPEL
 62
     1
 10
127.6628796245381068
 20
393.0373200000000793
 30
0.0
 40
3.5
  1
\U+2205330
 41
0.8
  0
ENDBLK
  5
31B6
  8
0
  0
BLOCK
  8
0
  2
*U19
 70
     1
 10
0.0
 20
0.0
 30
0.0
  3
*U19
  1

  0
TEXT
  5
31B8
  8
STEMPEL
 62
     1
 10
125.4666994620808964
 20
228.0373199999999088
 30
0.0
 40
3.5
  1
\U+2205133x2
 41
0.8
  0
ENDBLK
  5
31BA
  8
0
  0
BLOCK
  8
0
  2
*U20
 70
     1
 10
0.0
 20
0.0
 30
0.0
  3
*U20
  1

  0
TEXT
  5
31BC
  8
STEMPEL
 62
     1
 10
28.5295462912044506
 20
360.3373200000000907
 30
0.0
 40
3.5
  1
36
 50
90.0
 41
0.8
  0
ENDBLK
  5
31BE
  8
0
  0
BLOCK
  8
0
  2
*U21
 70
     1
 10
0.0
 20
0.0
 30
0.0
  3
*U21
  1

  0
TEXT
  5
31C0
  8
STEMPEL
 62
     1
 10
28.5333661287479003
 20
291.37065333333328
 30
0.0
 40
3.5
  1
234
 50
90.0
 41
0.8
  0
ENDBLK
  5
31C2
  8
0
  0
BLOCK
  8
0
  2
*U22
 70
     1
 10
0.0
 20
0.0
 30
0.0
  3
*U22
  1

  0
TEXT
  5
31C4
  8
STEMPEL
 62
     1
 10
18.5333661287478684
 20
300.4373199999999997
 30
0.0
 40
3.5
  1
270
 50
90.0
 41
0.8
  0
ENDBLK
  5
31C6
  8
0
  0
BLOCK
  8
0
  2
*U23
 70
     1
 10
0.0
 20
0.0
 30
0.0
  3
*U23
  1

  0
TEXT
  5
31C8
  8
0
 62
     1
 10
127.929546291204403
 20
383.0373200000000793
 30
0.0
 40
3.5
  1
\U+2205152
 41
0.8
  0
ENDBLK
  5
31CA
  8
0
  0
BLOCK
  8
0
  2
*U24
 70
     1
 10
0.0
 20
0.0
 30
0.0
  3
*U24
  1

  0
TEXT
  5
31CC
  8
STEMPEL
 62
     1
 10
38.5295462912047384
 20
360.1706533333335187
 30
0.0
 40
3.5
  1
2
 50
90.0
 41
0.8
  0
ENDBLK
  5
31CE
  8
0
  0
BLOCK
  8
0
  2
*U25
 70
     1
 10
0.0
 20
0.0
 30
0.0
  3
*U25
  1

  0
TEXT
  5
31D0
  8
STEMPEL
 62
     1
 10
70.0295462912040421
 20
362.0373200000000793
 30
0.0
 40
3.5
  1
\U+22056
 41
0.8
  0
ENDBLK
  5
31D2
  8
0
  0
BLOCK
  8
0
  2
*U26
 70
     1
 10
0.0
 20
0.0
 30
0.0
  3
*U26
  1

  0
TEXT
  5
31D4
  8
STEMPEL
 62
     1
 10
82.0654446760951544
 20
191.4985479556974894
 30
0.0
 40
3.5
  1
120°
 50
30.0000000000082103
 41
0.8
  0
ENDBLK
  5
31D6
  8
0
  0
ENDSEC
  0
SECTION
  2
ENTITIES
  0
TEXT
  5
8F
  8
VOLL
 10
78.076754716981128
 20
31.025947764705851
 30
0.0
 40
1.8
  1

  7
GREEKS
  0
TEXT
  5
97
  8
TEXT
 10
225.1296391125314926
 20
62.1158070677485625
 30
0.0
 40
5.0
  1

 41
0.8
  7
GREEKS
  0
INSERT
  5
D04
  8
ADSK_ASSOC_ENTITY_BACKUPS
  2
*S0
 10
0.0
 20
0.0
 30
0.0
  0
INSERT
  5
30C2
  8
STEMPEL
  2
A$C16AFD992
 10
0.0
 20
-215.0000000000001137
 30
0.0
  0
INSERT
  5
315B
  8
STEMPEL
  2
A$CA7FEE263
 10
0.0
 20
0.0
 30
0.0
  0
VIEWPORT
  5
CE3
 67
     1
  8
0
 10
145.4994224745128122
 20
205.7237282854123066
 30
0.0
 40
790.2674510967764263
 41
422.1483375959078899
 68
     1
 69
     1
1001
ACAD
1000
MVIEW
1002
{
1070
    16
1010
0.0
1020
0.0
1030
0.0
1010
0.0
1020
0.0
1030
1.0
1040
0.0
1040
422.1483375959078899
1040
145.4994224745128122
1040
205.7237282854123066
1040
50.0
1040
0.0
1040
0.0
1070
     0
1070
  1500
1070
     1
1070
     1
1070
     0
1070
     0
1070
     0
1070
     0
1040
0.0
1040
0.0
1040
0.0
1040
10.0
1040
10.0
1040
10.0
1040
10.0
1070
     0
1002
{
1002
}
1002
}
  0
TEXT
  5
DA7
 67
     1
  8
VOLL
 10
475.0674480202164887
 20
-106.3182519461715998
 30
0.0
 40
3.6000000000000001
  1

  7
GREEKS
  0
ENDSEC
  0
EOF
