  0
SECTION
  2
HEADER
  9
$ACADVER
  1
AC1009
  9
$INSBASE
 10
0.0
 20
0.0
 30
0.0
  9
$EXTMIN
 10
-165.0
 20
-380.0
 30
-0.0000000000000621
  9
$EXTMAX
 10
165.0
 20
270.0000000000001137
 30
0.0000000000000568
  9
$LIMMIN
 10
0.0
 20
0.0
  9
$LIMMAX
 10
419.9999999999998863
 20
594.0
  9
$ORTHOMODE
 70
     1
  9
$REGENMODE
 70
     1
  9
$FILLMODE
 70
     1
  9
$QTEXTMODE
 70
     0
  9
$MIRRTEXT
 70
     1
  9
$DRAGMODE
 70
     2
  9
$LTSCALE
 40
10.0
  9
$OSMODE
 70
   511
  9
$ATTMODE
 70
     1
  9
$TEXTSIZE
 40
3.5
  9
$TRACEWID
 40
0.5
  9
$TEXTSTYLE
  7
STANDARD
  9
$CLAYER
  8
STEMPEL
  9
$CELTYPE
  6
BYLAYER
  9
$CECOLOR
 62
   256
  9
$DIMSCALE
 40
1.0
  9
$DIMASZ
 40
0.12
  9
$DIMEXO
 40
0.05
  9
$DIMDLI
 40
0.5
  9
$DIMRND
 40
0.0
  9
$DIMDLE
 40
0.0
  9
$DIMEXE
 40
0.1
  9
$DIMTP
 40
0.1
  9
$DIMTM
 40
0.1
  9
$DIMTXT
 40
0.12
  9
$DIMCEN
 40
0.0
  9
$DIMTSZ
 40
0.0
  9
$DIMTOL
 70
     0
  9
$DIMLIM
 70
     0
  9
$DIMTIH
 70
     1
  9
$DIMTOH
 70
     1
  9
$DIMSE1
 70
     0
  9
$DIMSE2
 70
     0
  9
$DIMTAD
 70
     1
  9
$DIMZIN
 70
     7
  9
$DIMBLK
  1

  9
$DIMASO
 70
     1
  9
$DIMSHO
 70
     0
  9
$DIMPOST
  1

  9
$DIMAPOST
  1
mm
  9
$DIMALT
 70
     0
  9
$DIMALTD
 70
     2
  9
$DIMALTF
 40
25.3999999999999986
  9
$DIMLFAC
 40
1.0
  9
$DIMTOFL
 70
     0
  9
$DIMTVP
 40
0.0
  9
$DIMTIX
 70
     0
  9
$DIMSOXD
 70
     0
  9
$DIMSAH
 70
     0
  9
$DIMBLK1
  1

  9
$DIMBLK2
  1

  9
$DIMSTYLE
  2
KOPIE_2__VON_AM_ANSI
  9
$DIMCLRD
 70
   256
  9
$DIMCLRE
 70
   256
  9
$DIMCLRT
 70
     1
  9
$DIMTFAC
 40
0.71
  9
$DIMGAP
 40
0.11
  9
$LUNITS
 70
     2
  9
$LUPREC
 70
     2
  9
$SKETCHINC
 40
1.0
  9
$FILLETRAD
 40
0.0
  9
$AUNITS
 70
     0
  9
$AUPREC
 70
     0
  9
$MENU
  1
ACAD
  9
$ELEVATION
 40
0.0
  9
$PELEVATION
 40
0.0
  9
$THICKNESS
 40
0.0
  9
$LIMCHECK
 70
     0
  9
$BLIPMODE
 70
     0
  9
$CHAMFERA
 40
0.0
  9
$CHAMFERB
 40
0.0
  9
$SKPOLY
 70
     0
  9
$TDCREATE
 40
2455397.8646990740671754
  9
$TDUPDATE
 40
2459807.4212615741416812
  9
$TDINDWG
 40
0.2138928935
  9
$TDUSRTIMER
 40
0.2138928935
  9
$USRTIMER
 70
     1
  9
$ANGBASE
 50
0.0
  9
$ANGDIR
 70
     0
  9
$PDMODE
 70
     0
  9
$PDSIZE
 40
0.0
  9
$PLINEWID
 40
0.0
  9
$COORDS
 70
     1
  9
$SPLFRAME
 70
     0
  9
$SPLINETYPE
 70
     6
  9
$SPLINESEGS
 70
     8
  9
$ATTDIA
 70
     1
  9
$ATTREQ
 70
     1
  9
$HANDLING
 70
     1
  9
$HANDSEED
  5
2BE1
  9
$SURFTAB1
 70
     6
  9
$SURFTAB2
 70
     6
  9
$SURFTYPE
 70
     6
  9
$SURFU
 70
     6
  9
$SURFV
 70
     6
  9
$UCSNAME
  2

  9
$UCSORG
 10
0.0
 20
0.0
 30
0.0
  9
$UCSXDIR
 10
1.0
 20
0.0
 30
0.0
  9
$UCSYDIR
 10
0.0
 20
1.0
 30
0.0
  9
$PUCSNAME
  2

  9
$PUCSORG
 10
0.0
 20
0.0
 30
0.0
  9
$PUCSXDIR
 10
1.0
 20
0.0
 30
0.0
  9
$PUCSYDIR
 10
0.0
 20
1.0
 30
0.0
  9
$USERI1
 70
     0
  9
$USERI2
 70
     0
  9
$USERI3
 70
     0
  9
$USERI4
 70
     0
  9
$USERI5
 70
     0
  9
$USERR1
 40
0.0
  9
$USERR2
 40
0.0
  9
$USERR3
 40
0.0
  9
$USERR4
 40
0.0
  9
$USERR5
 40
0.0
  9
$WORLDVIEW
 70
     1
  9
$SHADEDGE
 70
     3
  9
$SHADEDIF
 70
    70
  9
$TILEMODE
 70
     1
  9
$MAXACTVP
 70
    16
  9
$PLIMCHECK
 70
     0
  9
$PEXTMIN
 10
1.0000000000000000E+20
 20
1.0000000000000000E+20
 30
1.0000000000000000E+20
  9
$PEXTMAX
 10
-1.0000000000000000E+20
 20
-1.0000000000000000E+20
 30
-1.0000000000000000E+20
  9
$PLIMMIN
 10
-3.0126027714848069
 20
-4.2980860793850288
  9
$PLIMMAX
 10
293.9873972285151922
 20
415.7019139206149134
  9
$UNITMODE
 70
     0
  9
$VISRETAIN
 70
     0
  9
$PLINEGEN
 70
     0
  9
$PSLTSCALE
 70
     0
  0
ENDSEC
  0
SECTION
  2
TABLES
  0
TABLE
  2
VPORT
 70
     1
  0
VPORT
  2
*ACTIVE
 70
     0
 10
0.0
 20
0.0
 11
1.0
 21
1.0
 12
5.2045352496270416
 22
-29.9641573174952818
 13
0.0
 23
0.0
 14
1.0
 24
1.0
 15
10.0
 25
10.0
 16
-0.0000000000003766
 26
0.0
 36
1701.848681095576012
 17
-5.2045352496270469
 27
-25.0358426825047005
 37
-0.0000000000000027
 40
653.3248081841430803
 41
1.8720136518771331
 42
50.0
 43
0.0
 44
0.0
 50
0.0
 51
0.0
 71
     0
 72
  1500
 73
     1
 74
     0
 75
     0
 76
     0
 77
     0
 78
     0
  0
ENDTAB
  0
TABLE
  2
LTYPE
 70
     5
  0
LTYPE
  2
CONTINUOUS
 70
     0
  3
Solid line
 72
    65
 73
     0
 40
0.0
  0
LTYPE
  2
STRICHPUNKT
 70
     0
  3
__ . __ . __ . __ . __ . __ . __ . __ . __ . __
 72
    65
 73
     4
 40
1.0
 49
0.5
 49
-0.25
 49
0.0
 49
-0.25
  0
LTYPE
  2
AUSGEZOGEN
 70
     0
  3
Ausgezogene Linie
 72
    65
 73
     0
 40
0.0
  0
LTYPE
  2
VERDECKT
 70
     0
  3
_ _ _ _ _ _ _ _ _ _ _ _ _ _ _ _ _ _ _ _ _ _ _
 72
    65
 73
     2
 40
0.375
 49
0.25
 49
-0.125
  0
ENDTAB
  0
TABLE
  2
LAYER
 70
    18
  0
LAYER
  2
0
 70
     0
 62
     7
  6
CONTINUOUS
  0
LAYER
  2
VOLL
 70
     0
 62
     1
  6
CONTINUOUS
  0
LAYER
  2
STEMPEL
 70
     0
 62
     3
  6
CONTINUOUS
  0
LAYER
  2
TEXT
 70
     0
 62
     7
  6
CONTINUOUS
  0
LAYER
  2
ADSK_ASSOC_ENTITY_BACKUPS
 70
     1
 62
    -7
  6
CONTINUOUS
  0
ENDTAB
  0
TABLE
  2
STYLE
 70
     3
  0
STYLE
  2
STANDARD
 70
     0
 40
0.0
 41
0.8
 50
0.0
 71
     0
 42
3.5
  3
simplex.shx
  4

  0
STYLE
  2
GREEKS
 70
     0
 40
0.0
 41
0.8
 50
0.0
 71
     0
 42
2.5
  3
SIMPLEX.shx
  4

  0
ENDTAB
  0
TABLE
  2
VIEW
 70
     0
  0
ENDTAB
  0
TABLE
  2
UCS
 70
     0
  0
ENDTAB
  0
TABLE
  2
APPID
 70
    43
  0
APPID
  2
ACAD
 70
     0
  0
APPID
  2
ACAD_NAV_VCDISPLAY
 70
     0
  0
APPID
  2
ACAD_EXEMPT_FROM_CAD_STANDARDS
 70
     0
  0
APPID
  2
ACAD_MLEADERVER
 70
     0
  0
APPID
  2
ACAD_PSEXT
 70
     0
  0
APPID
  2
ACAECLAYERSTANDARD
 70
     0
  0
APPID
  2
ACCMTRANSPARENCY
 70
     0
  0
APPID
  2
ACSYNERGY
 70
     0
  0
APPID
  2
SYNERGY_BODY_TBR_ID
 70
     0
  0
APPID
  2
ACAD_VIEW_EDGE_ID
 70
     0
  0
APPID
  2
ACADANNOMONITORALERTICONDI
 70
     0
  0
APPID
  2
ACSYNERGYSKETCH
 70
     0
  0
APPID
  2
ACAD_MODELDOC_XFORM
 70
     0
  0
APPID
  2
ACAD_STEPID
 70
     0
  0
APPID
  2
ACAD_DSTYLE_DIMJAG
 70
     0
  0
APPID
  2
ACAD_DSTYLE_DIMTALN
 70
     0
  0
APPID
  2
ACADANNOPO
 70
     0
  0
APPID
  2
GRADIENTCOLOR1ACI
 70
     0
  0
APPID
  2
GRADIENTCOLOR2ACI
 70
     0
  0
APPID
  2
ACAD_DSTYLE_DIMRADIAL_EXTENSION
 70
     0
  0
APPID
  2
ACAD_OBJECT_CHANGE_GUID
 70
     0
  0
APPID
  2
MCAD_NO_VIS
 70
     0
  0
APPID
  2
ACAD_TEMP_GRAPHIC
 70
     0
  0
APPID
  2
ACATTRIBSERVICES
 70
     0
  0
APPID
  2
DESIGNERASSEMBLIES
 70
     0
  0
APPID
  2
ACAD_DSTYLE_DIMBREAK
 70
     0
  0
APPID
  2
GENIUS_GENSCREG_15
 70
     0
  0
APPID
  2
GENIUS_GENOBJ-N-SDF_13
 70
     0
  0
APPID
  2
GENIUS_GENODEF_13
 70
     0
  0
APPID
  2
ACAD_DSTYLE_DIMARC_LENGTH_
 70
     0
  0
APPID
  2
ACAD_DSTYLE_DIM_LINETYPE
 70
     0
  0
APPID
  2
ACAD_DSTYLE_DIM_EXT1_LINETYPE
 70
     0
  0
APPID
  2
ACAD_DSTYLE_DIM_EXT2_LINETYPE
 70
     0
  0
APPID
  2
RAK
 70
     0
  0
APPID
  2
GENIUS_GENDTOL_13
 70
     0
  0
APPID
  2
ACAD_DSTYLE_DIMINSPECT
 70
     0
  0
APPID
  2
ACAD_DSTYLE_DIMANGULAR_EXT
 70
     0
  0
APPID
  2
PLOTTRANSPARENCY
 70
     0
  0
APPID
  2
ACAUTHENVIRON
 70
     0
  0
APPID
  2
ACDBDYNAMICBLOCKTRUENAME
 70
     0
  0
APPID
  2
ACDBDYNAMICBLOCKGUID
 70
     0
  0
APPID
  2
PE_URL
 70
     0
  0
APPID
  2
ACADANNOAV
 70
     0
  0
ENDTAB
  0
TABLE
  2
DIMSTYLE
 70
     3
  0
DIMSTYLE
  2
KOPIE_2__VON_AM_ANSI
 70
     0
  3

  4
mm
  5

  6

  7

 40
1.0
 41
0.12
 42
0.05
 43
0.5
 44
0.1
 45
0.0
 46
0.0
 47
0.1
 48
0.1
140
0.12
141
0.0
142
0.0
143
25.3999999999999986
144
1.0
145
0.0
146
0.71
147
0.11
 71
     0
 72
     0
 73
     1
 74
     1
 75
     0
 76
     0
 77
     1
 78
     7
170
     0
171
     2
172
     0
173
     0
174
     0
175
     0
176
   256
177
   256
178
     1
  0
ENDTAB
  0
ENDSEC
  0
SECTION
  2
BLOCKS
  0
BLOCK
  8
0
  2
$MODEL_SPACE
 70
     0
 10
0.0
 20
0.0
 30
0.0
  3
$MODEL_SPACE
  1

  0
ENDBLK
  5
36
  8
0
  0
BLOCK
 67
     1
  8
0
  2
$PAPER_SPACE
 70
     0
 10
0.0
 20
0.0
 30
0.0
  3
$PAPER_SPACE
  1

  0
ENDBLK
  5
34
 67
     1
  8
0
  0
BLOCK
  8
0
  2
*S0
 70
     1
 10
0.0
 20
0.0
 30
0.0
  3
*S0
  1

  0
ENDBLK
  5
D02
  8
0
  0
BLOCK
  8
0
  2
A$C0F4C7E7B
 70
     0
 10
0.0
 20
0.0
 30
0.0
  3
A$C0F4C7E7B
  1

  0
CIRCLE
  5
2B05
  8
0
  6
CONTINUOUS
 62
     3
 10
72.5000000000000142
 20
125.5736835487436025
 30
0.0
 40
3.0000000000000031
  0
CIRCLE
  5
2B06
  8
0
  6
CONTINUOUS
 62
     3
 10
72.4999999999999005
 20
-125.5736835487436025
 30
0.0
 40
3.0000000000000031
  0
CIRCLE
  5
2B07
  8
0
  6
CONTINUOUS
 62
     3
 10
-145.0
 20
0.0000000000000373
 30
0.0000000000000568
 40
3.0000000000000031
  0
CIRCLE
  5
2B08
  8
0
  6
CONTINUOUS
 62
     3
 10
-0.0000000000000545
 20
0.0000000000000284
 30
0.0
 40
57.5
  0
CIRCLE
  5
2B09
  8
0
  6
CONTINUOUS
 62
     3
 10
-0.00000000000006
 20
0.0000000000000284
 30
0.0
 40
165.0
  0
CIRCLE
  5
2B0A
  8
0
  6
CONTINUOUS
 62
     3
 10
-0.0000000000000587
 20
0.0000000000000284
 30
0.0
 40
70.0417473088814262
  0
CIRCLE
  5
2B0B
  8
0
  6
CONTINUOUS
 62
     3
 10
0.0
 20
0.0000000000000192
 30
0.0
 40
48.3817726430802395
  0
CIRCLE
  5
2B0C
  8
0
  6
CONTINUOUS
 62
     3
 10
-0.0000000000000472
 20
0.0000000000000322
 30
0.0
 40
49.2499999999998934
  0
CIRCLE
  5
2B0D
  8
0
  6
VERDECKT
 62
     1
 10
-0.0000000000000575
 20
0.0000000000000284
 30
0.0
 40
73.5000000000000142
  0
CIRCLE
  5
2B0E
  8
0
  6
VERDECKT
 62
     1
 10
-0.0000000000000575
 20
0.0000000000000284
 30
0.0
 40
71.5
  0
CIRCLE
  5
2B0F
  8
0
  6
VERDECKT
 62
     1
 10
-0.0000000000000587
 20
0.0000000000000284
 30
0.0
 40
72.0417473088814262
  0
CIRCLE
  5
2B10
  8
0
  6
VERDECKT
 62
     1
 10
0.0
 20
0.0000000000000192
 30
0.0
 40
50.1251133647406206
  0
CIRCLE
  5
2B11
  8
0
  6
VERDECKT
 62
     1
 10
-0.000000000000052
 20
0.0000000000000335
 30
0.0
 40
60.0
  0
CIRCLE
  5
2B12
  8
0
  6
VERDECKT
 62
     1
 10
-0.0000000000000518
 20
0.0000000000000334
 30
0.0
 40
61.534348428519138
  0
CIRCLE
  5
2B13
  8
0
  6
VERDECKT
 62
     1
 10
-0.0000000000000472
 20
0.0000000000000322
 30
0.0
 40
50.9999999999998792
  0
ENDBLK
  5
2B15
  8
0
  0
BLOCK
  8
0
  2
A$C3EA6D1B1
 70
     0
 10
0.0
 20
0.0
 30
0.0
  3
A$C3EA6D1B1
  1

  0
LINE
  5
2B19
  8
0
  6
CONTINUOUS
 62
     3
 10
-164.9999999999998863
 20
270.0000000000001137
 30
-0.00000000000006
 11
-0.0000000000000284
 21
270.0000000000001137
 31
-0.00000000000006
210
0.0
220
1.0
230
-0.0000000000000002
  0
LINE
  5
2B1A
  8
0
  6
CONTINUOUS
 62
     3
 10
0.0000000000000243
 20
270.0000000000001137
 30
-0.00000000000006
 11
165.0
 21
270.0000000000001137
 31
-0.00000000000006
210
0.0
220
1.0
230
-0.0000000000000002
  0
LINE
  5
2B1B
  8
0
  6
CONTINUOUS
 62
     3
 10
-164.9999999999998863
 20
268.0000000000001137
 30
-0.0000000000000595
 11
-0.0000000000000284
 21
268.0000000000001137
 31
-0.0000000000000595
210
0.0
220
1.0
230
-0.0000000000000002
  0
LINE
  5
2B1C
  8
0
  6
CONTINUOUS
 62
     3
 10
0.0000000000000242
 20
268.0000000000001137
 30
-0.0000000000000595
 11
165.0
 21
268.0000000000001137
 31
-0.0000000000000595
210
0.0
220
1.0
230
-0.0000000000000002
  0
ARC
  5
2B1D
  8
0
  6
CONTINUOUS
 62
     3
 10
72.4999999999999432
 20
251.267949192431189
 30
0.0
 40
1.0000000000000711
210
0.0
220
-0.0000000000000002
230
-1.0
 50
330.0000000000005116
 51
359.9999999999984084
  0
ARC
  5
2B1E
  8
0
  6
CONTINUOUS
 62
     3
 10
-72.4999999999999432
 20
251.267949192431189
 30
0.0
 40
1.0000000000000711
210
0.0
220
-0.0000000000000002
230
-1.0
 50
180.0000000000015064
 51
209.9999999999994884
  0
LINE
  5
2B1F
  8
0
  6
CONTINUOUS
 62
     3
 10
73.5000000000000142
 20
254.8860643916983975
 30
-0.0000000000000566
 11
73.5000000000000142
 21
251.267949192431189
 31
-0.0000000000000558
210
0.0
220
1.0
230
-0.0000000000000002
  0
LINE
  5
2B20
  8
0
  6
CONTINUOUS
 62
     3
 10
-73.5000000000000142
 20
254.8860643916983975
 30
-0.0000000000000566
 11
-73.5000000000000142
 21
251.267949192431189
 31
-0.0000000000000558
210
0.0
220
1.0
230
-0.0000000000000002
  0
LINE
  5
2B21
  8
0
  6
CONTINUOUS
 62
     3
 10
-65.9944465005348917
 20
238.0000000000001137
 30
-0.0000000000000528
 11
-73.3660254037844766
 21
250.767949192431189
 31
-0.0000000000000557
210
0.0
220
1.0
230
-0.0000000000000002
  0
LINE
  5
2B22
  8
0
  6
CONTINUOUS
 62
     3
 10
65.9944465005348775
 20
238.0000000000001137
 30
-0.0000000000000528
 11
73.3660254037844766
 21
250.767949192431189
 31
-0.0000000000000557
210
0.0
220
1.0
230
-0.0000000000000002
  0
ARC
  5
2B23
  8
0
  6
CONTINUOUS
 62
     3
 10
72.50000000000081
 20
254.8860643916983975
 30
0.0
 40
0.9999999999992041
210
0.0
220
-0.0000000000000002
230
-1.0
 50
0.0
 51
13.0000000000110205
  0
ARC
  5
2B24
  8
0
  6
CONTINUOUS
 62
     3
 10
-72.50000000000081
 20
254.8860643916983975
 30
0.0
 40
0.9999999999992061
210
0.0
220
-0.0000000000000002
230
-1.0
 50
166.9999999999938893
 51
180.0000000000048033
  0
LINE
  5
2B25
  8
0
  6
CONTINUOUS
 62
     3
 10
72.1955269201700247
 20
260.650293673936801
 30
-0.0000000000000579
 11
73.4743700647852478
 21
255.1110154460423018
 31
-0.0000000000000566
210
0.0
220
1.0
230
-0.0000000000000002
  0
LINE
  5
2B26
  8
0
  6
CONTINUOUS
 62
     3
 10
-72.1955269201700247
 20
260.650293673936801
 30
-0.0000000000000579
 11
-73.4743700647852478
 21
255.1110154460423018
 31
-0.0000000000000566
210
0.0
220
1.0
230
-0.0000000000000002
  0
LINE
  5
2B27
  8
0
  6
CONTINUOUS
 62
     3
 10
165.0
 20
270.0000000000001137
 30
-0.00000000000006
 11
165.0
 21
268.0000000000001137
 31
-0.0000000000000595
210
0.0
220
1.0
230
-0.0000000000000002
  0
LINE
  5
2B28
  8
0
  6
CONTINUOUS
 62
     3
 10
-165.0
 20
270.0000000000001137
 30
-0.00000000000006
 11
-165.0
 21
268.0000000000001137
 31
-0.0000000000000595
210
0.0
220
1.0
230
-0.0000000000000002
  0
ARC
  5
2B29
  8
0
  6
CONTINUOUS
 62
     3
 10
78.0417473088814688
 20
262.0
 30
0.0
 40
6.0
210
0.0
220
-0.0000000000000002
230
-1.0
 50
90.0000000000003979
 51
192.9999999999994031
  0
ARC
  5
2B2A
  8
0
  6
CONTINUOUS
 62
     3
 10
-78.0417473088814688
 20
262.0
 30
0.0
 40
6.0000000000000338
210
0.0
220
-0.0000000000000002
230
-1.0
 50
347.0000000000006253
 51
89.9999999999996021
  0
ARC
  5
2B2B
  8
0
  6
CONTINUOUS
 62
     3
 10
59.0662432702593065
 20
242.0000000000001137
 30
0.0
 40
8.0000000000000941
210
0.0
220
-0.0000000000000002
230
-1.0
 50
276.7028183906544996
 51
329.9999999999997158
  0
ARC
  5
2B2C
  8
0
  6
CONTINUOUS
 62
     3
 10
-59.0662432702593065
 20
242.0000000000001137
 30
0.0
 40
8.0000000000000906
210
0.0
220
-0.0000000000000002
230
-1.0
 50
210.0000000000003126
 51
263.2971816093455004
  0
LINE
  5
2B2D
  8
0
  6
CONTINUOUS
 62
     3
 10
-50.1251133647406206
 20
0.0
 30
0.0
 11
50.1251133647406206
 21
0.0
 31
0.0
210
0.0
220
1.0
230
-0.0000000000000002
  0
LINE
  5
2B2E
  8
0
  6
CONTINUOUS
 62
     3
 10
-60.0
 20
234.0546807257566968
 30
-0.000000000000052
 11
60.0
 21
234.0546807257566968
 31
-0.000000000000052
210
0.0
220
1.0
230
-0.0000000000000002
  0
LINE
  5
2B2F
  8
0
  6
CONTINUOUS
 62
     3
 10
-61.534348428519138
 20
233.2130900295740901
 30
-0.0000000000000518
 11
61.534348428519138
 21
233.2130900295740901
 31
-0.0000000000000518
210
0.0
220
1.0
230
-0.0000000000000002
  0
LINE
  5
2B30
  8
0
  6
CONTINUOUS
 62
     3
 10
-50.1251133647405709
 20
0.0000000000000044
 30
0.0
 11
-50.9552877025778912
 21
9.4889361018906442
 31
-0.0000000000000021
210
0.0
220
1.0
230
-0.0000000000000002
  0
LINE
  5
2B31
  8
0
  6
CONTINUOUS
 62
     3
 10
50.1251133647405709
 20
0.0000000000000044
 30
0.0
 11
50.9552877025778912
 21
9.4889361018906442
 31
-0.0000000000000021
210
0.0
220
1.0
230
-0.0000000000000002
  0
LINE
  5
2B32
  8
0
  6
CONTINUOUS
 62
     3
 10
60.0000000000000071
 20
234.0546807257566968
 30
-0.000000000000052
 11
61.5343484285191522
 21
233.2130900295740901
 31
-0.0000000000000518
210
0.0
220
1.0
230
-0.0000000000000002
  0
LINE
  5
2B33
  8
0
  6
CONTINUOUS
 62
     3
 10
-60.0000000000000071
 20
234.0546807257566968
 30
-0.000000000000052
 11
-61.5343484285191522
 21
233.2130900295740901
 31
-0.0000000000000518
210
0.0
220
1.0
230
-0.0000000000000002
  0
LINE
  5
2B34
  8
0
  6
CONTINUOUS
 62
     3
 10
-51.6469547144428134
 20
215.186860561787114
 30
-0.0000000000000478
 11
-61.534348428519138
 21
233.2130900295740901
 31
-0.0000000000000518
210
0.0
220
1.0
230
-0.0000000000000002
  0
LINE
  5
2B35
  8
0
  6
CONTINUOUS
 62
     3
 10
51.6469547144428134
 20
215.186860561787114
 30
-0.0000000000000478
 11
61.534348428519138
 21
233.2130900295740901
 31
-0.0000000000000518
210
0.0
220
1.0
230
-0.0000000000000002
  0
ARC
  5
2B36
  8
0
  6
CONTINUOUS
 62
     3
 10
56.2499999999999218
 20
212.6620884732392085
 30
0.0
 40
5.25000000000004
210
0.0
220
-0.0000000000000002
230
-1.0
 50
151.2552149318437955
 51
179.9999999999978115
  0
ARC
  5
2B37
  8
0
  6
CONTINUOUS
 62
     3
 10
-56.2499999999999218
 20
212.6620884732392085
 30
0.0
 40
5.2500000000000417
210
0.0
220
-0.0000000000000002
230
-1.0
 50
0.0000000000021755
 51
28.7447850681561903
  0
LINE
  5
2B38
  8
0
  6
CONTINUOUS
 62
     3
 10
50.9999999999998792
 20
212.6620884732392938
 30
-0.0000000000000472
 11
50.9999999999998792
 21
10.51301607917563
 31
-0.0000000000000023
210
0.0
220
1.0
230
-0.0000000000000002
  0
LINE
  5
2B39
  8
0
  6
CONTINUOUS
 62
     3
 10
-50.9999999999998792
 20
212.6620884732392938
 30
-0.0000000000000472
 11
-50.9999999999998792
 21
10.51301607917563
 31
-0.0000000000000023
210
0.0
220
1.0
230
-0.0000000000000002
  0
ARC
  5
2B3A
  8
0
  6
CONTINUOUS
 62
     3
 10
39.2500000000302904
 20
10.5130160791737097
 30
0.0
 40
11.7499999999695994
210
0.0
220
-0.0000000000000002
230
-1.0
 50
354.9999999999964189
 51
0.0000000000094004
  0
ARC
  5
2B3B
  8
0
  6
CONTINUOUS
 62
     3
 10
-39.2500000000301981
 20
10.5130160791737097
 30
0.0
 40
11.7499999999696794
210
0.0
220
-0.0000000000000002
230
-1.0
 50
179.9999999999905924
 51
185.0000000000034959
  0
LINE
  5
2B3C
  8
0
  6
VERDECKT
 62
     1
 10
-59.0662432702593705
 20
234.0000000000001137
 30
-0.000000000000052
 11
-0.0000000000000142
 21
234.0000000000001137
 31
-0.000000000000052
210
0.0
220
1.0
230
-0.0000000000000002
  0
LINE
  5
2B3D
  8
0
  6
VERDECKT
 62
     1
 10
0.0000000000000014
 20
234.0000000000001137
 30
-0.000000000000052
 11
59.0662432702593705
 21
234.0000000000001137
 31
-0.000000000000052
210
0.0
220
1.0
230
-0.0000000000000002
  0
LINE
  5
2B3E
  8
0
  6
VERDECKT
 62
     1
 10
-59.0662432702593705
 20
236.0000000000001137
 30
-0.0000000000000524
 11
-0.0000000000000142
 21
236.0000000000001137
 31
-0.0000000000000524
210
0.0
220
1.0
230
-0.0000000000000002
  0
LINE
  5
2B3F
  8
0
  6
VERDECKT
 62
     1
 10
0.0000000000000015
 20
236.0000000000001137
 30
-0.0000000000000524
 11
59.0662432702593705
 21
236.0000000000001137
 31
-0.0000000000000524
210
0.0
220
1.0
230
-0.0000000000000002
  0
ARC
  5
2B40
  8
0
  6
VERDECKT
 62
     1
 10
70.4999999999999432
 20
251.8038475772933964
 30
0.0
 40
1.0000000000000451
210
0.0
220
-0.0000000000000002
230
-1.0
 50
330.0000000000014779
 51
0.0000000000000127
  0
ARC
  5
2B41
  8
0
  6
VERDECKT
 62
     1
 10
-70.4999999999999432
 20
251.8038475772933964
 30
0.0
 40
1.000000000000056
210
0.0
220
-0.0000000000000002
230
-1.0
 50
180.0
 51
209.9999999999984936
  0
LINE
  5
2B42
  8
0
  6
VERDECKT
 62
     1
 10
71.5
 20
254.6581931750951924
 30
-0.0000000000000565
 11
71.5
 21
251.8038475772933964
 31
-0.0000000000000559
210
0.0
220
1.0
230
-0.0000000000000002
  0
LINE
  5
2B43
  8
0
  6
VERDECKT
 62
     1
 10
-71.5
 20
254.6581931750951924
 30
-0.0000000000000565
 11
-71.5
 21
251.8038475772933964
 31
-0.0000000000000559
210
0.0
220
1.0
230
-0.0000000000000002
  0
LINE
  5
2B44
  8
0
  6
VERDECKT
 62
     1
 10
-64.2623956929660096
 20
239.0000000000001137
 30
-0.0000000000000531
 11
-71.3660254037844339
 21
251.3038475772933964
 31
-0.0000000000000558
210
0.0
220
1.0
230
-0.0000000000000002
  0
LINE
  5
2B45
  8
0
  6
VERDECKT
 62
     1
 10
64.2623956929660096
 20
239.0000000000001137
 30
-0.0000000000000531
 11
71.3660254037844339
 21
251.3038475772933964
 31
-0.0000000000000558
210
0.0
220
1.0
230
-0.0000000000000002
  0
ARC
  5
2B46
  8
0
  6
VERDECKT
 62
     1
 10
70.5000000000009521
 20
254.6581931750953061
 30
0.0
 40
0.9999999999990478
210
0.0
220
-0.0000000000000002
230
-1.0
 50
359.9999999999951115
 51
13.0000000000065601
  0
ARC
  5
2B47
  8
0
  6
VERDECKT
 62
     1
 10
-70.5000000000009521
 20
254.6581931750953061
 30
0.0
 40
0.9999999999990477
210
0.0
220
-0.0000000000000002
230
-1.0
 50
166.9999999999934062
 51
180.0000000000048033
  0
LINE
  5
2B48
  8
0
  6
VERDECKT
 62
     1
 10
70.2467867905995149
 20
260.2003915652492196
 30
-0.0000000000000578
 11
71.4743700647852336
 21
254.8831442294390115
 31
-0.0000000000000566
210
0.0
220
1.0
230
-0.0000000000000002
  0
LINE
  5
2B49
  8
0
  6
VERDECKT
 62
     1
 10
-70.2467867905995149
 20
260.2003915652492196
 30
-0.0000000000000578
 11
-71.4743700647852336
 21
254.8831442294390115
 31
-0.0000000000000566
210
0.0
220
1.0
230
-0.0000000000000002
  0
LINE
  5
2B4A
  8
0
  6
VERDECKT
 62
     1
 10
75.4999999999999574
 20
270.0000000000001137
 30
-0.00000000000006
 11
75.4999999999999574
 21
268.0000000000001137
 31
-0.0000000000000595
210
0.0
220
1.0
230
-0.0000000000000002
  0
LINE
  5
2B4B
  8
0
  6
VERDECKT
 62
     1
 10
69.4999999999999432
 20
270.0000000000001137
 30
-0.00000000000006
 11
69.4999999999999432
 21
268.0000000000001137
 31
-0.0000000000000595
210
0.0
220
1.0
230
-0.0000000000000002
  0
LINE
  5
2B4C
  8
0
  6
VERDECKT
 62
     1
 10
-142.0
 20
270.0000000000001137
 30
-0.00000000000006
 11
-142.0
 21
268.0000000000001137
 31
-0.0000000000000595
210
0.0
220
1.0
230
-0.0000000000000002
  0
LINE
  5
2B4D
  8
0
  6
VERDECKT
 62
     1
 10
-148.0
 20
270.0000000000001137
 30
-0.00000000000006
 11
-148.0
 21
268.0000000000001137
 31
-0.0000000000000595
210
0.0
220
1.0
230
-0.0000000000000002
  0
LINE
  5
2B4E
  8
0
  6
VERDECKT
 62
     1
 10
57.5
 20
236.0000000000001137
 30
-0.0000000000000524
 11
57.5
 21
234.0000000000001137
 31
-0.000000000000052
210
0.0
220
1.0
230
-0.0000000000000002
  0
LINE
  5
2B4F
  8
0
  6
VERDECKT
 62
     1
 10
-57.5
 20
236.0000000000001137
 30
-0.0000000000000524
 11
-57.5
 21
234.0000000000001137
 31
-0.000000000000052
210
0.0
220
1.0
230
-0.0000000000000002
  0
ARC
  5
2B50
  8
0
  6
VERDECKT
 62
     1
 10
59.0662432702593705
 20
242.0000000000001137
 30
0.0
 40
6.0
210
0.0
220
-0.0000000000000002
230
-1.0
 50
270.0
 51
330.0
  0
ARC
  5
2B51
  8
0
  6
VERDECKT
 62
     1
 10
-59.0662432702593705
 20
242.0000000000001137
 30
0.0
 40
6.0
210
0.0
220
-0.0000000000000002
230
-1.0
 50
210.0
 51
270.0
  0
ARC
  5
2B52
  8
0
  6
VERDECKT
 62
     1
 10
78.0417473088814404
 20
262.0
 30
0.0
 40
8.0
210
0.0
220
-0.0000000000000002
230
-1.0
 50
90.0000000000000995
 51
192.9999999999996874
  0
ARC
  5
2B53
  8
0
  6
VERDECKT
 62
     1
 10
-78.0417473088814404
 20
262.0
 30
0.0
 40
8.0000000000000089
210
0.0
220
-0.0000000000000002
230
-1.0
 50
347.0000000000002274
 51
89.9999999999999147
  0
ARC
  5
2B54
  8
0
  6
VERDECKT
 62
     1
 10
59.0662432702598394
 20
241.9999999999924967
 30
0.0
 40
7.9999999999924114
210
0.0
220
-0.0000000000000002
230
-1.0
 50
270.0
 51
276.702818390660525
  0
ARC
  5
2B55
  8
0
  6
VERDECKT
 62
     1
 10
-59.0662432702598394
 20
241.9999999999924967
 30
0.0
 40
7.9999999999924114
210
0.0
220
-0.0000000000000002
230
-1.0
 50
263.2971816093428856
 51
270.0000000000032969
  0
LINE
  5
2B56
  8
0
  6
VERDECKT
 62
     1
 10
-48.3817726430802395
 20
0.152522549808424
 30
0.0
 11
48.3817726430802395
 21
0.152522549808424
 31
0.0
210
0.0
220
1.0
230
-0.0000000000000002
  0
LINE
  5
2B57
  8
0
  6
VERDECKT
 62
     1
 10
48.3817726430802395
 20
0.1525225498084099
 30
0.0
 11
50.1251133647406206
 21
-0.0000000000000141
 31
0.0
210
0.0
220
1.0
230
-0.0000000000000002
  0
LINE
  5
2B58
  8
0
  6
VERDECKT
 62
     1
 10
-48.3817726430802395
 20
0.1525225498084099
 30
0.0
 11
-50.1251133647406206
 21
-0.0000000000000141
 31
0.0
210
0.0
220
1.0
230
-0.0000000000000002
  0
LINE
  5
2B59
  8
0
  6
VERDECKT
 62
     1
 10
-48.3817726430802892
 20
0.1525225498084186
 30
0.0
 11
-49.2119469809173822
 21
9.6414586516976595
 31
-0.0000000000000021
210
0.0
220
1.0
230
-0.0000000000000002
  0
LINE
  5
2B5A
  8
0
  6
VERDECKT
 62
     1
 10
48.3817726430802892
 20
0.1525225498084186
 30
0.0
 11
49.2119469809173822
 21
9.6414586516976595
 31
-0.0000000000000021
210
0.0
220
1.0
230
-0.0000000000000002
  0
ARC
  5
2B5B
  8
0
  6
VERDECKT
 62
     1
 10
39.250000000017728
 20
10.5130160791735694
 30
0.0
 40
9.9999999999821583
210
0.0
220
-0.0000000000000002
230
-1.0
 50
354.9999999999949978
 51
0.0000000000033332
  0
ARC
  5
2B5C
  8
0
  6
VERDECKT
 62
     1
 10
-39.2500000000177209
 20
10.5130160791735694
 30
0.0
 40
9.9999999999821725
210
0.0
220
-0.0000000000000002
230
-1.0
 50
179.9999999999965894
 51
185.0000000000050022
  0
LINE
  5
2B5D
  8
0
  6
VERDECKT
 62
     1
 10
49.2499999999998934
 20
212.6620884732392938
 30
-0.0000000000000472
 11
49.2499999999998934
 21
10.5130160791741503
 31
-0.0000000000000023
210
0.0
220
1.0
230
-0.0000000000000002
  0
LINE
  5
2B5E
  8
0
  6
VERDECKT
 62
     1
 10
-49.2499999999998934
 20
212.6620884732392938
 30
-0.0000000000000472
 11
-49.2499999999998934
 21
10.5130160791741503
 31
-0.0000000000000023
210
0.0
220
1.0
230
-0.0000000000000002
  0
ARC
  5
2B5F
  8
0
  6
VERDECKT
 62
     1
 10
56.2500000000012079
 20
212.6620884732388959
 30
0.0
 40
7.0000000000013296
210
0.0
220
-0.0000000000000002
230
-1.0
 50
151.2552149318424881
 51
179.9999999999965041
  0
ARC
  5
2B60
  8
0
  6
VERDECKT
 62
     1
 10
-56.2500000000012506
 20
212.6620884732388959
 30
0.0
 40
7.0000000000013642
210
0.0
220
-0.0000000000000002
230
-1.0
 50
0.0
 51
28.7447850681535293
  0
LINE
  5
2B61
  8
0
  6
VERDECKT
 62
     1
 10
-50.1126062859240591
 20
216.0284512579702039
 30
-0.000000000000048
 11
-60.0000000000000426
 21
234.0546807257566115
 31
-0.000000000000052
210
0.0
220
1.0
230
-0.0000000000000002
  0
LINE
  5
2B62
  8
0
  6
VERDECKT
 62
     1
 10
50.1126062859240591
 20
216.0284512579702039
 30
-0.000000000000048
 11
60.0000000000000426
 21
234.0546807257566115
 31
-0.000000000000052
210
0.0
220
1.0
230
-0.0000000000000002
  0
ENDBLK
  5
2B64
  8
0
  0
BLOCK
  8
0
  2
*U16
 70
     1
 10
0.0
 20
0.0
 30
0.0
  3
*U16
  1

  0
TEXT
  5
2BBA
  8
STEMPEL
 62
     1
 10
127.6628796245381068
 20
393.0373200000000793
 30
0.0
 40
3.5
  1
\U+2205330
 41
0.8
  0
ENDBLK
  5
2BBC
  8
0
  0
BLOCK
  8
0
  2
*U17
 70
     1
 10
0.0
 20
0.0
 30
0.0
  3
*U17
  1

  0
TEXT
  5
2BBE
  8
STEMPEL
 62
     1
 10
28.5295462912044897
 20
360.337320000000318
 30
0.0
 40
3.5
  1
36
 50
90.0
 41
0.8
  0
ENDBLK
  5
2BC0
  8
0
  0
BLOCK
  8
0
  2
*U18
 70
     1
 10
0.0
 20
0.0
 30
0.0
  3
*U18
  1

  0
TEXT
  5
2BC2
  8
STEMPEL
 62
     1
 10
28.5295462912046887
 20
291.3706533333335074
 30
0.0
 40
3.5
  1
234
 50
90.0
 41
0.8
  0
ENDBLK
  5
2BC4
  8
0
  0
BLOCK
  8
0
  2
*U19
 70
     1
 10
0.0
 20
0.0
 30
0.0
  3
*U19
  1

  0
TEXT
  5
2BC6
  8
STEMPEL
 62
     1
 10
18.5295462912046283
 20
300.4373200000001134
 30
0.0
 40
3.5
  1
270
 50
90.0
 41
0.8
  0
ENDBLK
  5
2BC8
  8
0
  0
BLOCK
  8
0
  2
*U20
 70
     1
 10
0.0
 20
0.0
 30
0.0
  3
*U20
  1

  0
TEXT
  5
2BCA
  8
0
 62
     1
 10
127.929546291204403
 20
383.0373200000000793
 30
0.0
 40
3.5
  1
\U+2205120
 41
0.8
  0
ENDBLK
  5
2BCC
  8
0
  0
BLOCK
  8
0
  2
*U21
 70
     1
 10
0.0
 20
0.0
 30
0.0
  3
*U21
  1

  0
TEXT
  5
2BCE
  8
STEMPEL
 62
     1
 10
38.5295462912047313
 20
360.1706533333335187
 30
0.0
 40
3.5
  1
2
 50
90.0
 41
0.8
  0
ENDBLK
  5
2BD0
  8
0
  0
BLOCK
  8
0
  2
*U22
 70
     1
 10
0.0
 20
0.0
 30
0.0
  3
*U22
  1

  0
TEXT
  5
2BD2
  8
STEMPEL
 62
     1
 10
70.0295462912039852
 20
362.0373200000000793
 30
0.0
 40
3.5
  1
\U+22056
 41
0.8
  0
ENDBLK
  5
2BD4
  8
0
  0
BLOCK
  8
0
  2
*U23
 70
     1
 10
0.0
 20
0.0
 30
0.0
  3
*U23
  1

  0
TEXT
  5
2BD6
  8
STEMPEL
 62
     1
 10
115.7011648699517963
 20
120.415720199025003
 30
0.0
 40
3.5
  1
\U+2205290
 50
338.2649394401191216
 41
0.8
  0
ENDBLK
  5
2BD8
  8
0
  0
BLOCK
  8
0
  2
*U24
 70
     1
 10
0.0
 20
0.0
 30
0.0
  3
*U24
  1

  0
TEXT
  5
2BDA
  8
STEMPEL
 62
     1
 10
82.0654446760556056
 20
191.4985479556883945
 30
0.0
 40
3.5
  1
120°
 50
30.0000000000079687
 41
0.8
  0
ENDBLK
  5
2BDC
  8
0
  0
BLOCK
  8
0
  2
*U25
 70
     1
 10
0.0
 20
0.0
 30
0.0
  3
*U25
  1

  0
TEXT
  5
2BDE
  8
STEMPEL
 62
     1
 10
122.3962129578710005
 20
228.037319999999994
 30
0.0
 40
3.5
  1
\U+2205102x1.75
 41
0.8
  0
ENDBLK
  5
2BE0
  8
0
  0
ENDSEC
  0
SECTION
  2
ENTITIES
  0
TEXT
  5
8F
  8
VOLL
 10
78.076754716981128
 20
31.025947764705851
 30
0.0
 40
1.8
  1

  7
GREEKS
  0
TEXT
  5
97
  8
TEXT
 10
225.1296391125314926
 20
62.1158070677485625
 30
0.0
 40
5.0
  1

 41
0.8
  7
GREEKS
  0
INSERT
  5
D04
  8
ADSK_ASSOC_ENTITY_BACKUPS
  2
*S0
 10
0.0
 20
0.0
 30
0.0
  0
INSERT
  5
2B16
  8
STEMPEL
  2
A$C0F4C7E7B
 10
0.0000000000000498
 20
-215.0
 30
0.0
  0
INSERT
  5
2B65
  8
STEMPEL
  2
A$C3EA6D1B1
 10
0.0
 20
0.0
 30
0.0
  0
VIEWPORT
  5
CE3
 67
     1
  8
0
 10
145.4873972285151069
 20
205.7019139206149987
 30
0.0
 40
790.2674510967764263
 41
422.1483375959078899
 68
     1
 69
     1
1001
ACAD
1000
MVIEW
1002
{
1070
    16
1010
0.0
1020
0.0
1030
0.0
1010
0.0
1020
0.0
1030
1.0
1040
0.0
1040
422.1483375959078899
1040
145.4873972285151069
1040
205.7019139206149987
1040
50.0
1040
0.0
1040
0.0
1070
     0
1070
  1500
1070
     1
1070
     1
1070
     0
1070
     0
1070
     0
1070
     0
1040
0.0
1040
0.0
1040
0.0
1040
10.0
1040
10.0
1040
10.0
1040
10.0
1070
     0
1002
{
1002
}
1002
}
  0
TEXT
  5
DA7
 67
     1
  8
VOLL
 10
475.0674480202164887
 20
-106.3182519461715998
 30
0.0
 40
3.6000000000000001
  1

  7
GREEKS
  0
ENDSEC
  0
EOF
