  0
SECTION
  2
HEADER
  9
$ACADVER
  1
AC1009
  9
$INSBASE
 10
0.0
 20
0.0
 30
0.0
  9
$EXTMIN
 10
-165.0
 20
-380.0
 30
-0.0000000000000636
  9
$EXTMAX
 10
165.0
 20
280.0000000000001137
 30
0.0000000000000568
  9
$LIMMIN
 10
0.0
 20
0.0
  9
$LIMMAX
 10
419.9999999999998863
 20
594.0
  9
$ORTHOMODE
 70
     1
  9
$REGENMODE
 70
     1
  9
$FILLMODE
 70
     1
  9
$QTEXTMODE
 70
     0
  9
$MIRRTEXT
 70
     1
  9
$DRAGMODE
 70
     2
  9
$LTSCALE
 40
10.0
  9
$OSMODE
 70
   511
  9
$ATTMODE
 70
     1
  9
$TEXTSIZE
 40
3.5
  9
$TRACEWID
 40
0.5
  9
$TEXTSTYLE
  7
STANDARD
  9
$CLAYER
  8
STEMPEL
  9
$CELTYPE
  6
BYLAYER
  9
$CECOLOR
 62
   256
  9
$DIMSCALE
 40
1.0
  9
$DIMASZ
 40
3.5
  9
$DIMEXO
 40
1.0
  9
$DIMDLI
 40
0.38
  9
$DIMRND
 40
0.0
  9
$DIMDLE
 40
0.0
  9
$DIMEXE
 40
1.0
  9
$DIMTP
 40
0.0
  9
$DIMTM
 40
0.000000001
  9
$DIMTXT
 40
3.5
  9
$DIMCEN
 40
0.09
  9
$DIMTSZ
 40
0.0
  9
$DIMTOL
 70
     0
  9
$DIMLIM
 70
     0
  9
$DIMTIH
 70
     0
  9
$DIMTOH
 70
     0
  9
$DIMSE1
 70
     0
  9
$DIMSE2
 70
     0
  9
$DIMTAD
 70
     1
  9
$DIMZIN
 70
     8
  9
$DIMBLK
  1

  9
$DIMASO
 70
     1
  9
$DIMSHO
 70
     0
  9
$DIMPOST
  1

  9
$DIMAPOST
  1

  9
$DIMALT
 70
     0
  9
$DIMALTD
 70
     2
  9
$DIMALTF
 40
25.3999999999999986
  9
$DIMLFAC
 40
2.0
  9
$DIMTOFL
 70
     1
  9
$DIMTVP
 40
0.0
  9
$DIMTIX
 70
     0
  9
$DIMSOXD
 70
     0
  9
$DIMSAH
 70
     0
  9
$DIMBLK1
  1

  9
$DIMBLK2
  1

  9
$DIMSTYLE
  2
LORO
  9
$DIMCLRD
 70
     0
  9
$DIMCLRE
 70
     0
  9
$DIMCLRT
 70
     1
  9
$DIMTFAC
 40
0.5
  9
$DIMGAP
 40
1.5
  9
$LUNITS
 70
     2
  9
$LUPREC
 70
     2
  9
$SKETCHINC
 40
1.0
  9
$FILLETRAD
 40
3.0
  9
$AUNITS
 70
     0
  9
$AUPREC
 70
     0
  9
$MENU
  1
ACAD
  9
$ELEVATION
 40
0.0
  9
$PELEVATION
 40
0.0
  9
$THICKNESS
 40
0.0
  9
$LIMCHECK
 70
     0
  9
$BLIPMODE
 70
     0
  9
$CHAMFERA
 40
0.0
  9
$CHAMFERB
 40
0.0
  9
$SKPOLY
 70
     0
  9
$TDCREATE
 40
2455397.8646990740671754
  9
$TDUPDATE
 40
2459807.4219328700564802
  9
$TDINDWG
 40
0.2979553935
  9
$TDUSRTIMER
 40
0.2979553935
  9
$USRTIMER
 70
     1
  9
$ANGBASE
 50
0.0
  9
$ANGDIR
 70
     0
  9
$PDMODE
 70
     0
  9
$PDSIZE
 40
0.0
  9
$PLINEWID
 40
0.0
  9
$COORDS
 70
     1
  9
$SPLFRAME
 70
     0
  9
$SPLINETYPE
 70
     6
  9
$SPLINESEGS
 70
     8
  9
$ATTDIA
 70
     1
  9
$ATTREQ
 70
     1
  9
$HANDLING
 70
     1
  9
$HANDSEED
  5
334E
  9
$SURFTAB1
 70
     6
  9
$SURFTAB2
 70
     6
  9
$SURFTYPE
 70
     6
  9
$SURFU
 70
     6
  9
$SURFV
 70
     6
  9
$UCSNAME
  2

  9
$UCSORG
 10
0.0
 20
0.0
 30
0.0
  9
$UCSXDIR
 10
1.0
 20
0.0
 30
0.0
  9
$UCSYDIR
 10
0.0
 20
1.0
 30
0.0
  9
$PUCSNAME
  2

  9
$PUCSORG
 10
0.0
 20
0.0
 30
0.0
  9
$PUCSXDIR
 10
1.0
 20
0.0
 30
0.0
  9
$PUCSYDIR
 10
0.0
 20
1.0
 30
0.0
  9
$USERI1
 70
     0
  9
$USERI2
 70
     0
  9
$USERI3
 70
     0
  9
$USERI4
 70
     0
  9
$USERI5
 70
     0
  9
$USERR1
 40
0.0
  9
$USERR2
 40
0.0
  9
$USERR3
 40
0.0
  9
$USERR4
 40
0.0
  9
$USERR5
 40
0.0
  9
$WORLDVIEW
 70
     1
  9
$SHADEDGE
 70
     3
  9
$SHADEDIF
 70
    70
  9
$TILEMODE
 70
     1
  9
$MAXACTVP
 70
    16
  9
$PLIMCHECK
 70
     0
  9
$PEXTMIN
 10
1.0000000000000000E+20
 20
1.0000000000000000E+20
 30
1.0000000000000000E+20
  9
$PEXTMAX
 10
-1.0000000000000000E+20
 20
-1.0000000000000000E+20
 30
-1.0000000000000000E+20
  9
$PLIMMIN
 10
-3.0090281901337899
 20
-4.2870576352464687
  9
$PLIMMAX
 10
293.9909718098662097
 20
415.7129423647534736
  9
$UNITMODE
 70
     0
  9
$VISRETAIN
 70
     0
  9
$PLINEGEN
 70
     0
  9
$PSLTSCALE
 70
     0
  0
ENDSEC
  0
SECTION
  2
TABLES
  0
TABLE
  2
VPORT
 70
     1
  0
VPORT
  2
*ACTIVE
 70
     0
 10
0.0
 20
0.0
 11
1.0
 21
1.0
 12
-1.6044420761630811
 22
-51.9953194299180765
 13
0.0
 23
0.0
 14
1.0
 24
1.0
 15
10.0
 25
10.0
 16
-0.0000000000000522
 26
0.0
 36
235.2555996230476012
 17
1.604442076163068
 27
1.995319429918158
 37
-0.0000000000000023
 40
663.3759590792840299
 41
1.8720136518771331
 42
50.0
 43
0.0
 44
0.0
 50
0.0
 51
0.0
 71
     0
 72
  1500
 73
     1
 74
     0
 75
     0
 76
     0
 77
     0
 78
     0
  0
ENDTAB
  0
TABLE
  2
LTYPE
 70
     4
  0
LTYPE
  2
CONTINUOUS
 70
     0
  3
Solid line
 72
    65
 73
     0
 40
0.0
  0
LTYPE
  2
STRICHPUNKT
 70
     0
  3
__ . __ . __ . __ . __ . __ . __ . __ . __ . __
 72
    65
 73
     4
 40
1.0
 49
0.5
 49
-0.25
 49
0.0
 49
-0.25
  0
LTYPE
  2
AUSGEZOGEN
 70
     0
  3
Ausgezogene Linie
 72
    65
 73
     0
 40
0.0
  0
LTYPE
  2
VERDECKT
 70
     0
  3
Verdeckt __ __ __ __ __ __ __ __ __ __ __ __ __
 72
    65
 73
     2
 40
0.375
 49
0.25
 49
-0.125
  0
ENDTAB
  0
TABLE
  2
LAYER
 70
     7
  0
LAYER
  2
0
 70
     0
 62
     7
  6
CONTINUOUS
  0
LAYER
  2
VOLL
 70
     0
 62
     1
  6
CONTINUOUS
  0
LAYER
  2
TEXT
 70
     0
 62
     7
  6
CONTINUOUS
  0
LAYER
  2
ADSK_ASSOC_ENTITY_BACKUPS
 70
     1
 62
    -7
  6
CONTINUOUS
  0
LAYER
  2
STEMPEL
 70
     0
 62
     3
  6
CONTINUOUS
  0
ENDTAB
  0
TABLE
  2
STYLE
 70
     4
  0
STYLE
  2
STANDARD
 70
     0
 40
0.0
 41
0.8
 50
0.0
 71
     0
 42
3.5
  3
simplex.shx
  4

  0
STYLE
  2
GREEKS
 70
     0
 40
0.0
 41
0.8
 50
0.0
 71
     0
 42
2.5
  3
SIMPLEX.shx
  4

  0
ENDTAB
  0
TABLE
  2
VIEW
 70
     0
  0
ENDTAB
  0
TABLE
  2
UCS
 70
     0
  0
ENDTAB
  0
TABLE
  2
APPID
 70
    43
  0
APPID
  2
ACAD
 70
     0
  0
APPID
  2
ACAD_NAV_VCDISPLAY
 70
     0
  0
APPID
  2
ACAD_EXEMPT_FROM_CAD_STANDARDS
 70
     0
  0
APPID
  2
ACAD_MLEADERVER
 70
     0
  0
APPID
  2
ACAD_PSEXT
 70
     0
  0
APPID
  2
ACAECLAYERSTANDARD
 70
     0
  0
APPID
  2
ACCMTRANSPARENCY
 70
     0
  0
APPID
  2
ACSYNERGY
 70
     0
  0
APPID
  2
SYNERGY_BODY_TBR_ID
 70
     0
  0
APPID
  2
ACAD_VIEW_EDGE_ID
 70
     0
  0
APPID
  2
ACADANNOMONITORALERTICONDI
 70
     0
  0
APPID
  2
ACSYNERGYSKETCH
 70
     0
  0
APPID
  2
ACAD_MODELDOC_XFORM
 70
     0
  0
APPID
  2
ACAD_STEPID
 70
     0
  0
APPID
  2
ACAD_DSTYLE_DIMJAG
 70
     0
  0
APPID
  2
ACAD_DSTYLE_DIMTALN
 70
     0
  0
APPID
  2
ACADANNOPO
 70
     0
  0
APPID
  2
GRADIENTCOLOR1ACI
 70
     0
  0
APPID
  2
GRADIENTCOLOR2ACI
 70
     0
  0
APPID
  2
ACAD_DSTYLE_DIMRADIAL_EXTENSION
 70
     0
  0
APPID
  2
ACAD_OBJECT_CHANGE_GUID
 70
     0
  0
APPID
  2
MCAD_NO_VIS
 70
     0
  0
APPID
  2
ACAD_TEMP_GRAPHIC
 70
     0
  0
APPID
  2
ACATTRIBSERVICES
 70
     0
  0
APPID
  2
DESIGNERASSEMBLIES
 70
     0
  0
APPID
  2
ACAD_DSTYLE_DIMBREAK
 70
     0
  0
APPID
  2
GENIUS_GENSCREG_15
 70
     0
  0
APPID
  2
GENIUS_GENOBJ-N-SDF_13
 70
     0
  0
APPID
  2
GENIUS_GENODEF_13
 70
     0
  0
APPID
  2
ACAD_DSTYLE_DIMARC_LENGTH_
 70
     0
  0
APPID
  2
ACAD_DSTYLE_DIM_LINETYPE
 70
     0
  0
APPID
  2
ACAD_DSTYLE_DIM_EXT1_LINETYPE
 70
     0
  0
APPID
  2
ACAD_DSTYLE_DIM_EXT2_LINETYPE
 70
     0
  0
APPID
  2
RAK
 70
     0
  0
APPID
  2
GENIUS_GENDTOL_13
 70
     0
  0
APPID
  2
ACAD_DSTYLE_DIMINSPECT
 70
     0
  0
APPID
  2
ACAD_DSTYLE_DIMANGULAR_EXT
 70
     0
  0
APPID
  2
PLOTTRANSPARENCY
 70
     0
  0
APPID
  2
ACAUTHENVIRON
 70
     0
  0
APPID
  2
ACDBDYNAMICBLOCKTRUENAME
 70
     0
  0
APPID
  2
ACDBDYNAMICBLOCKGUID
 70
     0
  0
APPID
  2
PE_URL
 70
     0
  0
APPID
  2
ACADANNOAV
 70
     0
  0
ENDTAB
  0
TABLE
  2
DIMSTYLE
 70
     2
  0
DIMSTYLE
  2
LORO
 70
     0
  3

  4

  5

  6

  7

 40
1.0
 41
3.5
 42
1.0
 43
0.38
 44
1.0
 45
0.0
 46
0.0
 47
0.0
 48
0.000000001
140
3.5
141
0.09
142
0.0
143
25.3999999999999986
144
2.0
145
0.0
146
0.5
147
1.5
 71
     0
 72
     0
 73
     0
 74
     0
 75
     0
 76
     0
 77
     1
 78
     8
170
     0
171
     2
172
     1
173
     0
174
     0
175
     0
176
     0
177
     0
178
     1
  0
ENDTAB
  0
ENDSEC
  0
SECTION
  2
BLOCKS
  0
BLOCK
  8
0
  2
$MODEL_SPACE
 70
     0
 10
0.0
 20
0.0
 30
0.0
  3
$MODEL_SPACE
  1

  0
ENDBLK
  5
36
  8
0
  0
BLOCK
 67
     1
  8
0
  2
$PAPER_SPACE
 70
     0
 10
0.0
 20
0.0
 30
0.0
  3
$PAPER_SPACE
  1

  0
ENDBLK
  5
34
 67
     1
  8
0
  0
BLOCK
  8
0
  2
*S0
 70
     1
 10
0.0
 20
0.0
 30
0.0
  3
*S0
  1

  0
ENDBLK
  5
D02
  8
0
  0
BLOCK
  8
0
  2
A$CD2C45756
 70
     0
 10
0.0
 20
0.0
 30
0.0
  3
A$CD2C45756
  1

  0
CIRCLE
  5
328F
  8
0
  6
CONTINUOUS
 62
     3
 10
0.0
 20
-0.0000000000000142
 30
0.0
 40
63.4140023097425001
  0
CIRCLE
  5
3290
  8
0
  6
CONTINUOUS
 62
     3
 10
-0.0000000000000303
 20
-0.0000000000000142
 30
0.0
 40
64.5000000000002274
  0
CIRCLE
  5
3291
  8
0
  6
CONTINUOUS
 62
     3
 10
-0.0000000000000513
 20
0.0
 30
0.0
 40
70.5
  0
CIRCLE
  5
3292
  8
0
  6
CONTINUOUS
 62
     3
 10
72.5000000000000142
 20
125.573683548743503
 30
0.0
 40
3.0000000000000031
  0
CIRCLE
  5
3293
  8
0
  6
CONTINUOUS
 62
     3
 10
72.4999999999999005
 20
-125.5736835487436025
 30
0.0
 40
3.0000000000000031
  0
CIRCLE
  5
3294
  8
0
  6
CONTINUOUS
 62
     3
 10
-145.0
 20
0.0000000000000089
 30
0.0000000000000568
 40
3.0000000000000031
  0
CIRCLE
  5
3295
  8
0
  6
CONTINUOUS
 62
     3
 10
-0.0000000000000622
 20
0.0
 30
0.0
 40
165.0
  0
CIRCLE
  5
3296
  8
0
  6
CONTINUOUS
 62
     3
 10
-0.0000000000000567
 20
0.0
 30
0.0
 40
76.0
  0
CIRCLE
  5
3297
  8
0
  6
CONTINUOUS
 62
     3
 10
-0.0000000000000613
 20
0.0
 30
0.0
 40
85.3788868248696957
  0
CIRCLE
  5
3298
  8
0
  6
VERDECKT
 62
     1
 10
0.0
 20
-0.0000000000000142
 30
0.0
 40
65.4063917059258983
  0
CIRCLE
  5
3299
  8
0
  6
VERDECKT
 62
     1
 10
-0.0000000000000303
 20
-0.0000000000000142
 30
0.0
 40
66.5000000000002274
  0
CIRCLE
  5
329A
  8
0
  6
VERDECKT
 62
     1
 10
-0.0000000000000513
 20
0.0
 30
0.0
 40
72.5
  0
CIRCLE
  5
329B
  8
0
  6
VERDECKT
 62
     1
 10
-0.000000000000054
 20
0.0
 30
0.0
 40
77.7320508075688394
  0
CIRCLE
  5
329C
  8
0
  6
VERDECKT
 62
     1
 10
-0.0000000000000597
 20
0.0
 30
0.0
 40
89.0
  0
CIRCLE
  5
329D
  8
0
  6
VERDECKT
 62
     1
 10
-0.0000000000000597
 20
0.0
 30
0.0
 40
87.0000000000000142
  0
CIRCLE
  5
329E
  8
0
  6
VERDECKT
 62
     1
 10
-0.0000000000000613
 20
0.0
 30
0.0
 40
87.3788868248696957
  0
ENDBLK
  5
32A0
  8
0
  0
BLOCK
  8
0
  2
A$C995B4C8E
 70
     0
 10
0.0
 20
0.0
 30
0.0
  3
A$C995B4C8E
  1

  0
LINE
  5
32A4
  8
0
  6
CONTINUOUS
 62
     3
 10
-65.4063917059258983
 20
0.0
 30
0.0
 11
65.4063917059258983
 21
0.0
 31
0.0
210
0.0
220
1.0
230
-0.0000000000000002
  0
LINE
  5
32A5
  8
0
  6
CONTINUOUS
 62
     3
 10
77.7320508075688252
 20
243.0000000000001137
 30
-0.000000000000054
 11
-77.7320508075688252
 21
243.0000000000001137
 31
-0.000000000000054
210
0.0
220
1.0
230
-0.0000000000000002
  0
LINE
  5
32A6
  8
0
  6
CONTINUOUS
 62
     3
 10
76.0
 20
244.0000000000001137
 30
-0.0000000000000542
 11
-76.0
 21
244.0000000000001137
 31
-0.0000000000000542
210
0.0
220
1.0
230
-0.0000000000000002
  0
ARC
  5
32A7
  8
0
  6
CONTINUOUS
 62
     3
 10
65.5000000000033253
 20
12.54366094290841
 30
0.0
 40
0.9999999999966745
210
0.0
220
-0.0000000000000002
230
-1.0
 50
354.9999999999890861
 51
0.0000000000053052
  0
ARC
  5
32A8
  8
0
  6
CONTINUOUS
 62
     3
 10
-65.5000000000033253
 20
12.54366094290841
 30
0.0
 40
0.9999999999966745
210
0.0
220
-0.0000000000000002
230
-1.0
 50
179.9999999999947136
 51
185.0000000000108002
  0
LINE
  5
32A9
  8
0
  6
CONTINUOUS
 62
     3
 10
-65.4063917059257847
 20
0.0000000000000089
 30
0.0
 11
-66.4961946980917418
 21
12.4565052001608603
 31
-0.0000000000000028
210
0.0
220
1.0
230
-0.0000000000000002
  0
LINE
  5
32AA
  8
0
  6
CONTINUOUS
 62
     3
 10
65.4063917059257847
 20
0.0000000000000089
 30
0.0
 11
66.4961946980917418
 21
12.4565052001608603
 31
-0.0000000000000028
210
0.0
220
1.0
230
-0.0000000000000002
  0
LINE
  5
32AB
  8
0
  6
CONTINUOUS
 62
     3
 10
66.5
 20
136.5
 30
-0.0000000000000303
 11
66.5
 21
12.5436609429085006
 31
-0.0000000000000028
210
0.0
220
1.0
230
-0.0000000000000002
  0
LINE
  5
32AC
  8
0
  6
CONTINUOUS
 62
     3
 10
-66.5
 20
136.5
 30
-0.0000000000000303
 11
-66.5
 21
12.5436609429085006
 31
-0.0000000000000028
210
0.0
220
1.0
230
-0.0000000000000002
  0
ARC
  5
32AD
  8
0
  6
CONTINUOUS
 62
     3
 10
-76.4999999999994458
 20
136.5000000000003126
 30
0.0
 40
9.9999999999992184
210
0.0
220
-0.0000000000000002
230
-1.0
 50
359.9999999999985221
 51
38.2132107017364504
  0
ARC
  5
32AE
  8
0
  6
CONTINUOUS
 62
     3
 10
76.4999999999994458
 20
136.5000000000003126
 30
0.0
 40
9.9999999999992202
210
0.0
220
-0.0000000000000002
230
-1.0
 50
141.7867892982638978
 51
180.0000000000013927
  0
ARC
  5
32AF
  8
0
  6
CONTINUOUS
 62
     3
 10
-54.4999999999980034
 20
153.8205080756891903
 30
0.0
 40
18.0000000000019718
210
0.0
220
-0.0000000000000002
230
-1.0
 50
180.0000000000021885
 51
218.2132107017366138
  0
ARC
  5
32B0
  8
0
  6
CONTINUOUS
 62
     3
 10
54.49999999999784
 20
153.8205080756891903
 30
0.0
 40
18.0000000000021316
210
0.0
220
-0.0000000000000002
230
-1.0
 50
321.7867892982632725
 51
359.9999999999976126
  0
LINE
  5
32B1
  8
0
  6
CONTINUOUS
 62
     3
 10
-72.5
 20
153.8205080756885081
 30
-0.0000000000000342
 11
-72.5
 21
231.2583302491981101
 31
-0.0000000000000513
210
0.0
220
1.0
230
-0.0000000000000002
  0
LINE
  5
32B2
  8
0
  6
CONTINUOUS
 62
     3
 10
72.5
 20
153.8205080756885081
 30
-0.0000000000000342
 11
72.5
 21
231.2583302491981101
 31
-0.0000000000000513
210
0.0
220
1.0
230
-0.0000000000000002
  0
ARC
  5
32B3
  8
0
  6
CONTINUOUS
 62
     3
 10
-82.4999999999988916
 20
231.2583302491983943
 30
0.0
 40
9.9999999999988916
210
0.0
220
-0.0000000000000002
230
-1.0
 50
359.9999999999977831
 51
30.0000000000023697
  0
ARC
  5
32B4
  8
0
  6
CONTINUOUS
 62
     3
 10
82.4999999999988063
 20
231.2583302491983943
 30
0.0
 40
9.9999999999988116
210
0.0
220
-0.0000000000000002
230
-1.0
 50
149.9999999999976126
 51
180.0000000000019895
  0
LINE
  5
32B5
  8
0
  6
CONTINUOUS
 62
     3
 10
-73.8397459621556891
 20
236.2583302491981954
 30
-0.0000000000000525
 11
-77.732050807568811
 21
242.9999999999998863
 31
-0.000000000000054
210
0.0
220
1.0
230
-0.0000000000000002
  0
LINE
  5
32B6
  8
0
  6
CONTINUOUS
 62
     3
 10
73.8397459621557175
 20
236.2583302491981954
 30
-0.0000000000000525
 11
77.7320508075688679
 21
243.0
 31
-0.000000000000054
210
0.0
220
1.0
230
-0.0000000000000002
  0
LINE
  5
32B7
  8
0
  6
CONTINUOUS
 62
     3
 10
76.0
 20
244.0000000000001137
 30
-0.0000000000000542
 11
77.7320508075688394
 21
243.0000000000001137
 31
-0.000000000000054
210
0.0
220
1.0
230
-0.0000000000000002
  0
LINE
  5
32B8
  8
0
  6
CONTINUOUS
 62
     3
 10
-76.0
 20
244.0000000000001137
 30
-0.0000000000000542
 11
-77.7320508075686547
 21
243.0000000000001137
 31
-0.000000000000054
210
0.0
220
1.0
230
-0.0000000000000002
  0
LINE
  5
32B9
  8
0
  6
CONTINUOUS
 62
     3
 10
-164.9999999999998863
 20
280.0000000000001137
 30
-0.0000000000000622
 11
-0.0000000000000284
 21
280.0000000000001137
 31
-0.0000000000000622
210
0.0
220
1.0
230
-0.0000000000000002
  0
LINE
  5
32BA
  8
0
  6
CONTINUOUS
 62
     3
 10
0.0000000000000243
 20
280.0000000000001137
 30
-0.0000000000000622
 11
165.0
 21
280.0000000000001137
 31
-0.0000000000000622
210
0.0
220
1.0
230
-0.0000000000000002
  0
LINE
  5
32BB
  8
0
  6
CONTINUOUS
 62
     3
 10
-164.9999999999998863
 20
278.0000000000001137
 30
-0.0000000000000617
 11
-0.0000000000000284
 21
278.0000000000001137
 31
-0.0000000000000617
210
0.0
220
1.0
230
-0.0000000000000002
  0
LINE
  5
32BC
  8
0
  6
CONTINUOUS
 62
     3
 10
0.0000000000000242
 20
278.0000000000001137
 30
-0.0000000000000617
 11
165.0
 21
278.0000000000001137
 31
-0.0000000000000617
210
0.0
220
1.0
230
-0.0000000000000002
  0
LINE
  5
32BD
  8
0
  6
CONTINUOUS
 62
     3
 10
-76.0000000000000142
 20
244.0000000000001137
 30
-0.0000000000000542
 11
-0.0000000000000142
 21
244.0000000000001137
 31
-0.0000000000000542
210
0.0
220
1.0
230
-0.0000000000000002
  0
LINE
  5
32BE
  8
0
  6
CONTINUOUS
 62
     3
 10
-0.0000000000000055
 20
244.0000000000001137
 30
-0.0000000000000542
 11
76.0000000000000142
 21
244.0000000000001137
 31
-0.0000000000000542
210
0.0
220
1.0
230
-0.0000000000000002
  0
ARC
  5
32BF
  8
0
  6
CONTINUOUS
 62
     3
 10
87.9999999999998579
 20
264.9125113364740969
 30
0.0
 40
1.0000000000001421
210
0.0
220
-0.0000000000000002
230
-1.0
 50
0.0000000000032569
 51
10.0000000000003908
  0
ARC
  5
32C0
  8
0
  6
CONTINUOUS
 62
     3
 10
-87.9999999999998579
 20
264.9125113364740969
 30
0.0
 40
1.0000000000001421
210
0.0
220
-0.0000000000000002
230
-1.0
 50
169.9999999999996021
 51
179.9999999999967031
  0
LINE
  5
32C1
  8
0
  6
CONTINUOUS
 62
     3
 10
89.0
 20
264.9125113364742106
 30
-0.0000000000000588
 11
89.0
 21
261.2679491924312174
 31
-0.000000000000058
210
0.0
220
1.0
230
-0.0000000000000002
  0
LINE
  5
32C2
  8
0
  6
CONTINUOUS
 62
     3
 10
-89.0
 20
264.9125113364742106
 30
-0.0000000000000588
 11
-89.0
 21
261.2679491924312174
 31
-0.000000000000058
210
0.0
220
1.0
230
-0.0000000000000002
  0
LINE
  5
32C3
  8
0
  6
CONTINUOUS
 62
     3
 10
87.4320596893269339
 20
273.8922313781657749
 30
-0.0000000000000608
 11
88.9848077530122055
 21
265.0861595141411158
 31
-0.0000000000000589
210
0.0
220
1.0
230
-0.0000000000000002
  0
LINE
  5
32C4
  8
0
  6
CONTINUOUS
 62
     3
 10
-87.4320596893269339
 20
273.8922313781657749
 30
-0.0000000000000608
 11
-88.9848077530122055
 21
265.0861595141411158
 31
-0.0000000000000589
210
0.0
220
1.0
230
-0.0000000000000002
  0
ARC
  5
32C5
  8
0
  6
CONTINUOUS
 62
     3
 10
88.0000000000001563
 20
261.2679491924311037
 30
0.0
 40
0.9999999999998321
210
0.0
220
-0.0000000000000002
230
-1.0
 50
329.999999999998181
 51
0.0000000000032569
  0
ARC
  5
32C6
  8
0
  6
CONTINUOUS
 62
     3
 10
-88.0000000000001563
 20
261.2679491924311037
 30
0.0
 40
0.9999999999998436
210
0.0
220
-0.0000000000000002
230
-1.0
 50
179.9999999999967031
 51
210.0000000000017906
  0
LINE
  5
32C7
  8
0
  6
CONTINUOUS
 62
     3
 10
-81.41057568140873
 20
247.8547314800011918
 30
-0.000000000000055
 11
-88.8660254037844481
 21
260.7679491924312174
 31
-0.0000000000000579
210
0.0
220
1.0
230
-0.0000000000000002
  0
LINE
  5
32C8
  8
0
  6
CONTINUOUS
 62
     3
 10
81.41057568140873
 20
247.8547314800011918
 30
-0.000000000000055
 11
88.8660254037844481
 21
260.7679491924312174
 31
-0.0000000000000579
210
0.0
220
1.0
230
-0.0000000000000002
  0
LINE
  5
32C9
  8
0
  6
CONTINUOUS
 62
     3
 10
165.0
 20
280.0000000000001137
 30
-0.0000000000000622
 11
165.0
 21
278.0000000000001137
 31
-0.0000000000000617
210
0.0
220
1.0
230
-0.0000000000000002
  0
LINE
  5
32CA
  8
0
  6
CONTINUOUS
 62
     3
 10
-165.0
 20
280.0000000000001137
 30
-0.0000000000000622
 11
-165.0
 21
278.0000000000001137
 31
-0.0000000000000617
210
0.0
220
1.0
230
-0.0000000000000002
  0
ARC
  5
32CB
  8
0
  6
CONTINUOUS
 62
     3
 10
90.8788868248697099
 20
274.5
 30
0.0
 40
3.5
210
0.0
220
-0.0000000000000002
230
-1.0
 50
90.0000000000002132
 51
189.9999999999992895
  0
ARC
  5
32CC
  8
0
  6
CONTINUOUS
 62
     3
 10
-90.8788868248697099
 20
274.5
 30
0.0
 40
3.5000000000000129
210
0.0
220
-0.0000000000000002
230
-1.0
 50
350.0000000000006253
 51
89.9999999999997584
  0
ARC
  5
32CD
  8
0
  6
CONTINUOUS
 62
     3
 10
74.4823724511332443
 20
251.8547314800011918
 30
0.0
 40
7.9999999999999547
210
0.0
220
-0.0000000000000002
230
-1.0
 50
280.9354780177674229
 51
330.0000000000001137
  0
ARC
  5
32CE
  8
0
  6
CONTINUOUS
 62
     3
 10
-74.4823724511332443
 20
251.8547314800011918
 30
0.0
 40
7.9999999999999662
210
0.0
220
-0.0000000000000002
230
-1.0
 50
209.9999999999998863
 51
259.0645219822325771
  0
LINE
  5
32CF
  8
0
  6
VERDECKT
 62
     1
 10
-63.4140023097425001
 20
0.174311485495366
 30
0.0
 11
63.4140023097425001
 21
0.174311485495366
 31
0.0
210
0.0
220
1.0
230
-0.0000000000000002
  0
ARC
  5
32D0
  8
0
  6
VERDECKT
 62
     1
 10
63.5000000000033182
 20
12.63098282872485
 30
0.0
 40
0.9999999999966745
210
0.0
220
-0.0000000000000002
230
-1.0
 50
354.9999999999890861
 51
0.0000000000053052
  0
ARC
  5
32D1
  8
0
  6
VERDECKT
 62
     1
 10
-63.5000000000033182
 20
12.63098282872485
 30
0.0
 40
0.9999999999966745
210
0.0
220
-0.0000000000000002
230
-1.0
 50
179.9999999999947136
 51
185.0000000000108002
  0
LINE
  5
32D2
  8
0
  6
VERDECKT
 62
     1
 10
-63.4140023097425001
 20
0.1743114854953651
 30
0.0
 11
-64.496194698091756
 21
12.5438270859772896
 31
-0.0000000000000028
210
0.0
220
1.0
230
-0.0000000000000002
  0
LINE
  5
32D3
  8
0
  6
VERDECKT
 62
     1
 10
63.4140023097425001
 20
0.1743114854953651
 30
0.0
 11
64.496194698091756
 21
12.5438270859772896
 31
-0.0000000000000028
210
0.0
220
1.0
230
-0.0000000000000002
  0
LINE
  5
32D4
  8
0
  6
VERDECKT
 62
     1
 10
64.5
 20
136.5
 30
-0.0000000000000303
 11
64.5
 21
12.6309828287249406
 31
-0.0000000000000028
210
0.0
220
1.0
230
-0.0000000000000002
  0
LINE
  5
32D5
  8
0
  6
VERDECKT
 62
     1
 10
-64.5
 20
136.5
 30
-0.0000000000000303
 11
-64.5
 21
12.6309828287249406
 31
-0.0000000000000028
210
0.0
220
1.0
230
-0.0000000000000002
  0
ARC
  5
32D6
  8
0
  6
VERDECKT
 62
     1
 10
-82.4999999999999147
 20
231.2583302491977975
 30
0.0
 40
11.9999999999999094
210
0.0
220
-0.0000000000000002
230
-1.0
 50
0.0000000000001399
 51
30.0000000000013287
  0
ARC
  5
32D7
  8
0
  6
VERDECKT
 62
     1
 10
82.4999999999997584
 20
231.2583302491979111
 30
0.0
 40
11.9999999999997708
210
0.0
220
-0.0000000000000002
230
-1.0
 50
149.9999999999986926
 51
179.9999999999998863
  0
LINE
  5
32D8
  8
0
  6
VERDECKT
 62
     1
 10
-70.5
 20
153.8205080756885081
 30
-0.0000000000000342
 11
-70.5
 21
231.2583302491979111
 31
-0.0000000000000513
210
0.0
220
1.0
230
-0.0000000000000002
  0
LINE
  5
32D9
  8
0
  6
VERDECKT
 62
     1
 10
70.5
 20
153.8205080756885081
 30
-0.0000000000000342
 11
70.5
 21
231.2583302491979111
 31
-0.0000000000000513
210
0.0
220
1.0
230
-0.0000000000000002
  0
ARC
  5
32DA
  8
0
  6
VERDECKT
 62
     1
 10
-54.5000000000002984
 20
153.8205080756885081
 30
0.0
 40
15.9999999999996998
210
0.0
220
-0.0000000000000002
230
-1.0
 50
179.999999999999801
 51
218.2132107017351927
  0
ARC
  5
32DB
  8
0
  6
VERDECKT
 62
     1
 10
54.5000000000004476
 20
153.8205080756883945
 30
0.0
 40
15.9999999999995399
210
0.0
220
-0.0000000000000002
230
-1.0
 50
321.7867892982641251
 51
0.0000000000004135
  0
ARC
  5
32DC
  8
0
  6
VERDECKT
 62
     1
 10
-76.5000000000001421
 20
136.5000000000001137
 30
0.0
 40
11.9999999999999005
210
0.0
220
-0.0000000000000002
230
-1.0
 50
0.0
 51
38.2132107017413887
  0
ARC
  5
32DD
  8
0
  6
VERDECKT
 62
     1
 10
76.5000000000002416
 20
136.5000000000001137
 30
0.0
 40
11.9999999999999893
210
0.0
220
-0.0000000000000002
230
-1.0
 50
141.7867892982598903
 51
180.0000000000003979
  0
LINE
  5
32DE
  8
0
  6
VERDECKT
 62
     1
 10
-72.1076951545868496
 20
237.2583302491979964
 30
-0.0000000000000527
 11
-76.0000000000000284
 21
244.0
 31
-0.0000000000000542
210
0.0
220
1.0
230
-0.0000000000000002
  0
LINE
  5
32DF
  8
0
  6
VERDECKT
 62
     1
 10
72.1076951545868781
 20
237.2583302491979964
 30
-0.0000000000000527
 11
76.0000000000000284
 21
244.0
 31
-0.0000000000000542
210
0.0
220
1.0
230
-0.0000000000000002
  0
LINE
  5
32E0
  8
0
  6
VERDECKT
 62
     1
 10
63.4140023097425001
 20
0.174311485495328
 30
0.0
 11
65.4063917059258983
 21
-0.0000000000000381
 31
0.0
210
0.0
220
1.0
230
-0.0000000000000002
  0
LINE
  5
32E1
  8
0
  6
VERDECKT
 62
     1
 10
-63.4140023097425001
 20
0.174311485495328
 30
0.0
 11
-65.4063917059258983
 21
-0.0000000000000381
 31
0.0
210
0.0
220
1.0
230
-0.0000000000000002
  0
LINE
  5
32E2
  8
0
  6
VERDECKT
 62
     1
 10
-75.9999999999999858
 20
246.0498364229893014
 30
-0.0000000000000546
 11
-0.0000000000000142
 21
246.0498364229893014
 31
-0.0000000000000546
210
0.0
220
1.0
230
-0.0000000000000002
  0
LINE
  5
32E3
  8
0
  6
VERDECKT
 62
     1
 10
0.0000000000000061
 20
246.0498364229893014
 30
-0.0000000000000546
 11
76.0
 21
246.0498364229893014
 31
-0.0000000000000546
210
0.0
220
1.0
230
-0.0000000000000002
  0
ARC
  5
32E4
  8
0
  6
VERDECKT
 62
     1
 10
85.9999999999998863
 20
264.737534009422177
 30
0.0
 40
1.0000000000001421
210
0.0
220
-0.0000000000000002
230
-1.0
 50
0.0000000000032569
 51
10.0000000000003908
  0
ARC
  5
32E5
  8
0
  6
VERDECKT
 62
     1
 10
-85.9999999999998863
 20
264.737534009422177
 30
0.0
 40
1.0000000000001421
210
0.0
220
-0.0000000000000002
230
-1.0
 50
169.9999999999996021
 51
179.9999999999967031
  0
LINE
  5
32E6
  8
0
  6
VERDECKT
 62
     1
 10
87.0000000000000142
 20
264.737534009422177
 30
-0.0000000000000588
 11
87.0000000000000142
 21
261.8038475772934248
 31
-0.0000000000000581
210
0.0
220
1.0
230
-0.0000000000000002
  0
LINE
  5
32E7
  8
0
  6
VERDECKT
 62
     1
 10
-87.0000000000000142
 20
264.737534009422177
 30
-0.0000000000000588
 11
-87.0000000000000142
 21
261.8038475772934248
 31
-0.0000000000000581
210
0.0
220
1.0
230
-0.0000000000000002
  0
LINE
  5
32E8
  8
0
  6
VERDECKT
 62
     1
 10
85.4624441833025514
 20
273.5449350228320213
 30
-0.0000000000000607
 11
86.9848077530122481
 21
264.9111821870890822
 31
-0.0000000000000588
210
0.0
220
1.0
230
-0.0000000000000002
  0
LINE
  5
32E9
  8
0
  6
VERDECKT
 62
     1
 10
-85.4624441833025514
 20
273.5449350228320213
 30
-0.0000000000000607
 11
-86.9848077530122481
 21
264.9111821870890822
 31
-0.0000000000000588
210
0.0
220
1.0
230
-0.0000000000000002
  0
ARC
  5
32EA
  8
0
  6
VERDECKT
 62
     1
 10
86.000000000000199
 20
261.8038475772934248
 30
0.0
 40
0.9999999999998113
210
0.0
220
-0.0000000000000002
230
-1.0
 50
329.9999999999938041
 51
0.0000000000032569
  0
ARC
  5
32EB
  8
0
  6
VERDECKT
 62
     1
 10
-86.000000000000199
 20
261.8038475772934248
 30
0.0
 40
0.9999999999998151
210
0.0
220
-0.0000000000000002
230
-1.0
 50
179.9999999999967031
 51
210.0000000000061959
  0
LINE
  5
32EC
  8
0
  6
VERDECKT
 62
     1
 10
-79.6785248738398479
 20
248.8547314800011918
 30
-0.0000000000000553
 11
-86.8660254037844624
 21
261.3038475772934248
 31
-0.000000000000058
210
0.0
220
1.0
230
-0.0000000000000002
  0
LINE
  5
32ED
  8
0
  6
VERDECKT
 62
     1
 10
79.6785248738398479
 20
248.8547314800011918
 30
-0.0000000000000553
 11
86.8660254037844624
 21
261.3038475772934248
 31
-0.000000000000058
210
0.0
220
1.0
230
-0.0000000000000002
  0
LINE
  5
32EE
  8
0
  6
VERDECKT
 62
     1
 10
75.4999999999999574
 20
280.0000000000001137
 30
-0.0000000000000622
 11
75.4999999999999574
 21
278.0000000000001137
 31
-0.0000000000000617
210
0.0
220
1.0
230
-0.0000000000000002
  0
LINE
  5
32EF
  8
0
  6
VERDECKT
 62
     1
 10
69.4999999999999432
 20
280.0000000000001137
 30
-0.0000000000000622
 11
69.4999999999999432
 21
278.0000000000001137
 31
-0.0000000000000617
210
0.0
220
1.0
230
-0.0000000000000002
  0
LINE
  5
32F0
  8
0
  6
VERDECKT
 62
     1
 10
-142.0
 20
280.0000000000001137
 30
-0.0000000000000622
 11
-142.0
 21
278.0000000000001137
 31
-0.0000000000000617
210
0.0
220
1.0
230
-0.0000000000000002
  0
LINE
  5
32F1
  8
0
  6
VERDECKT
 62
     1
 10
-148.0
 20
280.0000000000001137
 30
-0.0000000000000622
 11
-148.0
 21
278.0000000000001137
 31
-0.0000000000000617
210
0.0
220
1.0
230
-0.0000000000000002
  0
ARC
  5
32F2
  8
0
  6
VERDECKT
 62
     1
 10
90.8788868248696673
 20
274.5
 30
0.0
 40
5.5
210
0.0
220
-0.0000000000000002
230
-1.0
 50
89.9999999999998437
 51
190.0000000000003126
  0
ARC
  5
32F3
  8
0
  6
VERDECKT
 62
     1
 10
-90.8788868248696673
 20
274.5
 30
0.0
 40
5.4999999999999902
210
0.0
220
-0.0000000000000002
230
-1.0
 50
349.9999999999996021
 51
90.0000000000001705
  0
LINE
  5
32F4
  8
0
  6
VERDECKT
 62
     1
 10
76.0000000000000142
 20
246.0498364229893866
 30
-0.0000000000000546
 11
76.0000000000000142
 21
244.0000000000001137
 31
-0.0000000000000542
210
0.0
220
1.0
230
-0.0000000000000002
  0
LINE
  5
32F5
  8
0
  6
VERDECKT
 62
     1
 10
-76.0000000000000142
 20
246.0498364229893866
 30
-0.0000000000000546
 11
-76.0000000000000142
 21
244.0000000000001137
 31
-0.0000000000000542
210
0.0
220
1.0
230
-0.0000000000000002
  0
ARC
  5
32F6
  8
0
  6
VERDECKT
 62
     1
 10
74.4823724511331022
 20
251.8547314800013055
 30
0.0
 40
6.0000000000001483
210
0.0
220
-0.0000000000000002
230
-1.0
 50
284.6514317994926841
 51
329.9999999999996021
  0
ARC
  5
32F7
  8
0
  6
VERDECKT
 62
     1
 10
-74.4823724511331022
 20
251.8547314800013055
 30
0.0
 40
6.0000000000001563
210
0.0
220
-0.0000000000000002
230
-1.0
 50
210.0000000000003979
 51
255.3485682005072022
  0
ENDBLK
  5
32F9
  8
0
  0
ENDSEC
  0
SECTION
  2
ENTITIES
  0
TEXT
  5
8F
  8
VOLL
 10
78.076754716981128
 20
31.025947764705851
 30
0.0
 40
1.8
  1

  7
GREEKS
  0
TEXT
  5
97
  8
TEXT
 10
225.1296391125314926
 20
62.1158070677485625
 30
0.0
 40
5.0
  1

 41
0.8
  7
GREEKS
  0
INSERT
  5
D04
  8
ADSK_ASSOC_ENTITY_BACKUPS
  2
*S0
 10
0.0
 20
0.0
 30
0.0
  0
INSERT
  5
32A1
  8
STEMPEL
  2
A$CD2C45756
 10
0.0
 20
-215.0
 30
0.0
  0
INSERT
  5
32FA
  8
STEMPEL
  2
A$C995B4C8E
 10
0.0
 20
0.0
 30
0.0
  0
VIEWPORT
  5
CE3
 67
     1
  8
0
 10
145.4909718098662097
 20
205.712942364753502
 30
0.0
 40
790.2674510967764263
 41
422.1483375959078899
 68
     1
 69
     1
1001
ACAD
1000
MVIEW
1002
{
1070
    16
1010
0.0
1020
0.0
1030
0.0
1010
0.0
1020
0.0
1030
1.0
1040
0.0
1040
422.1483375959078899
1040
145.4909718098662097
1040
205.712942364753502
1040
50.0
1040
0.0
1040
0.0
1070
     0
1070
  1500
1070
     1
1070
     1
1070
     0
1070
     0
1070
     0
1070
     0
1040
0.0
1040
0.0
1040
0.0
1040
10.0
1040
10.0
1040
10.0
1040
10.0
1070
     0
1002
{
1002
}
1002
}
  0
TEXT
  5
DA7
 67
     1
  8
VOLL
 10
475.0674480202164887
 20
-106.3182519461715998
 30
0.0
 40
3.6000000000000001
  1

  7
GREEKS
  0
ENDSEC
  0
EOF
