  0
SECTION
  2
HEADER
  9
$ACADVER
  1
AC1009
  9
$INSBASE
 10
0.0
 20
0.0
 30
0.0
  9
$EXTMIN
 10
-165.0
 20
-380.0
 30
0.0
  9
$EXTMAX
 10
165.0
 20
270.0000000000001137
 30
0.0000000000000771
  9
$LIMMIN
 10
0.0
 20
0.0
  9
$LIMMAX
 10
419.9999999999998863
 20
594.0
  9
$ORTHOMODE
 70
     1
  9
$REGENMODE
 70
     1
  9
$FILLMODE
 70
     1
  9
$QTEXTMODE
 70
     0
  9
$MIRRTEXT
 70
     1
  9
$DRAGMODE
 70
     2
  9
$LTSCALE
 40
10.0
  9
$OSMODE
 70
   511
  9
$ATTMODE
 70
     1
  9
$TEXTSIZE
 40
3.5
  9
$TRACEWID
 40
0.5
  9
$TEXTSTYLE
  7
STANDARD
  9
$CLAYER
  8
STEMPEL
  9
$CELTYPE
  6
BYLAYER
  9
$CECOLOR
 62
   256
  9
$DIMSCALE
 40
1.0
  9
$DIMASZ
 40
0.12
  9
$DIMEXO
 40
0.05
  9
$DIMDLI
 40
0.5
  9
$DIMRND
 40
0.0
  9
$DIMDLE
 40
0.0
  9
$DIMEXE
 40
0.1
  9
$DIMTP
 40
0.1
  9
$DIMTM
 40
0.1
  9
$DIMTXT
 40
0.12
  9
$DIMCEN
 40
0.0
  9
$DIMTSZ
 40
0.0
  9
$DIMTOL
 70
     0
  9
$DIMLIM
 70
     0
  9
$DIMTIH
 70
     1
  9
$DIMTOH
 70
     1
  9
$DIMSE1
 70
     0
  9
$DIMSE2
 70
     0
  9
$DIMTAD
 70
     1
  9
$DIMZIN
 70
     7
  9
$DIMBLK
  1

  9
$DIMASO
 70
     1
  9
$DIMSHO
 70
     0
  9
$DIMPOST
  1

  9
$DIMAPOST
  1
mm
  9
$DIMALT
 70
     0
  9
$DIMALTD
 70
     2
  9
$DIMALTF
 40
25.3999999999999986
  9
$DIMLFAC
 40
1.0
  9
$DIMTOFL
 70
     0
  9
$DIMTVP
 40
0.0
  9
$DIMTIX
 70
     0
  9
$DIMSOXD
 70
     0
  9
$DIMSAH
 70
     0
  9
$DIMBLK1
  1

  9
$DIMBLK2
  1

  9
$DIMSTYLE
  2
KOPIE_2__VON_AM_ANSI
  9
$DIMCLRD
 70
   256
  9
$DIMCLRE
 70
   256
  9
$DIMCLRT
 70
     1
  9
$DIMTFAC
 40
0.71
  9
$DIMGAP
 40
0.11
  9
$LUNITS
 70
     2
  9
$LUPREC
 70
     2
  9
$SKETCHINC
 40
1.0
  9
$FILLETRAD
 40
0.0
  9
$AUNITS
 70
     0
  9
$AUPREC
 70
     0
  9
$MENU
  1
ACAD
  9
$ELEVATION
 40
0.0
  9
$PELEVATION
 40
0.0
  9
$THICKNESS
 40
0.0
  9
$LIMCHECK
 70
     0
  9
$BLIPMODE
 70
     0
  9
$CHAMFERA
 40
0.0
  9
$CHAMFERB
 40
0.0
  9
$SKPOLY
 70
     0
  9
$TDCREATE
 40
2455397.8646990740671754
  9
$TDUPDATE
 40
2459807.423969907220453
  9
$TDINDWG
 40
0.3902702083
  9
$TDUSRTIMER
 40
0.3902702083
  9
$USRTIMER
 70
     1
  9
$ANGBASE
 50
0.0
  9
$ANGDIR
 70
     0
  9
$PDMODE
 70
     0
  9
$PDSIZE
 40
0.0
  9
$PLINEWID
 40
0.0
  9
$COORDS
 70
     1
  9
$SPLFRAME
 70
     0
  9
$SPLINETYPE
 70
     6
  9
$SPLINESEGS
 70
     8
  9
$ATTDIA
 70
     1
  9
$ATTREQ
 70
     1
  9
$HANDLING
 70
     1
  9
$HANDSEED
  5
2F34
  9
$SURFTAB1
 70
     6
  9
$SURFTAB2
 70
     6
  9
$SURFTYPE
 70
     6
  9
$SURFU
 70
     6
  9
$SURFV
 70
     6
  9
$UCSNAME
  2

  9
$UCSORG
 10
0.0
 20
0.0
 30
0.0
  9
$UCSXDIR
 10
1.0
 20
0.0
 30
0.0
  9
$UCSYDIR
 10
0.0
 20
1.0
 30
0.0
  9
$PUCSNAME
  2

  9
$PUCSORG
 10
0.0
 20
0.0
 30
0.0
  9
$PUCSXDIR
 10
1.0
 20
0.0
 30
0.0
  9
$PUCSYDIR
 10
0.0
 20
1.0
 30
0.0
  9
$USERI1
 70
     0
  9
$USERI2
 70
     0
  9
$USERI3
 70
     0
  9
$USERI4
 70
     0
  9
$USERI5
 70
     0
  9
$USERR1
 40
0.0
  9
$USERR2
 40
0.0
  9
$USERR3
 40
0.0
  9
$USERR4
 40
0.0
  9
$USERR5
 40
0.0
  9
$WORLDVIEW
 70
     1
  9
$SHADEDGE
 70
     3
  9
$SHADEDIF
 70
    70
  9
$TILEMODE
 70
     1
  9
$MAXACTVP
 70
    16
  9
$PLIMCHECK
 70
     0
  9
$PEXTMIN
 10
1.0000000000000000E+20
 20
1.0000000000000000E+20
 30
1.0000000000000000E+20
  9
$PEXTMAX
 10
-1.0000000000000000E+20
 20
-1.0000000000000000E+20
 30
-1.0000000000000000E+20
  9
$PLIMMIN
 10
-3.0084851301676281
 20
-4.2950509573605578
  9
$PLIMMAX
 10
293.9915148698323719
 20
415.7049490426393845
  9
$UNITMODE
 70
     0
  9
$VISRETAIN
 70
     0
  9
$PLINEGEN
 70
     0
  9
$PSLTSCALE
 70
     0
  0
ENDSEC
  0
SECTION
  2
TABLES
  0
TABLE
  2
VPORT
 70
     1
  0
VPORT
  2
*ACTIVE
 70
     0
 10
0.0
 20
0.0
 11
1.0
 21
1.0
 12
-140.5259043589408066
 22
-136.8773492581250935
 13
0.0
 23
0.0
 14
1.0
 24
1.0
 15
10.0
 25
10.0
 16
-0.0000000000006821
 26
0.0
 36
3049.7128365232729266
 17
140.5259043589408066
 27
81.8773492581252214
 37
0.0000000000000595
 40
653.3248081841433077
 41
1.8720136518771331
 42
50.0
 43
0.0
 44
0.0
 50
0.0
 51
0.0
 71
     0
 72
  1500
 73
     1
 74
     0
 75
     0
 76
     0
 77
     0
 78
     0
  0
ENDTAB
  0
TABLE
  2
LTYPE
 70
     6
  0
LTYPE
  2
CONTINUOUS
 70
     0
  3
Solid line
 72
    65
 73
     0
 40
0.0
  0
LTYPE
  2
STRICHPUNKT
 70
     0
  3
__ . __ . __ . __ . __ . __ . __ . __ . __ . __
 72
    65
 73
     4
 40
1.0
 49
0.5
 49
-0.25
 49
0.0
 49
-0.25
  0
LTYPE
  2
AUSGEZOGEN
 70
     0
  3
Ausgezogene Linie
 72
    65
 73
     0
 40
0.0
  0
LTYPE
  2
VERDECKT
 70
     0
  3
_ _ _ _ _ _ _ _ _ _ _ _ _ _ _ _ _ _ _ _ _ _ _
 72
    65
 73
     2
 40
0.375
 49
0.25
 49
-0.125
  0
ENDTAB
  0
TABLE
  2
LAYER
 70
    19
  0
LAYER
  2
0
 70
     0
 62
     7
  6
CONTINUOUS
  0
LAYER
  2
VOLL
 70
     0
 62
     1
  6
CONTINUOUS
  0
LAYER
  2
STEMPEL
 70
     0
 62
     3
  6
CONTINUOUS
  0
LAYER
  2
TEXT
 70
     0
 62
     7
  6
CONTINUOUS
  0
LAYER
  2
ADSK_ASSOC_ENTITY_BACKUPS
 70
     1
 62
    -7
  6
CONTINUOUS
  0
ENDTAB
  0
TABLE
  2
STYLE
 70
     3
  0
STYLE
  2
STANDARD
 70
     0
 40
0.0
 41
0.8
 50
0.0
 71
     0
 42
3.5
  3
simplex.shx
  4

  0
STYLE
  2
GREEKS
 70
     0
 40
0.0
 41
0.8
 50
0.0
 71
     0
 42
2.5
  3
SIMPLEX.shx
  4

  0
ENDTAB
  0
TABLE
  2
VIEW
 70
     0
  0
ENDTAB
  0
TABLE
  2
UCS
 70
     0
  0
ENDTAB
  0
TABLE
  2
APPID
 70
    43
  0
APPID
  2
ACAD
 70
     0
  0
APPID
  2
ACAD_NAV_VCDISPLAY
 70
     0
  0
APPID
  2
ACAD_EXEMPT_FROM_CAD_STANDARDS
 70
     0
  0
APPID
  2
ACAD_MLEADERVER
 70
     0
  0
APPID
  2
ACAD_PSEXT
 70
     0
  0
APPID
  2
ACAECLAYERSTANDARD
 70
     0
  0
APPID
  2
ACCMTRANSPARENCY
 70
     0
  0
APPID
  2
ACSYNERGY
 70
     0
  0
APPID
  2
SYNERGY_BODY_TBR_ID
 70
     0
  0
APPID
  2
ACAD_VIEW_EDGE_ID
 70
     0
  0
APPID
  2
ACADANNOMONITORALERTICONDI
 70
     0
  0
APPID
  2
ACSYNERGYSKETCH
 70
     0
  0
APPID
  2
ACAD_MODELDOC_XFORM
 70
     0
  0
APPID
  2
ACAD_STEPID
 70
     0
  0
APPID
  2
ACAD_DSTYLE_DIMJAG
 70
     0
  0
APPID
  2
ACAD_DSTYLE_DIMTALN
 70
     0
  0
APPID
  2
ACADANNOPO
 70
     0
  0
APPID
  2
GRADIENTCOLOR1ACI
 70
     0
  0
APPID
  2
GRADIENTCOLOR2ACI
 70
     0
  0
APPID
  2
ACAD_DSTYLE_DIMRADIAL_EXTENSION
 70
     0
  0
APPID
  2
ACAD_OBJECT_CHANGE_GUID
 70
     0
  0
APPID
  2
MCAD_NO_VIS
 70
     0
  0
APPID
  2
ACAD_TEMP_GRAPHIC
 70
     0
  0
APPID
  2
ACATTRIBSERVICES
 70
     0
  0
APPID
  2
DESIGNERASSEMBLIES
 70
     0
  0
APPID
  2
ACAD_DSTYLE_DIMBREAK
 70
     0
  0
APPID
  2
GENIUS_GENSCREG_15
 70
     0
  0
APPID
  2
GENIUS_GENOBJ-N-SDF_13
 70
     0
  0
APPID
  2
GENIUS_GENODEF_13
 70
     0
  0
APPID
  2
ACAD_DSTYLE_DIMARC_LENGTH_
 70
     0
  0
APPID
  2
ACAD_DSTYLE_DIM_LINETYPE
 70
     0
  0
APPID
  2
ACAD_DSTYLE_DIM_EXT1_LINETYPE
 70
     0
  0
APPID
  2
ACAD_DSTYLE_DIM_EXT2_LINETYPE
 70
     0
  0
APPID
  2
RAK
 70
     0
  0
APPID
  2
GENIUS_GENDTOL_13
 70
     0
  0
APPID
  2
ACAD_DSTYLE_DIMINSPECT
 70
     0
  0
APPID
  2
ACAD_DSTYLE_DIMANGULAR_EXT
 70
     0
  0
APPID
  2
PLOTTRANSPARENCY
 70
     0
  0
APPID
  2
ACAUTHENVIRON
 70
     0
  0
APPID
  2
ACDBDYNAMICBLOCKTRUENAME
 70
     0
  0
APPID
  2
ACDBDYNAMICBLOCKGUID
 70
     0
  0
APPID
  2
PE_URL
 70
     0
  0
APPID
  2
ACADANNOAV
 70
     0
  0
ENDTAB
  0
TABLE
  2
DIMSTYLE
 70
     3
  0
DIMSTYLE
  2
KOPIE_2__VON_AM_ANSI
 70
     0
  3

  4
mm
  5

  6

  7

 40
1.0
 41
0.12
 42
0.05
 43
0.5
 44
0.1
 45
0.0
 46
0.0
 47
0.1
 48
0.1
140
0.12
141
0.0
142
0.0
143
25.3999999999999986
144
1.0
145
0.0
146
0.71
147
0.11
 71
     0
 72
     0
 73
     1
 74
     1
 75
     0
 76
     0
 77
     1
 78
     7
170
     0
171
     2
172
     0
173
     0
174
     0
175
     0
176
   256
177
   256
178
     1
  0
ENDTAB
  0
ENDSEC
  0
SECTION
  2
BLOCKS
  0
BLOCK
  8
0
  2
$MODEL_SPACE
 70
     0
 10
0.0
 20
0.0
 30
0.0
  3
$MODEL_SPACE
  1

  0
ENDBLK
  5
36
  8
0
  0
BLOCK
 67
     1
  8
0
  2
$PAPER_SPACE
 70
     0
 10
0.0
 20
0.0
 30
0.0
  3
$PAPER_SPACE
  1

  0
ENDBLK
  5
34
 67
     1
  8
0
  0
BLOCK
  8
0
  2
*S0
 70
     1
 10
0.0
 20
0.0
 30
0.0
  3
*S0
  1

  0
ENDBLK
  5
D02
  8
0
  0
BLOCK
  8
0
  2
A$C47C04FE7
 70
     0
 10
0.0
 20
0.0
 30
0.0
  3
A$C47C04FE7
  1

  0
CIRCLE
  5
2E46
  8
0
  6
CONTINUOUS
 62
     3
 10
-145.0
 20
0.0000000000000315
 30
0.0000000000000568
 40
3.0
  0
CIRCLE
  5
2E47
  8
0
  6
CONTINUOUS
 62
     3
 10
72.5
 20
125.5736835487436025
 30
0.0
 40
3.0
  0
CIRCLE
  5
2E48
  8
0
  6
CONTINUOUS
 62
     3
 10
72.4999999999998295
 20
-125.5736835487436025
 30
0.0
 40
3.0
  0
CIRCLE
  5
2E49
  8
0
  6
CONTINUOUS
 62
     3
 10
-0.00000000000006
 20
0.0000000000000303
 30
0.0
 40
165.0
  0
CIRCLE
  5
2E4A
  8
0
  6
CONTINUOUS
 62
     3
 10
-0.0000000000000524
 20
0.0000000000000282
 30
0.0
 40
57.5
  0
CIRCLE
  5
2E4B
  8
0
  6
CONTINUOUS
 62
     3
 10
-0.0000000000000582
 20
0.0000000000000298
 30
0.0
 40
70.2516380057672905
  0
CIRCLE
  5
2E4C
  8
0
  6
CONTINUOUS
 62
     3
 10
0.0
 20
0.0000000000000138
 30
0.0
 40
48.5567499701321594
  0
CIRCLE
  5
2E4D
  8
0
  6
CONTINUOUS
 62
     3
 10
-0.0000000000000281
 20
0.0000000000000215
 30
0.0
 40
49.25
  0
CIRCLE
  5
2E4E
  8
0
  6
CONTINUOUS
 62
     3
 10
-0.0000000000000493
 20
0.0000000000000274
 30
0.0
 40
54.75
  0
CIRCLE
  5
2E4F
  8
0
  6
VERDECKT
 62
     1
 10
-0.0000000000000565
 20
0.0000000000000294
 30
0.0
 40
71.5
  0
CIRCLE
  5
2E50
  8
0
  6
VERDECKT
 62
     1
 10
-0.0000000000000565
 20
0.0000000000000294
 30
0.0
 40
73.5
  0
CIRCLE
  5
2E51
  8
0
  6
VERDECKT
 62
     1
 10
-0.0000000000000582
 20
0.0000000000000298
 30
0.0
 40
72.2516380057672052
  0
CIRCLE
  5
2E52
  8
0
  6
VERDECKT
 62
     1
 10
-0.0000000000000281
 20
0.0000000000000215
 30
0.0
 40
51.0
  0
CIRCLE
  5
2E53
  8
0
  6
VERDECKT
 62
     1
 10
0.0
 20
0.0000000000000138
 30
0.0
 40
50.3000906917926613
  0
CIRCLE
  5
2E54
  8
0
  6
VERDECKT
 62
     1
 10
-0.000000000000052
 20
0.0000000000000281
 30
0.0
 40
60.0
  0
CIRCLE
  5
2E55
  8
0
  6
VERDECKT
 62
     1
 10
-0.0000000000000518
 20
0.0000000000000281
 30
0.0
 40
61.5305844874940178
  0
CIRCLE
  5
2E56
  8
0
  6
VERDECKT
 62
     1
 10
-0.0000000000000493
 20
0.0000000000000274
 30
0.0
 40
56.5
  0
ENDBLK
  5
2E58
  8
0
  0
BLOCK
  8
0
  2
A$CE8D52C16
 70
     0
 10
0.0
 20
0.0
 30
0.0
  3
A$CE8D52C16
  1

  0
LINE
  5
2E5C
  8
0
  6
CONTINUOUS
 62
     3
 10
-165.0
 20
270.0000000000001137
 30
0.00000000000006
 11
165.0
 21
270.0000000000001137
 31
0.00000000000006
210
0.0
220
1.0
230
0.0000000000000002
  0
LINE
  5
2E5D
  8
0
  6
CONTINUOUS
 62
     3
 10
-165.0
 20
268.0000000000001137
 30
0.0000000000000595
 11
165.0
 21
268.0000000000001137
 31
0.0000000000000595
210
0.0
220
1.0
230
0.0000000000000002
  0
LINE
  5
2E5E
  8
0
  6
CONTINUOUS
 62
     3
 10
165.0
 20
270.0000000000001137
 30
0.00000000000006
 11
165.0
 21
268.0000000000001137
 31
0.0000000000000595
210
0.0
220
1.0
230
0.0000000000000002
  0
LINE
  5
2E5F
  8
0
  6
CONTINUOUS
 62
     3
 10
-165.0
 20
270.0000000000001137
 30
0.00000000000006
 11
-165.0
 21
268.0000000000001137
 31
0.0000000000000595
210
0.0
220
1.0
230
0.0000000000000002
  0
ARC
  5
2E60
  8
0
  6
CONTINUOUS
 62
     3
 10
78.2516380057673047
 20
262.0000000000002274
 30
0.0
 40
6.0000000000001128
210
0.0
220
0.0000000000000002
230
-1.0
 50
90.0000000000001137
 51
190.9999999999992895
  0
ARC
  5
2E61
  8
0
  6
CONTINUOUS
 62
     3
 10
-78.2516380057673047
 20
262.0000000000002274
 30
0.0
 40
6.0000000000001021
210
0.0
220
0.0000000000000002
230
-1.0
 50
349.0000000000005116
 51
89.9999999999998721
  0
LINE
  5
2E62
  8
0
  6
CONTINUOUS
 62
     3
 10
72.3618749050812227
 20
260.8551460277408864
 30
0.0000000000000579
 11
73.4265087337906692
 21
255.3780797887160929
 31
0.0000000000000567
210
0.0
220
1.0
230
0.0000000000000002
  0
LINE
  5
2E63
  8
0
  6
CONTINUOUS
 62
     3
 10
-72.3618749050812227
 20
260.8551460277408864
 30
0.0000000000000579
 11
-73.4265087337906692
 21
255.3780797887160929
 31
0.0000000000000567
210
0.0
220
1.0
230
0.0000000000000002
  0
ARC
  5
2E64
  8
0
  6
CONTINUOUS
 62
     3
 10
69.5000000000024016
 20
254.6148438072102067
 30
0.0
 40
3.9999999999975979
210
0.0
220
0.0000000000000002
230
-1.0
 50
359.9999999999959073
 51
11.0000000000032401
  0
ARC
  5
2E65
  8
0
  6
CONTINUOUS
 62
     3
 10
-69.5000000000024016
 20
254.6148438072102067
 30
0.0
 40
3.9999999999975961
210
0.0
220
0.0000000000000002
230
-1.0
 50
168.9999999999967031
 51
180.0000000000040075
  0
LINE
  5
2E66
  8
0
  6
CONTINUOUS
 62
     3
 10
73.5
 20
254.6148438072098941
 30
0.0000000000000565
 11
73.5
 21
252.0717967697246991
 31
0.000000000000056
210
0.0
220
1.0
230
0.0000000000000002
  0
LINE
  5
2E67
  8
0
  6
CONTINUOUS
 62
     3
 10
-73.5
 20
254.6148438072098941
 30
0.0000000000000565
 11
-73.5
 21
252.0717967697246991
 31
0.000000000000056
210
0.0
220
1.0
230
0.0000000000000002
  0
ARC
  5
2E68
  8
0
  6
CONTINUOUS
 62
     3
 10
69.5000000000007532
 20
252.0717967697243864
 30
0.0
 40
3.9999999999992562
210
0.0
220
0.0000000000000002
230
-1.0
 50
329.9999999999972147
 51
0.0000000000028625
  0
ARC
  5
2E69
  8
0
  6
CONTINUOUS
 62
     3
 10
-69.5000000000003837
 20
252.0717967697245001
 30
0.0
 40
3.9999999999996159
210
0.0
220
0.0000000000000002
230
-1.0
 50
179.9999999999984084
 51
210.0000000000011937
  0
LINE
  5
2E6A
  8
0
  6
CONTINUOUS
 62
     3
 10
-65.9944465005349059
 20
238.0000000000001137
 30
0.0000000000000528
 11
-72.9641016151377926
 21
250.0717967697246991
 31
0.0000000000000555
210
0.0
220
1.0
230
0.0000000000000002
  0
LINE
  5
2E6B
  8
0
  6
CONTINUOUS
 62
     3
 10
65.9944465005349059
 20
238.0000000000001137
 30
0.0000000000000528
 11
72.9641016151377926
 21
250.0717967697246991
 31
0.0000000000000555
210
0.0
220
1.0
230
0.0000000000000002
  0
ARC
  5
2E6C
  8
0
  6
CONTINUOUS
 62
     3
 10
59.0662432702594202
 20
242.000000000000199
 30
0.0
 40
8.0000000000000426
210
0.0
220
0.0000000000000002
230
-1.0
 50
276.7028183906531922
 51
329.9999999999992042
  0
ARC
  5
2E6D
  8
0
  6
CONTINUOUS
 62
     3
 10
-59.0662432702594273
 20
242.0000000000001137
 30
0.0
 40
8.0000000000000142
210
0.0
220
0.0000000000000002
230
-1.0
 50
210.0000000000005969
 51
263.2971816093469215
  0
LINE
  5
2E6E
  8
0
  6
CONTINUOUS
 62
     3
 10
-50.3000906917926613
 20
0.0
 30
0.0
 11
50.3000906917926613
 21
0.0
 31
0.0
210
0.0
220
1.0
230
0.0000000000000002
  0
LINE
  5
2E6F
  8
0
  6
CONTINUOUS
 62
     3
 10
-60.0
 20
234.0546807257566968
 30
0.000000000000052
 11
60.0
 21
234.0546807257566968
 31
0.000000000000052
210
0.0
220
1.0
230
0.0000000000000002
  0
LINE
  5
2E70
  8
0
  6
CONTINUOUS
 62
     3
 10
-61.5305844874940107
 20
233.2062638903256016
 30
0.0000000000000518
 11
61.5305844874940107
 21
233.2062638903256016
 31
0.0000000000000518
210
0.0
220
1.0
230
0.0000000000000002
  0
ARC
  5
2E71
  8
0
  6
CONTINUOUS
 62
     3
 10
39.2499999999996305
 20
8.5130160791735321
 30
0.0
 40
11.7500000000003801
210
0.0
220
0.0000000000000002
230
-1.0
 50
354.9999999999997726
 51
359.9999999999997726
  0
ARC
  5
2E72
  8
0
  6
CONTINUOUS
 62
     3
 10
-39.2499999999997229
 20
8.5130160791735303
 30
0.0
 40
11.7500000000002807
210
0.0
220
0.0000000000000002
230
-1.0
 50
180.0000000000001137
 51
185.0000000000001137
  0
LINE
  5
2E73
  8
0
  6
CONTINUOUS
 62
     3
 10
51.0
 20
126.7098066405173
 30
0.0000000000000281
 11
51.0
 21
8.5130160791734966
 31
0.0000000000000019
210
0.0
220
1.0
230
0.0000000000000002
  0
LINE
  5
2E74
  8
0
  6
CONTINUOUS
 62
     3
 10
-51.0
 20
126.7098066405173
 30
0.0000000000000281
 11
-51.0
 21
8.5130160791734966
 31
0.0000000000000019
210
0.0
220
1.0
230
0.0000000000000002
  0
LINE
  5
2E75
  8
0
  6
CONTINUOUS
 62
     3
 10
-50.3000906917927111
 20
-0.0000000000000053
 30
0.0
 11
-50.9552877025779978
 21
7.4889361018884752
 31
0.0000000000000017
210
0.0
220
1.0
230
0.0000000000000002
  0
LINE
  5
2E76
  8
0
  6
CONTINUOUS
 62
     3
 10
50.3000906917927111
 20
-0.0000000000000053
 30
0.0
 11
50.9552877025779978
 21
7.4889361018884752
 31
0.0000000000000017
210
0.0
220
1.0
230
0.0000000000000002
  0
LINE
  5
2E77
  8
0
  6
CONTINUOUS
 62
     3
 10
59.9999999999999929
 20
234.0546807257566968
 30
0.000000000000052
 11
61.5305844874940107
 21
233.2062638903256016
 31
0.0000000000000518
210
0.0
220
1.0
230
0.0000000000000002
  0
LINE
  5
2E78
  8
0
  6
CONTINUOUS
 62
     3
 10
-59.9999999999999929
 20
234.0546807257566968
 30
0.000000000000052
 11
-61.5305844874940107
 21
233.2062638903256016
 31
0.0000000000000518
210
0.0
220
1.0
230
0.0000000000000002
  0
LINE
  5
2E79
  8
0
  6
CONTINUOUS
 62
     3
 10
-57.5343874161001096
 20
225.996933534054989
 30
0.0000000000000502
 11
-61.5305844874940178
 21
233.2062638903256016
 31
0.0000000000000518
210
0.0
220
1.0
230
0.0000000000000002
  0
LINE
  5
2E7A
  8
0
  6
CONTINUOUS
 62
     3
 10
57.5343874161001096
 20
225.996933534054989
 30
0.0000000000000502
 11
61.5305844874940178
 21
233.2062638903256016
 31
0.0000000000000518
210
0.0
220
1.0
230
0.0000000000000002
  0
ARC
  5
2E7B
  8
0
  6
CONTINUOUS
 62
     3
 10
64.74999999999892
 20
221.9972541670227884
 30
0.0
 40
8.2499999999989146
210
0.0
220
0.0000000000000002
230
-1.0
 50
150.9999999999961915
 51
179.9999999999996021
  0
ARC
  5
2E7C
  8
0
  6
CONTINUOUS
 62
     3
 10
-64.74999999999892
 20
221.9972541670227884
 30
0.0
 40
8.2499999999989182
210
0.0
220
0.0000000000000002
230
-1.0
 50
0.0000000000003944
 51
29.0000000000037694
  0
LINE
  5
2E7D
  8
0
  6
CONTINUOUS
 62
     3
 10
56.5
 20
221.9972541670227884
 30
0.0000000000000493
 11
56.5
 21
143.4579408649616141
 31
0.0000000000000319
210
0.0
220
1.0
230
0.0000000000000002
  0
LINE
  5
2E7E
  8
0
  6
CONTINUOUS
 62
     3
 10
-56.5
 20
221.9972541670227884
 30
0.0000000000000493
 11
-56.5
 21
143.4579408649616141
 31
0.0000000000000319
210
0.0
220
1.0
230
0.0000000000000002
  0
ARC
  5
2E7F
  8
0
  6
CONTINUOUS
 62
     3
 10
41.4999999999992326
 20
143.4579408649618131
 30
0.0
 40
15.0000000000007603
210
0.0
220
0.0000000000000002
230
-1.0
 50
323.6401786751565055
 51
359.9999999999992042
  0
ARC
  5
2E80
  8
0
  6
CONTINUOUS
 62
     3
 10
-41.4999999999992326
 20
143.4579408649618131
 30
0.0
 40
15.0000000000007603
210
0.0
220
0.0000000000000002
230
-1.0
 50
180.0000000000007958
 51
216.3598213248434945
  0
ARC
  5
2E81
  8
0
  6
CONTINUOUS
 62
     3
 10
64.2500000000000853
 20
126.7098066405173995
 30
0.0
 40
13.2500000000000497
210
0.0
220
0.0000000000000002
230
-1.0
 50
143.6401786751569887
 51
180.0000000000001137
  0
ARC
  5
2E82
  8
0
  6
CONTINUOUS
 62
     3
 10
-64.2499999999999005
 20
126.7098066405173995
 30
0.0
 40
13.2499999999998792
210
0.0
220
0.0000000000000002
230
-1.0
 50
359.9999999999996021
 51
36.3598213248432884
  0
LINE
  5
2E83
  8
0
  6
VERDECKT
 62
     1
 10
-59.0662432702594131
 20
236.0000000000001137
 30
0.0000000000000524
 11
59.0662432702594131
 21
236.0000000000001137
 31
0.0000000000000524
210
0.0
220
1.0
230
0.0000000000000002
  0
LINE
  5
2E84
  8
0
  6
VERDECKT
 62
     1
 10
-59.0662432702594131
 20
234.0000000000001137
 30
0.000000000000052
 11
59.0662432702594131
 21
234.0000000000001137
 31
0.000000000000052
210
0.0
220
1.0
230
0.0000000000000002
  0
LINE
  5
2E85
  8
0
  6
VERDECKT
 62
     1
 10
-142.0
 20
270.0000000000001137
 30
0.00000000000006
 11
-142.0
 21
268.0000000000002274
 31
0.0000000000000595
210
0.0
220
1.0
230
0.0000000000000002
  0
LINE
  5
2E86
  8
0
  6
VERDECKT
 62
     1
 10
-148.0
 20
270.0000000000001137
 30
0.00000000000006
 11
-148.0
 21
268.0000000000002274
 31
0.0000000000000595
210
0.0
220
1.0
230
0.0000000000000002
  0
LINE
  5
2E87
  8
0
  6
VERDECKT
 62
     1
 10
75.4999999999998863
 20
270.0000000000001137
 30
0.00000000000006
 11
75.4999999999998863
 21
268.0000000000002274
 31
0.0000000000000595
210
0.0
220
1.0
230
0.0000000000000002
  0
LINE
  5
2E88
  8
0
  6
VERDECKT
 62
     1
 10
69.4999999999998863
 20
270.0000000000001137
 30
0.00000000000006
 11
69.4999999999998863
 21
268.0000000000002274
 31
0.0000000000000595
210
0.0
220
1.0
230
0.0000000000000002
  0
ARC
  5
2E89
  8
0
  6
VERDECKT
 62
     1
 10
59.0662432702594131
 20
242.0000000000001137
 30
0.0
 40
6.0
210
0.0
220
0.0000000000000002
230
-1.0
 50
270.0
 51
330.0000000000001137
  0
ARC
  5
2E8A
  8
0
  6
VERDECKT
 62
     1
 10
-59.0662432702594131
 20
242.0000000000001137
 30
0.0
 40
6.0
210
0.0
220
0.0000000000000002
230
-1.0
 50
210.0
 51
270.0
  0
LINE
  5
2E8B
  8
0
  6
VERDECKT
 62
     1
 10
-64.2623956929660238
 20
239.0000000000001137
 30
0.0000000000000531
 11
-71.2320508075688821
 21
251.0717967697246991
 31
0.0000000000000557
210
0.0
220
1.0
230
0.0000000000000002
  0
LINE
  5
2E8C
  8
0
  6
VERDECKT
 62
     1
 10
64.2623956929660238
 20
239.0000000000001137
 30
0.0000000000000531
 11
71.2320508075688821
 21
251.0717967697246991
 31
0.0000000000000557
210
0.0
220
1.0
230
0.0000000000000002
  0
ARC
  5
2E8D
  8
0
  6
VERDECKT
 62
     1
 10
69.5000000000004832
 20
252.0717967697245001
 30
0.0
 40
1.9999999999995
210
0.0
220
0.0000000000000002
230
-1.0
 50
329.9999999999973852
 51
0.0000000000048853
  0
ARC
  5
2E8E
  8
0
  6
VERDECKT
 62
     1
 10
-69.5000000000004832
 20
252.0717967697245001
 30
0.0
 40
1.999999999999502
210
0.0
220
0.0000000000000002
230
-1.0
 50
179.9999999999951115
 51
210.0000000000025011
  0
LINE
  5
2E8F
  8
0
  6
VERDECKT
 62
     1
 10
71.5
 20
254.6148438072098941
 30
0.0000000000000565
 11
71.5
 21
252.0717967697246991
 31
0.000000000000056
210
0.0
220
1.0
230
0.0000000000000002
  0
LINE
  5
2E90
  8
0
  6
VERDECKT
 62
     1
 10
-71.5
 20
254.6148438072098941
 30
0.0000000000000565
 11
-71.5
 21
252.0717967697246991
 31
0.000000000000056
210
0.0
220
1.0
230
0.0000000000000002
  0
ARC
  5
2E91
  8
0
  6
VERDECKT
 62
     1
 10
69.499999999996632
 20
254.6148438072096098
 30
0.0
 40
2.0000000000033671
210
0.0
220
0.0000000000000002
230
-1.0
 50
0.0000000000065138
 51
10.9999999999885798
  0
ARC
  5
2E92
  8
0
  6
VERDECKT
 62
     1
 10
-69.499999999996632
 20
254.6148438072096098
 30
0.0
 40
2.0000000000033671
210
0.0
220
0.0000000000000002
230
-1.0
 50
169.0000000000113971
 51
179.9999999999934914
  0
LINE
  5
2E93
  8
0
  6
VERDECKT
 62
     1
 10
70.3986205381859946
 20
260.4735280369877728
 30
0.0000000000000578
 11
71.4632543668953275
 21
254.996461797962894
 31
0.0000000000000566
210
0.0
220
1.0
230
0.0000000000000002
  0
LINE
  5
2E94
  8
0
  6
VERDECKT
 62
     1
 10
-70.3986205381859946
 20
260.4735280369877728
 30
0.0000000000000578
 11
-71.4632543668953275
 21
254.9964617979630077
 31
0.0000000000000566
210
0.0
220
1.0
230
0.0000000000000002
  0
ARC
  5
2E95
  8
0
  6
VERDECKT
 62
     1
 10
78.2516380057672336
 20
262.0000000000002274
 30
0.0
 40
7.9999999999999432
210
0.0
220
0.0000000000000002
230
-1.0
 50
89.9999999999996874
 51
191.000000000000199
  0
ARC
  5
2E96
  8
0
  6
VERDECKT
 62
     1
 10
-78.2516380057672336
 20
262.0000000000002274
 30
0.0
 40
7.9999999999999636
210
0.0
220
0.0000000000000002
230
-1.0
 50
348.9999999999997158
 51
90.0000000000002984
  0
ARC
  5
2E97
  8
0
  6
VERDECKT
 62
     1
 10
59.0662432702598679
 20
241.9999999999905924
 30
0.0
 40
7.9999999999904778
210
0.0
220
0.0000000000000002
230
-1.0
 50
270.0
 51
276.7028183906613208
  0
ARC
  5
2E98
  8
0
  6
VERDECKT
 62
     1
 10
-59.0662432702598679
 20
241.9999999999905924
 30
0.0
 40
7.9999999999904778
210
0.0
220
0.0000000000000002
230
-1.0
 50
263.2971816093420898
 51
270.0000000000032969
  0
LINE
  5
2E99
  8
0
  6
VERDECKT
 62
     1
 10
57.5
 20
236.0000000000001137
 30
0.0000000000000524
 11
57.5
 21
234.0000000000001137
 31
0.000000000000052
210
0.0
220
1.0
230
0.0000000000000002
  0
LINE
  5
2E9A
  8
0
  6
VERDECKT
 62
     1
 10
-57.5
 20
236.0000000000001137
 30
0.0000000000000524
 11
-57.5
 21
234.0000000000001137
 31
0.000000000000052
210
0.0
220
1.0
230
0.0000000000000002
  0
LINE
  5
2E9B
  8
0
  6
VERDECKT
 62
     1
 10
-48.5567499701321594
 20
0.1525225498083387
 30
0.0
 11
48.5567499701321594
 21
0.1525225498083387
 31
0.0
210
0.0
220
1.0
230
0.0000000000000002
  0
ARC
  5
2E9C
  8
0
  6
VERDECKT
 62
     1
 10
39.2500000000016485
 20
8.5130160791739424
 30
0.0
 40
9.9999999999983515
210
0.0
220
0.0000000000000002
230
-1.0
 50
354.9999999999998863
 51
0.0000000000005471
  0
ARC
  5
2E9D
  8
0
  6
VERDECKT
 62
     1
 10
-39.2499999999941522
 20
8.5130160791742693
 30
0.0
 40
10.0000000000058495
210
0.0
220
0.0000000000000002
230
-1.0
 50
180.0000000000013074
 51
184.9999999999980957
  0
LINE
  5
2E9E
  8
0
  6
VERDECKT
 62
     1
 10
-48.5567499701321594
 20
0.1525225498083391
 30
0.0
 11
-49.2119469809174603
 21
7.6414586516974881
 31
0.0000000000000017
210
0.0
220
1.0
230
0.0000000000000002
  0
LINE
  5
2E9F
  8
0
  6
VERDECKT
 62
     1
 10
48.5567499701321594
 20
0.1525225498083391
 30
0.0
 11
49.2119469809174603
 21
7.6414586516974881
 31
0.0000000000000017
210
0.0
220
1.0
230
0.0000000000000002
  0
LINE
  5
2EA0
  8
0
  6
VERDECKT
 62
     1
 10
49.25
 20
126.7098066405173
 30
0.0000000000000281
 11
49.25
 21
8.5130160791740366
 31
0.0000000000000019
210
0.0
220
1.0
230
0.0000000000000002
  0
LINE
  5
2EA1
  8
0
  6
VERDECKT
 62
     1
 10
-49.25
 20
126.7098066405173
 30
0.0000000000000281
 11
-49.25
 21
8.5130160791740366
 31
0.0000000000000019
210
0.0
220
1.0
230
0.0000000000000002
  0
ARC
  5
2EA2
  8
0
  6
VERDECKT
 62
     1
 10
64.7500000000010942
 20
221.9972541670225894
 30
0.0
 40
10.0000000000010996
210
0.0
220
0.0000000000000002
230
-1.0
 50
151.0000000000025011
 51
179.9999999999986073
  0
ARC
  5
2EA3
  8
0
  6
VERDECKT
 62
     1
 10
-64.7500000000010374
 20
221.9972541670225894
 30
0.0
 40
10.0000000000010303
210
0.0
220
0.0000000000000002
230
-1.0
 50
0.0000000000013104
 51
28.999999999997339
  0
LINE
  5
2EA4
  8
0
  6
VERDECKT
 62
     1
 10
-56.0038029286059995
 20
226.8453503694861126
 30
0.0000000000000504
 11
-60.0000000000000426
 21
234.0546807257566968
 31
0.000000000000052
210
0.0
220
1.0
230
0.0000000000000002
  0
LINE
  5
2EA5
  8
0
  6
VERDECKT
 62
     1
 10
56.0038029286059995
 20
226.8453503694861126
 30
0.0000000000000504
 11
60.0000000000000426
 21
234.0546807257566968
 31
0.000000000000052
210
0.0
220
1.0
230
0.0000000000000002
  0
LINE
  5
2EA6
  8
0
  6
VERDECKT
 62
     1
 10
48.5567499701321594
 20
0.1525225498083337
 30
0.0
 11
50.3000906917926613
 21
-0.0000000000000049
 31
0.0
210
0.0
220
1.0
230
0.0000000000000002
  0
LINE
  5
2EA7
  8
0
  6
VERDECKT
 62
     1
 10
-48.5567499701321594
 20
0.1525225498083337
 30
0.0
 11
-50.3000906917926613
 21
-0.0000000000000049
 31
0.0
210
0.0
220
1.0
230
0.0000000000000002
  0
ARC
  5
2EA8
  8
0
  6
VERDECKT
 62
     1
 10
64.2500000000007532
 20
126.7098066405171011
 30
0.0
 40
15.0000000000007496
210
0.0
220
0.0000000000000002
230
-1.0
 50
143.6401786751565055
 51
179.9999999999992042
  0
ARC
  5
2EA9
  8
0
  6
VERDECKT
 62
     1
 10
-64.2500000000007532
 20
126.7098066405171011
 30
0.0
 40
15.0000000000007496
210
0.0
220
0.0000000000000002
230
-1.0
 50
0.0000000000008142
 51
36.3598213248434874
  0
ARC
  5
2EAA
  8
0
  6
VERDECKT
 62
     1
 10
41.4999999999999218
 20
143.4579408649615004
 30
0.0
 40
13.2500000000000497
210
0.0
220
0.0000000000000002
230
-1.0
 50
323.6401786751569034
 51
0.0000000000001209
  0
ARC
  5
2EAB
  8
0
  6
VERDECKT
 62
     1
 10
-41.5000000000000995
 20
143.4579408649615004
 30
0.0
 40
13.2499999999998792
210
0.0
220
0.0000000000000002
230
-1.0
 50
179.9999999999996021
 51
216.3598213248432955
  0
LINE
  5
2EAC
  8
0
  6
VERDECKT
 62
     1
 10
54.75
 20
221.9972541670227884
 30
0.0000000000000493
 11
54.75
 21
143.4579408649616141
 31
0.0000000000000319
210
0.0
220
1.0
230
0.0000000000000002
  0
LINE
  5
2EAD
  8
0
  6
VERDECKT
 62
     1
 10
-54.75
 20
221.9972541670227884
 30
0.0000000000000493
 11
-54.75
 21
143.4579408649616141
 31
0.0000000000000319
210
0.0
220
1.0
230
0.0000000000000002
  0
ENDBLK
  5
2EAF
  8
0
  0
BLOCK
  8
0
  2
*U18
 70
     1
 10
0.0
 20
0.0
 30
0.0
  3
*U18
  1

  0
TEXT
  5
2F05
  8
STEMPEL
 62
     1
 10
127.6628796245381068
 20
393.0373200000000793
 30
0.0
 40
3.5
  1
\U+2205330
 41
0.8
  0
ENDBLK
  5
2F07
  8
0
  0
BLOCK
  8
0
  2
*U19
 70
     1
 10
0.0
 20
0.0
 30
0.0
  3
*U19
  1

  0
TEXT
  5
2F09
  8
STEMPEL
 62
     1
 10
122.3962129578710005
 20
228.037319999999994
 30
0.0
 40
3.5
  1
\U+2205102x1.75
 41
0.8
  0
ENDBLK
  5
2F0B
  8
0
  0
BLOCK
  8
0
  2
*U20
 70
     1
 10
0.0
 20
0.0
 30
0.0
  3
*U20
  1

  0
TEXT
  5
2F0D
  8
STEMPEL
 62
     1
 10
137.9462129578710119
 20
291.3922233202587222
 30
0.0
 40
3.5
  1
\U+2205113
 41
0.8
  0
ENDBLK
  5
2F0F
  8
0
  0
BLOCK
  8
0
  2
*U21
 70
     1
 10
0.0
 20
0.0
 30
0.0
  3
*U21
  1

  0
TEXT
  5
2F11
  8
STEMPEL
 62
     1
 10
28.5295462912043583
 20
360.337320000000318
 30
0.0
 40
3.5
  1
36
 50
90.0
 41
0.8
  0
ENDBLK
  5
2F13
  8
0
  0
BLOCK
  8
0
  2
*U22
 70
     1
 10
0.0
 20
0.0
 30
0.0
  3
*U22
  1

  0
TEXT
  5
2F15
  8
STEMPEL
 62
     1
 10
28.5295462912045714
 20
291.3706533333335074
 30
0.0
 40
3.5
  1
234
 50
90.0
 41
0.8
  0
ENDBLK
  5
2F17
  8
0
  0
BLOCK
  8
0
  2
*U23
 70
     1
 10
0.0
 20
0.0
 30
0.0
  3
*U23
  1

  0
TEXT
  5
2F19
  8
STEMPEL
 62
     1
 10
18.5295462912045004
 20
300.4373200000001134
 30
0.0
 40
3.5
  1
270
 50
90.0
 41
0.8
  0
ENDBLK
  5
2F1B
  8
0
  0
BLOCK
  8
0
  2
*U24
 70
     1
 10
0.0
 20
0.0
 30
0.0
  3
*U24
  1

  0
TEXT
  5
2F1D
  8
0
 62
     1
 10
127.929546291204403
 20
383.0373200000000793
 30
0.0
 40
3.5
  1
\U+2205120
 41
0.8
  0
ENDBLK
  5
2F1F
  8
0
  0
BLOCK
  8
0
  2
*U25
 70
     1
 10
0.0
 20
0.0
 30
0.0
  3
*U25
  1

  0
TEXT
  5
2F21
  8
STEMPEL
 62
     1
 10
38.5295462912045679
 20
360.1706533333335187
 30
0.0
 40
3.5
  1
2
 50
90.0
 41
0.8
  0
ENDBLK
  5
2F23
  8
0
  0
BLOCK
  8
0
  2
*U26
 70
     1
 10
0.0
 20
0.0
 30
0.0
  3
*U26
  1

  0
TEXT
  5
2F25
  8
STEMPEL
 62
     1
 10
70.0295462912039852
 20
362.0373200000000793
 30
0.0
 40
3.5
  1
\U+22056
 41
0.8
  0
ENDBLK
  5
2F27
  8
0
  0
BLOCK
  8
0
  2
*U27
 70
     1
 10
0.0
 20
0.0
 30
0.0
  3
*U27
  1

  0
TEXT
  5
2F29
  8
STEMPEL
 62
     1
 10
115.7011648699515973
 20
120.415720199025003
 30
0.0
 40
3.5
  1
\U+2205290
 50
338.2649394401194058
 41
0.8
  0
ENDBLK
  5
2F2B
  8
0
  0
BLOCK
  8
0
  2
*U28
 70
     1
 10
0.0
 20
0.0
 30
0.0
  3
*U28
  1

  0
TEXT
  5
2F2D
  8
STEMPEL
 62
     1
 10
82.0654446760556198
 20
191.4985479556883092
 30
0.0
 40
3.5
  1
120°
 50
30.0000000000079687
 41
0.8
  0
ENDBLK
  5
2F2F
  8
0
  0
BLOCK
  8
0
  2
*U29
 70
     1
 10
0.0
 20
0.0
 30
0.0
  3
*U29
  1

  0
TEXT
  5
2F31
  8
STEMPEL
 62
     1
 10
38.5295462912049729
 20
325.1915553319302035
 30
0.0
 40
3.5
  1
100
 50
90.0
 41
0.8
  0
ENDBLK
  5
2F33
  8
0
  0
ENDSEC
  0
SECTION
  2
ENTITIES
  0
TEXT
  5
8F
  8
VOLL
 10
78.076754716981128
 20
31.025947764705851
 30
0.0
 40
1.8
  1

  7
GREEKS
  0
TEXT
  5
97
  8
TEXT
 10
225.1296391125314926
 20
62.1158070677485625
 30
0.0
 40
5.0
  1

 41
0.8
  7
GREEKS
  0
INSERT
  5
D04
  8
ADSK_ASSOC_ENTITY_BACKUPS
  2
*S0
 10
0.0
 20
0.0
 30
0.0
  0
INSERT
  5
2E59
  8
STEMPEL
  2
A$C47C04FE7
 10
0.0000000000000498
 20
-215.0
 30
0.0000000000000101
  0
INSERT
  5
2EB0
  8
STEMPEL
  2
A$CE8D52C16
 10
0.0
 20
0.0
 30
0.0
  0
VIEWPORT
  5
CE3
 67
     1
  8
0
 10
145.4915148698322866
 20
205.7049490426394129
 30
0.0
 40
790.2674510967764263
 41
422.1483375959078899
 68
     1
 69
     1
1001
ACAD
1000
MVIEW
1002
{
1070
    16
1010
0.0
1020
0.0
1030
0.0
1010
0.0
1020
0.0
1030
1.0
1040
0.0
1040
422.1483375959078899
1040
145.4915148698322866
1040
205.7049490426394129
1040
50.0
1040
0.0
1040
0.0
1070
     0
1070
  1500
1070
     1
1070
     1
1070
     0
1070
     0
1070
     0
1070
     0
1040
0.0
1040
0.0
1040
0.0
1040
10.0
1040
10.0
1040
10.0
1040
10.0
1070
     0
1002
{
1002
}
1002
}
  0
TEXT
  5
DA7
 67
     1
  8
VOLL
 10
475.0674480202164887
 20
-106.3182519461715998
 30
0.0
 40
3.6000000000000001
  1

  7
GREEKS
  0
ENDSEC
  0
EOF
