  0
SECTION
  2
HEADER
  9
$ACADVER
  1
AC1009
  9
$INSBASE
 10
0.0
 20
0.0
 30
0.0
  9
$EXTMIN
 10
-90.0520159436794074
 20
-90.0520295974822602
 30
-0.0000000035762806
  9
$EXTMAX
 10
90.052015254501157
 20
102.9999994828797014
 30
0.999999998176893
  9
$LIMMIN
 10
0.0
 20
0.0
  9
$LIMMAX
 10
595.0
 20
421.0
  9
$ORTHOMODE
 70
     1
  9
$REGENMODE
 70
     1
  9
$FILLMODE
 70
     1
  9
$QTEXTMODE
 70
     0
  9
$MIRRTEXT
 70
     1
  9
$DRAGMODE
 70
     2
  9
$LTSCALE
 40
10.0
  9
$OSMODE
 70
   511
  9
$ATTMODE
 70
     1
  9
$TEXTSIZE
 40
3.5
  9
$TRACEWID
 40
1.0
  9
$TEXTSTYLE
  7
STANDARD
  9
$CLAYER
  8
BEM
  9
$CELTYPE
  6
BYLAYER
  9
$CECOLOR
 62
   256
  9
$DIMSCALE
 40
1.0
  9
$DIMASZ
 40
3.5
  9
$DIMEXO
 40
1.0
  9
$DIMDLI
 40
7.0
  9
$DIMRND
 40
0.0
  9
$DIMDLE
 40
0.0
  9
$DIMEXE
 40
1.0
  9
$DIMTP
 40
0.0
  9
$DIMTM
 40
0.0
  9
$DIMTXT
 40
3.5
  9
$DIMCEN
 40
1.5
  9
$DIMTSZ
 40
0.0
  9
$DIMTOL
 70
     0
  9
$DIMLIM
 70
     0
  9
$DIMTIH
 70
     0
  9
$DIMTOH
 70
     0
  9
$DIMSE1
 70
     0
  9
$DIMSE2
 70
     0
  9
$DIMTAD
 70
     1
  9
$DIMZIN
 70
     8
  9
$DIMBLK
  1

  9
$DIMASO
 70
     1
  9
$DIMSHO
 70
     0
  9
$DIMPOST
  1

  9
$DIMAPOST
  1

  9
$DIMALT
 70
     0
  9
$DIMALTD
 70
     2
  9
$DIMALTF
 40
25.3999999999999986
  9
$DIMLFAC
 40
2.0
  9
$DIMTOFL
 70
     1
  9
$DIMTVP
 40
0.0
  9
$DIMTIX
 70
     0
  9
$DIMSOXD
 70
     0
  9
$DIMSAH
 70
     0
  9
$DIMBLK1
  1

  9
$DIMBLK2
  1

  9
$DIMSTYLE
  2
STANDARD
  9
$DIMCLRD
 70
     0
  9
$DIMCLRE
 70
     0
  9
$DIMCLRT
 70
     1
  9
$DIMTFAC
 40
0.5142857142857143
  9
$DIMGAP
 40
1.5
  9
$LUNITS
 70
     2
  9
$LUPREC
 70
     2
  9
$SKETCHINC
 40
1.0
  9
$FILLETRAD
 40
0.25
  9
$AUNITS
 70
     0
  9
$AUPREC
 70
     0
  9
$MENU
  1
ACAD
  9
$ELEVATION
 40
0.0
  9
$PELEVATION
 40
0.0
  9
$THICKNESS
 40
0.0
  9
$LIMCHECK
 70
     0
  9
$BLIPMODE
 70
     0
  9
$CHAMFERA
 40
0.0
  9
$CHAMFERB
 40
0.0
  9
$SKPOLY
 70
     0
  9
$TDCREATE
 40
2458092.4117013891227543
  9
$TDUPDATE
 40
2460581.4749652780592442
  9
$TDINDWG
 40
0.2485763889
  9
$TDUSRTIMER
 40
0.2485763889
  9
$USRTIMER
 70
     1
  9
$ANGBASE
 50
0.0
  9
$ANGDIR
 70
     0
  9
$PDMODE
 70
     0
  9
$PDSIZE
 40
0.0
  9
$PLINEWID
 40
0.0
  9
$COORDS
 70
     1
  9
$SPLFRAME
 70
     0
  9
$SPLINETYPE
 70
     6
  9
$SPLINESEGS
 70
     8
  9
$ATTDIA
 70
     1
  9
$ATTREQ
 70
     1
  9
$HANDLING
 70
     1
  9
$HANDSEED
  5
36C5
  9
$SURFTAB1
 70
     6
  9
$SURFTAB2
 70
     6
  9
$SURFTYPE
 70
     6
  9
$SURFU
 70
     6
  9
$SURFV
 70
     6
  9
$UCSNAME
  2

  9
$UCSORG
 10
0.0
 20
0.0
 30
0.0
  9
$UCSXDIR
 10
1.0
 20
0.0
 30
0.0
  9
$UCSYDIR
 10
0.0
 20
1.0
 30
0.0
  9
$PUCSNAME
  2

  9
$PUCSORG
 10
0.0
 20
0.0
 30
0.0
  9
$PUCSXDIR
 10
1.0
 20
0.0
 30
0.0
  9
$PUCSYDIR
 10
0.0
 20
1.0
 30
0.0
  9
$USERI1
 70
     0
  9
$USERI2
 70
     0
  9
$USERI3
 70
     0
  9
$USERI4
 70
     0
  9
$USERI5
 70
     0
  9
$USERR1
 40
0.0
  9
$USERR2
 40
0.0
  9
$USERR3
 40
0.0
  9
$USERR4
 40
0.0
  9
$USERR5
 40
0.0
  9
$WORLDVIEW
 70
     1
  9
$SHADEDGE
 70
     3
  9
$SHADEDIF
 70
    70
  9
$TILEMODE
 70
     1
  9
$MAXACTVP
 70
    16
  9
$PLIMCHECK
 70
     0
  9
$PEXTMIN
 10
1.0000000000000000E+20
 20
1.0000000000000000E+20
 30
1.0000000000000000E+20
  9
$PEXTMAX
 10
-1.0000000000000000E+20
 20
-1.0000000000000000E+20
 30
-1.0000000000000000E+20
  9
$PLIMMIN
 10
-5.027082920074462
 20
-5.027099609375
  9
$PLIMMAX
 10
204.9462447166442871
 20
291.898895263671875
  9
$UNITMODE
 70
     0
  9
$VISRETAIN
 70
     0
  9
$PLINEGEN
 70
     0
  9
$PSLTSCALE
 70
     1
  0
ENDSEC
  0
SECTION
  2
TABLES
  0
TABLE
  2
VPORT
 70
     1
  0
VPORT
  2
*ACTIVE
 70
     0
 10
0.0
 20
0.0
 11
1.0
 21
1.0
 12
-0.0000003445891252
 22
6.4739849426987339
 13
0.0
 23
0.0
 14
1.0
 24
1.0
 15
10.0
 25
10.0
 16
-0.0000000000001464
 26
0.0
 36
659.3110285026161819
 17
0.0
 27
0.0
 37
0.4999999999985275
 40
194.0471426323225899
 41
1.8847807394668961
 42
50.0
 43
0.0
 44
0.0
 50
0.0
 51
0.0
 71
     0
 72
  1500
 73
     1
 74
     1
 75
     0
 76
     0
 77
     0
 78
     0
  0
ENDTAB
  0
TABLE
  2
LTYPE
 70
     2
  0
LTYPE
  2
CONTINUOUS
 70
     0
  3
Solid line
 72
    65
 73
     0
 40
0.0
  0
LTYPE
  2
VERDECKT
 70
     0
  3
Verdeckt __ __ __ __ __ __ __ __ __ __ __ __ __
 72
    65
 73
     2
 40
9.5249999999999986
 49
6.3499999999999988
 49
-3.1749999999999989
  0
ENDTAB
  0
TABLE
  2
LAYER
 70
     4
  0
LAYER
  2
0
 70
     0
 62
     7
  6
CONTINUOUS
  0
LAYER
  2
BEM
 70
     0
 62
     7
  6
CONTINUOUS
  0
LAYER
  2
ADSK_ASSOC_ENTITY_BACKUPS
 70
     1
 62
    -7
  6
CONTINUOUS
  0
ENDTAB
  0
TABLE
  2
STYLE
 70
     3
  0
STYLE
  2
STANDARD
 70
     0
 40
0.0
 41
0.8
 50
0.0
 71
     0
 42
3.5
  3
simplex.shx
  4

  0
STYLE
  2
GREEKS
 70
     0
 40
0.0
 41
0.8
 50
0.0
 71
     0
 42
2.5
  3
SIMPLEX.shx
  4

  0
ENDTAB
  0
TABLE
  2
VIEW
 70
     0
  0
ENDTAB
  0
TABLE
  2
UCS
 70
     0
  0
ENDTAB
  0
TABLE
  2
APPID
 70
    23
  0
APPID
  2
ACAD
 70
     0
  0
APPID
  2
ACAD_NAV_VCDISPLAY
 70
     0
  0
APPID
  2
ACAD_EXEMPT_FROM_CAD_STANDARDS
 70
     0
  0
APPID
  2
ACAD_PSEXT
 70
     0
  0
APPID
  2
ACAUTHENVIRON
 70
     0
  0
APPID
  2
ACDBDYNAMICBLOCKTRUENAME
 70
     0
  0
APPID
  2
ACDBDYNAMICBLOCKGUID
 70
     0
  0
APPID
  2
ACAECLAYERSTANDARD
 70
     0
  0
APPID
  2
ACCMTRANSPARENCY
 70
     0
  0
APPID
  2
ACAD_STEPID
 70
     0
  0
APPID
  2
ACSYNERGY
 70
     0
  0
APPID
  2
SYNERGY_BODY_TBR_ID
 70
     0
  0
APPID
  2
ACAD_VIEW_EDGE_ID
 70
     0
  0
APPID
  2
ACAD_DSTYLE_DIMJAG
 70
     0
  0
APPID
  2
ACAD_DSTYLE_DIMTALN
 70
     0
  0
APPID
  2
ACADANNOMONITORALERTICONDI
 70
     0
  0
APPID
  2
ACSYNERGYSKETCH
 70
     0
  0
APPID
  2
ACAD_MODELDOC_XFORM
 70
     0
  0
APPID
  2
ACAD_DIMASSOC_CALC_DIMLFAC
 70
     0
  0
APPID
  2
ACAD_DIMASSOC_DIMLFAC
 70
     0
  0
APPID
  2
ACAD_DIMASSOC_OVERRIDDEN_D
 70
     0
  0
APPID
  2
ACAD_DSTYLE_DIMRADIAL_EXTENSION
 70
     0
  0
APPID
  2
ACAD_MLEADERVER
 70
     0
  0
ENDTAB
  0
TABLE
  2
DIMSTYLE
 70
     1
  0
DIMSTYLE
  2
STANDARD
 70
     0
  3

  4

  5

  6

  7

 40
1.0
 41
0.18
 42
0.0625
 43
0.38
 44
0.18
 45
0.0
 46
0.0
 47
0.0
 48
0.0
140
0.18
141
0.09
142
0.0
143
25.3999999999999986
144
1.0
145
0.0
146
1.0
147
0.09
 71
     0
 72
     0
 73
     1
 74
     1
 75
     0
 76
     0
 77
     0
 78
     0
170
     0
171
     2
172
     0
173
     0
174
     0
175
     0
176
     0
177
     0
178
     0
  0
ENDTAB
  0
ENDSEC
  0
SECTION
  2
BLOCKS
  0
BLOCK
  8
0
  2
$MODEL_SPACE
 70
     0
 10
0.0
 20
0.0
 30
0.0
  3
$MODEL_SPACE
  1

  0
ENDBLK
  5
38
  8
0
  0
BLOCK
 67
     1
  8
0
  2
$PAPER_SPACE
 70
     0
 10
0.0
 20
0.0
 30
0.0
  3
$PAPER_SPACE
  1

  0
ENDBLK
  5
5FE
 67
     1
  8
0
  0
BLOCK
  8
0
  2
*S0
 70
     1
 10
0.0
 20
0.0
 30
0.0
  3
*S0
  1

  0
ENDBLK
  5
571
  8
0
  0
BLOCK
  8
0
  2
A$CACEB8A92
 70
     0
 10
0.0
 20
0.0
 30
0.0
  3
A$CACEB8A92
  1

  0
LINE
  5
2E8C
  8
0
  6
CONTINUOUS
 62
     3
 10
-0.0500000000026828
 20
-82.4999999999995453
 30
0.0
 11
0.0499999999972263
 21
-82.4999999999995453
 31
0.0
  0
LINE
  5
2E8D
  8
0
  6
CONTINUOUS
 62
     3
 10
0.0499999999972263
 20
-81.4999999999995453
 30
0.0
 11
-0.0500000000026828
 21
-81.4999999999995453
 31
0.0
  0
LINE
  5
2E8E
  8
0
  6
CONTINUOUS
 62
     3
 10
0.0499999999995
 20
-68.1500000000000909
 30
0.0
 11
0.0499999999997274
 21
-81.4999999999995453
 31
0.0
  0
LINE
  5
2E8F
  8
0
  6
CONTINUOUS
 62
     3
 10
-0.0500000000004091
 20
-86.464451637260467
 30
0.0
 11
-0.0500000000004091
 21
-82.4999999999995453
 31
0.0
  0
POLYLINE
  8
0
  5
2F39
  62
3
  66
     1
 10
0.000000
 20
0.000000
 30
0.000000
  70
     8
  0
VERTEX
  8
0
  5
2F3A
 10
-0.0500000
 20
-87.8787
 30
0.000000
  70
    32
  0
VERTEX
  8
0
  5
2F3B
 10
-0.0500000
 20
-87.8754
 30
0.000000
  70
    32
  0
VERTEX
  8
0
  5
2F3C
 10
-0.0500000
 20
-87.8721
 30
0.000000
  70
    32
  0
VERTEX
  8
0
  5
2F3D
 10
-0.0500000
 20
-87.8687
 30
0.000000
  70
    32
  0
VERTEX
  8
0
  5
2F3E
 10
-0.0500000
 20
-87.8654
 30
0.000000
  70
    32
  0
VERTEX
  8
0
  5
2F3F
 10
-0.0500000
 20
-87.8621
 30
0.000000
  70
    32
  0
VERTEX
  8
0
  5
2F40
 10
-0.0500000
 20
-87.8587
 30
0.000000
  70
    32
  0
VERTEX
  8
0
  5
2F41
 10
-0.0500000
 20
-87.8553
 30
0.000000
  70
    32
  0
VERTEX
  8
0
  5
2F42
 10
-0.0500000
 20
-87.8519
 30
0.000000
  70
    32
  0
VERTEX
  8
0
  5
2F43
 10
-0.0500000
 20
-87.8485
 30
0.000000
  70
    32
  0
VERTEX
  8
0
  5
2F44
 10
-0.0500000
 20
-87.8451
 30
0.000000
  70
    32
  0
VERTEX
  8
0
  5
2F45
 10
-0.0500000
 20
-87.8416
 30
0.000000
  70
    32
  0
VERTEX
  8
0
  5
2F46
 10
-0.0500000
 20
-87.8382
 30
0.000000
  70
    32
  0
VERTEX
  8
0
  5
2F47
 10
-0.0500000
 20
-87.8347
 30
0.000000
  70
    32
  0
VERTEX
  8
0
  5
2F48
 10
-0.0500000
 20
-87.8312
 30
0.000000
  70
    32
  0
VERTEX
  8
0
  5
2F49
 10
-0.0500000
 20
-87.8277
 30
0.000000
  70
    32
  0
VERTEX
  8
0
  5
2F4A
 10
-0.0500000
 20
-87.8242
 30
0.000000
  70
    32
  0
VERTEX
  8
0
  5
2F4B
 10
-0.0500000
 20
-87.8207
 30
0.000000
  70
    32
  0
VERTEX
  8
0
  5
2F4C
 10
-0.0500000
 20
-87.8171
 30
0.000000
  70
    32
  0
VERTEX
  8
0
  5
2F4D
 10
-0.0500000
 20
-87.8136
 30
0.000000
  70
    32
  0
VERTEX
  8
0
  5
2F4E
 10
-0.0500000
 20
-87.8100
 30
0.000000
  70
    32
  0
VERTEX
  8
0
  5
2F4F
 10
-0.0500000
 20
-87.8064
 30
0.000000
  70
    32
  0
VERTEX
  8
0
  5
2F50
 10
-0.0500000
 20
-87.8028
 30
0.000000
  70
    32
  0
VERTEX
  8
0
  5
2F51
 10
-0.0500000
 20
-87.7992
 30
0.000000
  70
    32
  0
VERTEX
  8
0
  5
2F52
 10
-0.0500000
 20
-87.7956
 30
0.000000
  70
    32
  0
VERTEX
  8
0
  5
2F53
 10
-0.0500000
 20
-87.7920
 30
0.000000
  70
    32
  0
VERTEX
  8
0
  5
2F54
 10
-0.0500000
 20
-87.7883
 30
0.000000
  70
    32
  0
VERTEX
  8
0
  5
2F55
 10
-0.0500000
 20
-87.7846
 30
0.000000
  70
    32
  0
VERTEX
  8
0
  5
2F56
 10
-0.0500000
 20
-87.7810
 30
0.000000
  70
    32
  0
VERTEX
  8
0
  5
2F57
 10
-0.0500000
 20
-87.7773
 30
0.000000
  70
    32
  0
VERTEX
  8
0
  5
2F58
 10
-0.0500000
 20
-87.7736
 30
0.000000
  70
    32
  0
VERTEX
  8
0
  5
2F59
 10
-0.0500000
 20
-87.7699
 30
0.000000
  70
    32
  0
VERTEX
  8
0
  5
2F5A
 10
-0.0500000
 20
-87.7661
 30
0.000000
  70
    32
  0
VERTEX
  8
0
  5
2F5B
 10
-0.0500000
 20
-87.7624
 30
0.000000
  70
    32
  0
VERTEX
  8
0
  5
2F5C
 10
-0.0500000
 20
-87.7586
 30
0.000000
  70
    32
  0
VERTEX
  8
0
  5
2F5D
 10
-0.0500000
 20
-87.7549
 30
0.000000
  70
    32
  0
VERTEX
  8
0
  5
2F5E
 10
-0.0500000
 20
-87.7511
 30
0.000000
  70
    32
  0
VERTEX
  8
0
  5
2F5F
 10
-0.0500000
 20
-87.7473
 30
0.000000
  70
    32
  0
VERTEX
  8
0
  5
2F60
 10
-0.0500000
 20
-87.7435
 30
0.000000
  70
    32
  0
VERTEX
  8
0
  5
2F61
 10
-0.0500000
 20
-87.7397
 30
0.000000
  70
    32
  0
VERTEX
  8
0
  5
2F62
 10
-0.0500000
 20
-87.7359
 30
0.000000
  70
    32
  0
VERTEX
  8
0
  5
2F63
 10
-0.0500000
 20
-87.7320
 30
0.000000
  70
    32
  0
VERTEX
  8
0
  5
2F64
 10
-0.0500000
 20
-87.7282
 30
0.000000
  70
    32
  0
VERTEX
  8
0
  5
2F65
 10
-0.0500000
 20
-87.7243
 30
0.000000
  70
    32
  0
VERTEX
  8
0
  5
2F66
 10
-0.0500000
 20
-87.7205
 30
0.000000
  70
    32
  0
VERTEX
  8
0
  5
2F67
 10
-0.0500000
 20
-87.7166
 30
0.000000
  70
    32
  0
VERTEX
  8
0
  5
2F68
 10
-0.0500000
 20
-87.7127
 30
0.000000
  70
    32
  0
VERTEX
  8
0
  5
2F69
 10
-0.0500000
 20
-87.7088
 30
0.000000
  70
    32
  0
VERTEX
  8
0
  5
2F6A
 10
-0.0500000
 20
-87.7049
 30
0.000000
  70
    32
  0
VERTEX
  8
0
  5
2F6B
 10
-0.0500000
 20
-87.7010
 30
0.000000
  70
    32
  0
VERTEX
  8
0
  5
2F6C
 10
-0.0500000
 20
-87.6970
 30
0.000000
  70
    32
  0
VERTEX
  8
0
  5
2F6D
 10
-0.0500000
 20
-87.6931
 30
0.000000
  70
    32
  0
VERTEX
  8
0
  5
2F6E
 10
-0.0500000
 20
-87.6891
 30
0.000000
  70
    32
  0
VERTEX
  8
0
  5
2F6F
 10
-0.0500000
 20
-87.6852
 30
0.000000
  70
    32
  0
VERTEX
  8
0
  5
2F70
 10
-0.0500000
 20
-87.6812
 30
0.000000
  70
    32
  0
VERTEX
  8
0
  5
2F71
 10
-0.0500000
 20
-87.6772
 30
0.000000
  70
    32
  0
VERTEX
  8
0
  5
2F72
 10
-0.0500000
 20
-87.6732
 30
0.000000
  70
    32
  0
VERTEX
  8
0
  5
2F73
 10
-0.0500000
 20
-87.6692
 30
0.000000
  70
    32
  0
VERTEX
  8
0
  5
2F74
 10
-0.0500000
 20
-87.6652
 30
0.000000
  70
    32
  0
VERTEX
  8
0
  5
2F75
 10
-0.0500000
 20
-87.6612
 30
0.000000
  70
    32
  0
VERTEX
  8
0
  5
2F76
 10
-0.0500000
 20
-87.6571
 30
0.000000
  70
    32
  0
VERTEX
  8
0
  5
2F77
 10
-0.0500000
 20
-87.6531
 30
0.000000
  70
    32
  0
VERTEX
  8
0
  5
2F78
 10
-0.0500000
 20
-87.6490
 30
0.000000
  70
    32
  0
VERTEX
  8
0
  5
2F79
 10
-0.0500000
 20
-87.6450
 30
0.000000
  70
    32
  0
VERTEX
  8
0
  5
2F7A
 10
-0.0500000
 20
-87.6409
 30
0.000000
  70
    32
  0
VERTEX
  8
0
  5
2F7B
 10
-0.0500000
 20
-87.6368
 30
0.000000
  70
    32
  0
VERTEX
  8
0
  5
2F7C
 10
-0.0500000
 20
-87.6327
 30
0.000000
  70
    32
  0
VERTEX
  8
0
  5
2F7D
 10
-0.0500000
 20
-87.6286
 30
0.000000
  70
    32
  0
VERTEX
  8
0
  5
2F7E
 10
-0.0500000
 20
-87.6245
 30
0.000000
  70
    32
  0
VERTEX
  8
0
  5
2F7F
 10
-0.0500000
 20
-87.6204
 30
0.000000
  70
    32
  0
VERTEX
  8
0
  5
2F80
 10
-0.0500000
 20
-87.6163
 30
0.000000
  70
    32
  0
VERTEX
  8
0
  5
2F81
 10
-0.0500000
 20
-87.6121
 30
0.000000
  70
    32
  0
VERTEX
  8
0
  5
2F82
 10
-0.0500000
 20
-87.6080
 30
0.000000
  70
    32
  0
VERTEX
  8
0
  5
2F83
 10
-0.0500000
 20
-87.6038
 30
0.000000
  70
    32
  0
VERTEX
  8
0
  5
2F84
 10
-0.0500000
 20
-87.5997
 30
0.000000
  70
    32
  0
VERTEX
  8
0
  5
2F85
 10
-0.0500000
 20
-87.5955
 30
0.000000
  70
    32
  0
VERTEX
  8
0
  5
2F86
 10
-0.0500000
 20
-87.5913
 30
0.000000
  70
    32
  0
VERTEX
  8
0
  5
2F87
 10
-0.0500000
 20
-87.5871
 30
0.000000
  70
    32
  0
VERTEX
  8
0
  5
2F88
 10
-0.0500000
 20
-87.5829
 30
0.000000
  70
    32
  0
VERTEX
  8
0
  5
2F89
 10
-0.0500000
 20
-87.5787
 30
0.000000
  70
    32
  0
VERTEX
  8
0
  5
2F8A
 10
-0.0500000
 20
-87.5745
 30
0.000000
  70
    32
  0
VERTEX
  8
0
  5
2F8B
 10
-0.0500000
 20
-87.5703
 30
0.000000
  70
    32
  0
VERTEX
  8
0
  5
2F8C
 10
-0.0500000
 20
-87.5661
 30
0.000000
  70
    32
  0
VERTEX
  8
0
  5
2F8D
 10
-0.0500000
 20
-87.5619
 30
0.000000
  70
    32
  0
VERTEX
  8
0
  5
2F8E
 10
-0.0500000
 20
-87.5576
 30
0.000000
  70
    32
  0
VERTEX
  8
0
  5
2F8F
 10
-0.0500000
 20
-87.5534
 30
0.000000
  70
    32
  0
VERTEX
  8
0
  5
2F90
 10
-0.0500000
 20
-87.5491
 30
0.000000
  70
    32
  0
VERTEX
  8
0
  5
2F91
 10
-0.0500000
 20
-87.5449
 30
0.000000
  70
    32
  0
VERTEX
  8
0
  5
2F92
 10
-0.0500000
 20
-87.5406
 30
0.000000
  70
    32
  0
VERTEX
  8
0
  5
2F93
 10
-0.0500000
 20
-87.5364
 30
0.000000
  70
    32
  0
VERTEX
  8
0
  5
2F94
 10
-0.0500000
 20
-87.5321
 30
0.000000
  70
    32
  0
VERTEX
  8
0
  5
2F95
 10
-0.0500000
 20
-87.5278
 30
0.000000
  70
    32
  0
VERTEX
  8
0
  5
2F96
 10
-0.0500000
 20
-87.5235
 30
0.000000
  70
    32
  0
VERTEX
  8
0
  5
2F97
 10
-0.0500000
 20
-87.5192
 30
0.000000
  70
    32
  0
VERTEX
  8
0
  5
2F98
 10
-0.0500000
 20
-87.5149
 30
0.000000
  70
    32
  0
VERTEX
  8
0
  5
2F99
 10
-0.0500000
 20
-87.5106
 30
0.000000
  70
    32
  0
VERTEX
  8
0
  5
2F9A
 10
-0.0500000
 20
-87.5063
 30
0.000000
  70
    32
  0
VERTEX
  8
0
  5
2F9B
 10
-0.0500000
 20
-87.5020
 30
0.000000
  70
    32
  0
VERTEX
  8
0
  5
2F9C
 10
-0.0500000
 20
-87.4977
 30
0.000000
  70
    32
  0
VERTEX
  8
0
  5
2F9D
 10
-0.0500000
 20
-87.4934
 30
0.000000
  70
    32
  0
VERTEX
  8
0
  5
2F9E
 10
-0.0500000
 20
-87.4890
 30
0.000000
  70
    32
  0
VERTEX
  8
0
  5
2F9F
 10
-0.0500000
 20
-87.4847
 30
0.000000
  70
    32
  0
VERTEX
  8
0
  5
2FA0
 10
-0.0500000
 20
-87.4804
 30
0.000000
  70
    32
  0
VERTEX
  8
0
  5
2FA1
 10
-0.0500000
 20
-87.4760
 30
0.000000
  70
    32
  0
VERTEX
  8
0
  5
2FA2
 10
-0.0500000
 20
-87.4717
 30
0.000000
  70
    32
  0
VERTEX
  8
0
  5
2FA3
 10
-0.0500000
 20
-87.4674
 30
0.000000
  70
    32
  0
VERTEX
  8
0
  5
2FA4
 10
-0.0500000
 20
-87.4630
 30
0.000000
  70
    32
  0
VERTEX
  8
0
  5
2FA5
 10
-0.0500000
 20
-87.4587
 30
0.000000
  70
    32
  0
VERTEX
  8
0
  5
2FA6
 10
-0.0500000
 20
-87.4543
 30
0.000000
  70
    32
  0
VERTEX
  8
0
  5
2FA7
 10
-0.0500000
 20
-87.4499
 30
0.000000
  70
    32
  0
VERTEX
  8
0
  5
2FA8
 10
-0.0500000
 20
-87.4456
 30
0.000000
  70
    32
  0
VERTEX
  8
0
  5
2FA9
 10
-0.0500000
 20
-87.4412
 30
0.000000
  70
    32
  0
VERTEX
  8
0
  5
2FAA
 10
-0.0500000
 20
-87.4369
 30
0.000000
  70
    32
  0
VERTEX
  8
0
  5
2FAB
 10
-0.0500000
 20
-87.4325
 30
0.000000
  70
    32
  0
VERTEX
  8
0
  5
2FAC
 10
-0.0500000
 20
-87.4281
 30
0.000000
  70
    32
  0
VERTEX
  8
0
  5
2FAD
 10
-0.0500000
 20
-87.4237
 30
0.000000
  70
    32
  0
VERTEX
  8
0
  5
2FAE
 10
-0.0500000
 20
-87.4194
 30
0.000000
  70
    32
  0
VERTEX
  8
0
  5
2FAF
 10
-0.0500000
 20
-87.4150
 30
0.000000
  70
    32
  0
VERTEX
  8
0
  5
2FB0
 10
-0.0500000
 20
-87.4106
 30
0.000000
  70
    32
  0
VERTEX
  8
0
  5
2FB1
 10
-0.0500000
 20
-87.4062
 30
0.000000
  70
    32
  0
VERTEX
  8
0
  5
2FB2
 10
-0.0500000
 20
-87.4019
 30
0.000000
  70
    32
  0
VERTEX
  8
0
  5
2FB3
 10
-0.0500000
 20
-87.3975
 30
0.000000
  70
    32
  0
VERTEX
  8
0
  5
2FB4
 10
-0.0500000
 20
-87.3931
 30
0.000000
  70
    32
  0
VERTEX
  8
0
  5
2FB5
 10
-0.0500000
 20
-87.3887
 30
0.000000
  70
    32
  0
VERTEX
  8
0
  5
2FB6
 10
-0.0500000
 20
-87.3843
 30
0.000000
  70
    32
  0
VERTEX
  8
0
  5
2FB7
 10
-0.0500000
 20
-87.3800
 30
0.000000
  70
    32
  0
VERTEX
  8
0
  5
2FB8
 10
-0.0500000
 20
-87.3756
 30
0.000000
  70
    32
  0
VERTEX
  8
0
  5
2FB9
 10
-0.0500000
 20
-87.3712
 30
0.000000
  70
    32
  0
VERTEX
  8
0
  5
2FBA
 10
-0.0500000
 20
-87.3668
 30
0.000000
  70
    32
  0
VERTEX
  8
0
  5
2FBB
 10
-0.0500000
 20
-87.3624
 30
0.000000
  70
    32
  0
VERTEX
  8
0
  5
2FBC
 10
-0.0500000
 20
-87.3580
 30
0.000000
  70
    32
  0
VERTEX
  8
0
  5
2FBD
 10
-0.0500000
 20
-87.3537
 30
0.000000
  70
    32
  0
VERTEX
  8
0
  5
2FBE
 10
-0.0500000
 20
-87.3493
 30
0.000000
  70
    32
  0
VERTEX
  8
0
  5
2FBF
 10
-0.0500000
 20
-87.3449
 30
0.000000
  70
    32
  0
VERTEX
  8
0
  5
2FC0
 10
-0.0500000
 20
-87.3405
 30
0.000000
  70
    32
  0
VERTEX
  8
0
  5
2FC1
 10
-0.0500000
 20
-87.3362
 30
0.000000
  70
    32
  0
VERTEX
  8
0
  5
2FC2
 10
-0.0500000
 20
-87.3318
 30
0.000000
  70
    32
  0
VERTEX
  8
0
  5
2FC3
 10
-0.0500000
 20
-87.3274
 30
0.000000
  70
    32
  0
VERTEX
  8
0
  5
2FC4
 10
-0.0500000
 20
-87.3230
 30
0.000000
  70
    32
  0
VERTEX
  8
0
  5
2FC5
 10
-0.0500000
 20
-87.3187
 30
0.000000
  70
    32
  0
VERTEX
  8
0
  5
2FC6
 10
-0.0500000
 20
-87.3143
 30
0.000000
  70
    32
  0
VERTEX
  8
0
  5
2FC7
 10
-0.0500000
 20
-87.3099
 30
0.000000
  70
    32
  0
VERTEX
  8
0
  5
2FC8
 10
-0.0500000
 20
-87.3056
 30
0.000000
  70
    32
  0
VERTEX
  8
0
  5
2FC9
 10
-0.0500000
 20
-87.3012
 30
0.000000
  70
    32
  0
VERTEX
  8
0
  5
2FCA
 10
-0.0500000
 20
-87.2969
 30
0.000000
  70
    32
  0
VERTEX
  8
0
  5
2FCB
 10
-0.0500000
 20
-87.2925
 30
0.000000
  70
    32
  0
VERTEX
  8
0
  5
2FCC
 10
-0.0500000
 20
-87.2882
 30
0.000000
  70
    32
  0
VERTEX
  8
0
  5
2FCD
 10
-0.0500000
 20
-87.2838
 30
0.000000
  70
    32
  0
VERTEX
  8
0
  5
2FCE
 10
-0.0500000
 20
-87.2795
 30
0.000000
  70
    32
  0
VERTEX
  8
0
  5
2FCF
 10
-0.0500000
 20
-87.2751
 30
0.000000
  70
    32
  0
VERTEX
  8
0
  5
2FD0
 10
-0.0500000
 20
-87.2708
 30
0.000000
  70
    32
  0
VERTEX
  8
0
  5
2FD1
 10
-0.0500000
 20
-87.2665
 30
0.000000
  70
    32
  0
VERTEX
  8
0
  5
2FD2
 10
-0.0500000
 20
-87.2621
 30
0.000000
  70
    32
  0
VERTEX
  8
0
  5
2FD3
 10
-0.0500000
 20
-87.2578
 30
0.000000
  70
    32
  0
VERTEX
  8
0
  5
2FD4
 10
-0.0500000
 20
-87.2535
 30
0.000000
  70
    32
  0
VERTEX
  8
0
  5
2FD5
 10
-0.0500000
 20
-87.2492
 30
0.000000
  70
    32
  0
VERTEX
  8
0
  5
2FD6
 10
-0.0500000
 20
-87.2449
 30
0.000000
  70
    32
  0
VERTEX
  8
0
  5
2FD7
 10
-0.0500000
 20
-87.2406
 30
0.000000
  70
    32
  0
VERTEX
  8
0
  5
2FD8
 10
-0.0500000
 20
-87.2363
 30
0.000000
  70
    32
  0
VERTEX
  8
0
  5
2FD9
 10
-0.0500000
 20
-87.2320
 30
0.000000
  70
    32
  0
VERTEX
  8
0
  5
2FDA
 10
-0.0500000
 20
-87.2277
 30
0.000000
  70
    32
  0
VERTEX
  8
0
  5
2FDB
 10
-0.0500000
 20
-87.2234
 30
0.000000
  70
    32
  0
VERTEX
  8
0
  5
2FDC
 10
-0.0500000
 20
-87.2191
 30
0.000000
  70
    32
  0
VERTEX
  8
0
  5
2FDD
 10
-0.0500000
 20
-87.2147
 30
0.000000
  70
    32
  0
VERTEX
  8
0
  5
2FDE
 10
-0.0500000
 20
-87.2104
 30
0.000000
  70
    32
  0
VERTEX
  8
0
  5
2FDF
 10
-0.0500000
 20
-87.2060
 30
0.000000
  70
    32
  0
VERTEX
  8
0
  5
2FE0
 10
-0.0500000
 20
-87.2016
 30
0.000000
  70
    32
  0
VERTEX
  8
0
  5
2FE1
 10
-0.0500000
 20
-87.1973
 30
0.000000
  70
    32
  0
VERTEX
  8
0
  5
2FE2
 10
-0.0500000
 20
-87.1929
 30
0.000000
  70
    32
  0
VERTEX
  8
0
  5
2FE3
 10
-0.0500000
 20
-87.1884
 30
0.000000
  70
    32
  0
VERTEX
  8
0
  5
2FE4
 10
-0.0500000
 20
-87.1840
 30
0.000000
  70
    32
  0
VERTEX
  8
0
  5
2FE5
 10
-0.0500000
 20
-87.1796
 30
0.000000
  70
    32
  0
VERTEX
  8
0
  5
2FE6
 10
-0.0500000
 20
-87.1751
 30
0.000000
  70
    32
  0
VERTEX
  8
0
  5
2FE7
 10
-0.0500000
 20
-87.1707
 30
0.000000
  70
    32
  0
VERTEX
  8
0
  5
2FE8
 10
-0.0500000
 20
-87.1662
 30
0.000000
  70
    32
  0
VERTEX
  8
0
  5
2FE9
 10
-0.0500000
 20
-87.1617
 30
0.000000
  70
    32
  0
VERTEX
  8
0
  5
2FEA
 10
-0.0500000
 20
-87.1572
 30
0.000000
  70
    32
  0
VERTEX
  8
0
  5
2FEB
 10
-0.0500000
 20
-87.1527
 30
0.000000
  70
    32
  0
VERTEX
  8
0
  5
2FEC
 10
-0.0500000
 20
-87.1482
 30
0.000000
  70
    32
  0
VERTEX
  8
0
  5
2FED
 10
-0.0500000
 20
-87.1436
 30
0.000000
  70
    32
  0
VERTEX
  8
0
  5
2FEE
 10
-0.0500000
 20
-87.1391
 30
0.000000
  70
    32
  0
VERTEX
  8
0
  5
2FEF
 10
-0.0500000
 20
-87.1345
 30
0.000000
  70
    32
  0
VERTEX
  8
0
  5
2FF0
 10
-0.0500000
 20
-87.1300
 30
0.000000
  70
    32
  0
VERTEX
  8
0
  5
2FF1
 10
-0.0500000
 20
-87.1254
 30
0.000000
  70
    32
  0
VERTEX
  8
0
  5
2FF2
 10
-0.0500000
 20
-87.1208
 30
0.000000
  70
    32
  0
VERTEX
  8
0
  5
2FF3
 10
-0.0500000
 20
-87.1162
 30
0.000000
  70
    32
  0
VERTEX
  8
0
  5
2FF4
 10
-0.0500000
 20
-87.1116
 30
0.000000
  70
    32
  0
VERTEX
  8
0
  5
2FF5
 10
-0.0500000
 20
-87.1070
 30
0.000000
  70
    32
  0
VERTEX
  8
0
  5
2FF6
 10
-0.0500000
 20
-87.1023
 30
0.000000
  70
    32
  0
VERTEX
  8
0
  5
2FF7
 10
-0.0500000
 20
-87.0977
 30
0.000000
  70
    32
  0
VERTEX
  8
0
  5
2FF8
 10
-0.0500000
 20
-87.0930
 30
0.000000
  70
    32
  0
VERTEX
  8
0
  5
2FF9
 10
-0.0500000
 20
-87.0884
 30
0.000000
  70
    32
  0
VERTEX
  8
0
  5
2FFA
 10
-0.0500000
 20
-87.0837
 30
0.000000
  70
    32
  0
VERTEX
  8
0
  5
2FFB
 10
-0.0500000
 20
-87.0790
 30
0.000000
  70
    32
  0
VERTEX
  8
0
  5
2FFC
 10
-0.0500000
 20
-87.0743
 30
0.000000
  70
    32
  0
VERTEX
  8
0
  5
2FFD
 10
-0.0500000
 20
-87.0696
 30
0.000000
  70
    32
  0
VERTEX
  8
0
  5
2FFE
 10
-0.0500000
 20
-87.0649
 30
0.000000
  70
    32
  0
VERTEX
  8
0
  5
2FFF
 10
-0.0500000
 20
-87.0602
 30
0.000000
  70
    32
  0
VERTEX
  8
0
  5
3000
 10
-0.0500000
 20
-87.0555
 30
0.000000
  70
    32
  0
VERTEX
  8
0
  5
3001
 10
-0.0500000
 20
-87.0507
 30
0.000000
  70
    32
  0
VERTEX
  8
0
  5
3002
 10
-0.0500000
 20
-87.0460
 30
0.000000
  70
    32
  0
VERTEX
  8
0
  5
3003
 10
-0.0500000
 20
-87.0412
 30
0.000000
  70
    32
  0
VERTEX
  8
0
  5
3004
 10
-0.0500000
 20
-87.0365
 30
0.000000
  70
    32
  0
VERTEX
  8
0
  5
3005
 10
-0.0500000
 20
-87.0317
 30
0.000000
  70
    32
  0
VERTEX
  8
0
  5
3006
 10
-0.0500000
 20
-87.0269
 30
0.000000
  70
    32
  0
VERTEX
  8
0
  5
3007
 10
-0.0500000
 20
-87.0222
 30
0.000000
  70
    32
  0
VERTEX
  8
0
  5
3008
 10
-0.0500000
 20
-87.0174
 30
0.000000
  70
    32
  0
VERTEX
  8
0
  5
3009
 10
-0.0500000
 20
-87.0126
 30
0.000000
  70
    32
  0
VERTEX
  8
0
  5
300A
 10
-0.0500000
 20
-87.0078
 30
0.000000
  70
    32
  0
VERTEX
  8
0
  5
300B
 10
-0.0500000
 20
-87.0029
 30
0.000000
  70
    32
  0
VERTEX
  8
0
  5
300C
 10
-0.0500000
 20
-86.9981
 30
0.000000
  70
    32
  0
VERTEX
  8
0
  5
300D
 10
-0.0500000
 20
-86.9933
 30
0.000000
  70
    32
  0
VERTEX
  8
0
  5
300E
 10
-0.0500000
 20
-86.9885
 30
0.000000
  70
    32
  0
VERTEX
  8
0
  5
300F
 10
-0.0500000
 20
-86.9836
 30
0.000000
  70
    32
  0
VERTEX
  8
0
  5
3010
 10
-0.0500000
 20
-86.9788
 30
0.000000
  70
    32
  0
VERTEX
  8
0
  5
3011
 10
-0.0500000
 20
-86.9739
 30
0.000000
  70
    32
  0
VERTEX
  8
0
  5
3012
 10
-0.0500000
 20
-86.9690
 30
0.000000
  70
    32
  0
VERTEX
  8
0
  5
3013
 10
-0.0500000
 20
-86.9642
 30
0.000000
  70
    32
  0
VERTEX
  8
0
  5
3014
 10
-0.0500000
 20
-86.9593
 30
0.000000
  70
    32
  0
VERTEX
  8
0
  5
3015
 10
-0.0500000
 20
-86.9544
 30
0.000000
  70
    32
  0
VERTEX
  8
0
  5
3016
 10
-0.0500000
 20
-86.9495
 30
0.000000
  70
    32
  0
VERTEX
  8
0
  5
3017
 10
-0.0500000
 20
-86.9447
 30
0.000000
  70
    32
  0
VERTEX
  8
0
  5
3018
 10
-0.0500000
 20
-86.9398
 30
0.000000
  70
    32
  0
VERTEX
  8
0
  5
3019
 10
-0.0500000
 20
-86.9349
 30
0.000000
  70
    32
  0
VERTEX
  8
0
  5
301A
 10
-0.0500000
 20
-86.9300
 30
0.000000
  70
    32
  0
VERTEX
  8
0
  5
301B
 10
-0.0500000
 20
-86.9250
 30
0.000000
  70
    32
  0
VERTEX
  8
0
  5
301C
 10
-0.0500000
 20
-86.9201
 30
0.000000
  70
    32
  0
VERTEX
  8
0
  5
301D
 10
-0.0500000
 20
-86.9152
 30
0.000000
  70
    32
  0
VERTEX
  8
0
  5
301E
 10
-0.0500000
 20
-86.9103
 30
0.000000
  70
    32
  0
VERTEX
  8
0
  5
301F
 10
-0.0500000
 20
-86.9054
 30
0.000000
  70
    32
  0
VERTEX
  8
0
  5
3020
 10
-0.0500000
 20
-86.9004
 30
0.000000
  70
    32
  0
VERTEX
  8
0
  5
3021
 10
-0.0500000
 20
-86.8955
 30
0.000000
  70
    32
  0
VERTEX
  8
0
  5
3022
 10
-0.0500000
 20
-86.8905
 30
0.000000
  70
    32
  0
VERTEX
  8
0
  5
3023
 10
-0.0500000
 20
-86.8856
 30
0.000000
  70
    32
  0
VERTEX
  8
0
  5
3024
 10
-0.0500000
 20
-86.8807
 30
0.000000
  70
    32
  0
VERTEX
  8
0
  5
3025
 10
-0.0500000
 20
-86.8757
 30
0.000000
  70
    32
  0
VERTEX
  8
0
  5
3026
 10
-0.0500000
 20
-86.8708
 30
0.000000
  70
    32
  0
VERTEX
  8
0
  5
3027
 10
-0.0500000
 20
-86.8658
 30
0.000000
  70
    32
  0
VERTEX
  8
0
  5
3028
 10
-0.0500000
 20
-86.8608
 30
0.000000
  70
    32
  0
VERTEX
  8
0
  5
3029
 10
-0.0500000
 20
-86.8559
 30
0.000000
  70
    32
  0
VERTEX
  8
0
  5
302A
 10
-0.0500000
 20
-86.8509
 30
0.000000
  70
    32
  0
VERTEX
  8
0
  5
302B
 10
-0.0500000
 20
-86.8459
 30
0.000000
  70
    32
  0
VERTEX
  8
0
  5
302C
 10
-0.0500000
 20
-86.8410
 30
0.000000
  70
    32
  0
VERTEX
  8
0
  5
302D
 10
-0.0500000
 20
-86.8360
 30
0.000000
  70
    32
  0
VERTEX
  8
0
  5
302E
 10
-0.0500000
 20
-86.8310
 30
0.000000
  70
    32
  0
VERTEX
  8
0
  5
302F
 10
-0.0500000
 20
-86.8260
 30
0.000000
  70
    32
  0
VERTEX
  8
0
  5
3030
 10
-0.0500000
 20
-86.8211
 30
0.000000
  70
    32
  0
VERTEX
  8
0
  5
3031
 10
-0.0500000
 20
-86.8161
 30
0.000000
  70
    32
  0
VERTEX
  8
0
  5
3032
 10
-0.0500000
 20
-86.8111
 30
0.000000
  70
    32
  0
VERTEX
  8
0
  5
3033
 10
-0.0500000
 20
-86.8061
 30
0.000000
  70
    32
  0
VERTEX
  8
0
  5
3034
 10
-0.0500000
 20
-86.8011
 30
0.000000
  70
    32
  0
VERTEX
  8
0
  5
3035
 10
-0.0500000
 20
-86.7962
 30
0.000000
  70
    32
  0
VERTEX
  8
0
  5
3036
 10
-0.0500000
 20
-86.7912
 30
0.000000
  70
    32
  0
VERTEX
  8
0
  5
3037
 10
-0.0500000
 20
-86.7862
 30
0.000000
  70
    32
  0
VERTEX
  8
0
  5
3038
 10
-0.0500000
 20
-86.7812
 30
0.000000
  70
    32
  0
VERTEX
  8
0
  5
3039
 10
-0.0500000
 20
-86.7762
 30
0.000000
  70
    32
  0
VERTEX
  8
0
  5
303A
 10
-0.0500000
 20
-86.7712
 30
0.000000
  70
    32
  0
VERTEX
  8
0
  5
303B
 10
-0.0500000
 20
-86.7662
 30
0.000000
  70
    32
  0
VERTEX
  8
0
  5
303C
 10
-0.0500000
 20
-86.7613
 30
0.000000
  70
    32
  0
VERTEX
  8
0
  5
303D
 10
-0.0500000
 20
-86.7563
 30
0.000000
  70
    32
  0
VERTEX
  8
0
  5
303E
 10
-0.0500000
 20
-86.7513
 30
0.000000
  70
    32
  0
VERTEX
  8
0
  5
303F
 10
-0.0500000
 20
-86.7463
 30
0.000000
  70
    32
  0
VERTEX
  8
0
  5
3040
 10
-0.0500000
 20
-86.7413
 30
0.000000
  70
    32
  0
VERTEX
  8
0
  5
3041
 10
-0.0500000
 20
-86.7363
 30
0.000000
  70
    32
  0
VERTEX
  8
0
  5
3042
 10
-0.0500000
 20
-86.7314
 30
0.000000
  70
    32
  0
VERTEX
  8
0
  5
3043
 10
-0.0500000
 20
-86.7264
 30
0.000000
  70
    32
  0
VERTEX
  8
0
  5
3044
 10
-0.0500000
 20
-86.7214
 30
0.000000
  70
    32
  0
VERTEX
  8
0
  5
3045
 10
-0.0500000
 20
-86.7164
 30
0.000000
  70
    32
  0
VERTEX
  8
0
  5
3046
 10
-0.0500000
 20
-86.7115
 30
0.000000
  70
    32
  0
VERTEX
  8
0
  5
3047
 10
-0.0500000
 20
-86.7065
 30
0.000000
  70
    32
  0
VERTEX
  8
0
  5
3048
 10
-0.0500000
 20
-86.7015
 30
0.000000
  70
    32
  0
VERTEX
  8
0
  5
3049
 10
-0.0500000
 20
-86.6966
 30
0.000000
  70
    32
  0
VERTEX
  8
0
  5
304A
 10
-0.0500000
 20
-86.6916
 30
0.000000
  70
    32
  0
VERTEX
  8
0
  5
304B
 10
-0.0500000
 20
-86.6866
 30
0.000000
  70
    32
  0
VERTEX
  8
0
  5
304C
 10
-0.0500000
 20
-86.6817
 30
0.000000
  70
    32
  0
VERTEX
  8
0
  5
304D
 10
-0.0500000
 20
-86.6767
 30
0.000000
  70
    32
  0
VERTEX
  8
0
  5
304E
 10
-0.0500000
 20
-86.6718
 30
0.000000
  70
    32
  0
VERTEX
  8
0
  5
304F
 10
-0.0500000
 20
-86.6668
 30
0.000000
  70
    32
  0
VERTEX
  8
0
  5
3050
 10
-0.0500000
 20
-86.6619
 30
0.000000
  70
    32
  0
VERTEX
  8
0
  5
3051
 10
-0.0500000
 20
-86.6569
 30
0.000000
  70
    32
  0
VERTEX
  8
0
  5
3052
 10
-0.0500000
 20
-86.6520
 30
0.000000
  70
    32
  0
VERTEX
  8
0
  5
3053
 10
-0.0500000
 20
-86.6471
 30
0.000000
  70
    32
  0
VERTEX
  8
0
  5
3054
 10
-0.0500000
 20
-86.6422
 30
0.000000
  70
    32
  0
VERTEX
  8
0
  5
3055
 10
-0.0500000
 20
-86.6372
 30
0.000000
  70
    32
  0
VERTEX
  8
0
  5
3056
 10
-0.0500000
 20
-86.6323
 30
0.000000
  70
    32
  0
VERTEX
  8
0
  5
3057
 10
-0.0500000
 20
-86.6274
 30
0.000000
  70
    32
  0
VERTEX
  8
0
  5
3058
 10
-0.0500000
 20
-86.6225
 30
0.000000
  70
    32
  0
VERTEX
  8
0
  5
3059
 10
-0.0500000
 20
-86.6176
 30
0.000000
  70
    32
  0
VERTEX
  8
0
  5
305A
 10
-0.0500000
 20
-86.6127
 30
0.000000
  70
    32
  0
VERTEX
  8
0
  5
305B
 10
-0.0500000
 20
-86.6078
 30
0.000000
  70
    32
  0
VERTEX
  8
0
  5
305C
 10
-0.0500000
 20
-86.6029
 30
0.000000
  70
    32
  0
VERTEX
  8
0
  5
305D
 10
-0.0500000
 20
-86.5980
 30
0.000000
  70
    32
  0
VERTEX
  8
0
  5
305E
 10
-0.0500000
 20
-86.5932
 30
0.000000
  70
    32
  0
VERTEX
  8
0
  5
305F
 10
-0.0500000
 20
-86.5883
 30
0.000000
  70
    32
  0
VERTEX
  8
0
  5
3060
 10
-0.0500000
 20
-86.5834
 30
0.000000
  70
    32
  0
VERTEX
  8
0
  5
3061
 10
-0.0500000
 20
-86.5786
 30
0.000000
  70
    32
  0
VERTEX
  8
0
  5
3062
 10
-0.0500000
 20
-86.5737
 30
0.000000
  70
    32
  0
VERTEX
  8
0
  5
3063
 10
-0.0500000
 20
-86.5689
 30
0.000000
  70
    32
  0
VERTEX
  8
0
  5
3064
 10
-0.0500000
 20
-86.5641
 30
0.000000
  70
    32
  0
VERTEX
  8
0
  5
3065
 10
-0.0500000
 20
-86.5592
 30
0.000000
  70
    32
  0
VERTEX
  8
0
  5
3066
 10
-0.0500000
 20
-86.5544
 30
0.000000
  70
    32
  0
VERTEX
  8
0
  5
3067
 10
-0.0500000
 20
-86.5496
 30
0.000000
  70
    32
  0
VERTEX
  8
0
  5
3068
 10
-0.0500000
 20
-86.5448
 30
0.000000
  70
    32
  0
VERTEX
  8
0
  5
3069
 10
-0.0500000
 20
-86.5400
 30
0.000000
  70
    32
  0
VERTEX
  8
0
  5
306A
 10
-0.0500000
 20
-86.5352
 30
0.000000
  70
    32
  0
VERTEX
  8
0
  5
306B
 10
-0.0500000
 20
-86.5304
 30
0.000000
  70
    32
  0
VERTEX
  8
0
  5
306C
 10
-0.0500000
 20
-86.5256
 30
0.000000
  70
    32
  0
VERTEX
  8
0
  5
306D
 10
-0.0500000
 20
-86.5209
 30
0.000000
  70
    32
  0
VERTEX
  8
0
  5
306E
 10
-0.0500000
 20
-86.5161
 30
0.000000
  70
    32
  0
VERTEX
  8
0
  5
306F
 10
-0.0500000
 20
-86.5114
 30
0.000000
  70
    32
  0
VERTEX
  8
0
  5
3070
 10
-0.0500000
 20
-86.5066
 30
0.000000
  70
    32
  0
VERTEX
  8
0
  5
3071
 10
-0.0500000
 20
-86.5019
 30
0.000000
  70
    32
  0
VERTEX
  8
0
  5
3072
 10
-0.0500000
 20
-86.4972
 30
0.000000
  70
    32
  0
VERTEX
  8
0
  5
3073
 10
-0.0500000
 20
-86.4925
 30
0.000000
  70
    32
  0
VERTEX
  8
0
  5
3074
 10
-0.0500000
 20
-86.4878
 30
0.000000
  70
    32
  0
VERTEX
  8
0
  5
3075
 10
-0.0500000
 20
-86.4831
 30
0.000000
  70
    32
  0
VERTEX
  8
0
  5
3076
 10
-0.0500000
 20
-86.4784
 30
0.000000
  70
    32
  0
VERTEX
  8
0
  5
3077
 10
-0.0500000
 20
-86.4738
 30
0.000000
  70
    32
  0
VERTEX
  8
0
  5
3078
 10
-0.0500000
 20
-86.4691
 30
0.000000
  70
    32
  0
VERTEX
  8
0
  5
3079
 10
-0.0500000
 20
-86.4645
 30
0.000000
  70
    32
  0
SEQEND
  8
0
  5
307A
  0
LINE
  5
2E91
  8
0
  6
CONTINUOUS
 62
     3
 10
-0.0500000000001812
 20
-89.2928792199379444
 30
0.0
 11
-0.0500000000001816
 21
-87.8786654322841656
 31
0.0
  0
LINE
  5
2E92
  8
0
  6
CONTINUOUS
 62
     3
 10
-0.0500000000001814
 20
-89.9999861111100472
 30
0.0
 11
-0.0500000000001812
 21
-89.2928792199379444
 31
0.0
  0
LINE
  5
2E93
  8
0
  6
CONTINUOUS
 62
     3
 10
0.0499999999997274
 20
86.464451637260467
 30
0.0
 11
0.0499999999997274
 21
82.5
 31
0.0
  0
POLYLINE
  8
0
  5
307B
  62
3
  66
     1
 10
0.000000
 20
0.000000
 30
0.000000
  70
     8
  0
VERTEX
  8
0
  5
307C
 10
0.0500000
 20
87.8787
 30
0.000000
  70
    32
  0
VERTEX
  8
0
  5
307D
 10
0.0500000
 20
87.8754
 30
0.000000
  70
    32
  0
VERTEX
  8
0
  5
307E
 10
0.0500000
 20
87.8721
 30
0.000000
  70
    32
  0
VERTEX
  8
0
  5
307F
 10
0.0500000
 20
87.8687
 30
0.000000
  70
    32
  0
VERTEX
  8
0
  5
3080
 10
0.0500000
 20
87.8654
 30
0.000000
  70
    32
  0
VERTEX
  8
0
  5
3081
 10
0.0500000
 20
87.8621
 30
0.000000
  70
    32
  0
VERTEX
  8
0
  5
3082
 10
0.0500000
 20
87.8587
 30
0.000000
  70
    32
  0
VERTEX
  8
0
  5
3083
 10
0.0500000
 20
87.8553
 30
0.000000
  70
    32
  0
VERTEX
  8
0
  5
3084
 10
0.0500000
 20
87.8519
 30
0.000000
  70
    32
  0
VERTEX
  8
0
  5
3085
 10
0.0500000
 20
87.8485
 30
0.000000
  70
    32
  0
VERTEX
  8
0
  5
3086
 10
0.0500000
 20
87.8451
 30
0.000000
  70
    32
  0
VERTEX
  8
0
  5
3087
 10
0.0500000
 20
87.8416
 30
0.000000
  70
    32
  0
VERTEX
  8
0
  5
3088
 10
0.0500000
 20
87.8382
 30
0.000000
  70
    32
  0
VERTEX
  8
0
  5
3089
 10
0.0500000
 20
87.8347
 30
0.000000
  70
    32
  0
VERTEX
  8
0
  5
308A
 10
0.0500000
 20
87.8312
 30
0.000000
  70
    32
  0
VERTEX
  8
0
  5
308B
 10
0.0500000
 20
87.8277
 30
0.000000
  70
    32
  0
VERTEX
  8
0
  5
308C
 10
0.0500000
 20
87.8242
 30
0.000000
  70
    32
  0
VERTEX
  8
0
  5
308D
 10
0.0500000
 20
87.8207
 30
0.000000
  70
    32
  0
VERTEX
  8
0
  5
308E
 10
0.0500000
 20
87.8171
 30
0.000000
  70
    32
  0
VERTEX
  8
0
  5
308F
 10
0.0500000
 20
87.8136
 30
0.000000
  70
    32
  0
VERTEX
  8
0
  5
3090
 10
0.0500000
 20
87.8100
 30
0.000000
  70
    32
  0
VERTEX
  8
0
  5
3091
 10
0.0500000
 20
87.8064
 30
0.000000
  70
    32
  0
VERTEX
  8
0
  5
3092
 10
0.0500000
 20
87.8028
 30
0.000000
  70
    32
  0
VERTEX
  8
0
  5
3093
 10
0.0500000
 20
87.7992
 30
0.000000
  70
    32
  0
VERTEX
  8
0
  5
3094
 10
0.0500000
 20
87.7956
 30
0.000000
  70
    32
  0
VERTEX
  8
0
  5
3095
 10
0.0500000
 20
87.7920
 30
0.000000
  70
    32
  0
VERTEX
  8
0
  5
3096
 10
0.0500000
 20
87.7883
 30
0.000000
  70
    32
  0
VERTEX
  8
0
  5
3097
 10
0.0500000
 20
87.7846
 30
0.000000
  70
    32
  0
VERTEX
  8
0
  5
3098
 10
0.0500000
 20
87.7810
 30
0.000000
  70
    32
  0
VERTEX
  8
0
  5
3099
 10
0.0500000
 20
87.7773
 30
0.000000
  70
    32
  0
VERTEX
  8
0
  5
309A
 10
0.0500000
 20
87.7736
 30
0.000000
  70
    32
  0
VERTEX
  8
0
  5
309B
 10
0.0500000
 20
87.7699
 30
0.000000
  70
    32
  0
VERTEX
  8
0
  5
309C
 10
0.0500000
 20
87.7661
 30
0.000000
  70
    32
  0
VERTEX
  8
0
  5
309D
 10
0.0500000
 20
87.7624
 30
0.000000
  70
    32
  0
VERTEX
  8
0
  5
309E
 10
0.0500000
 20
87.7586
 30
0.000000
  70
    32
  0
VERTEX
  8
0
  5
309F
 10
0.0500000
 20
87.7549
 30
0.000000
  70
    32
  0
VERTEX
  8
0
  5
30A0
 10
0.0500000
 20
87.7511
 30
0.000000
  70
    32
  0
VERTEX
  8
0
  5
30A1
 10
0.0500000
 20
87.7473
 30
0.000000
  70
    32
  0
VERTEX
  8
0
  5
30A2
 10
0.0500000
 20
87.7435
 30
0.000000
  70
    32
  0
VERTEX
  8
0
  5
30A3
 10
0.0500000
 20
87.7397
 30
0.000000
  70
    32
  0
VERTEX
  8
0
  5
30A4
 10
0.0500000
 20
87.7359
 30
0.000000
  70
    32
  0
VERTEX
  8
0
  5
30A5
 10
0.0500000
 20
87.7320
 30
0.000000
  70
    32
  0
VERTEX
  8
0
  5
30A6
 10
0.0500000
 20
87.7282
 30
0.000000
  70
    32
  0
VERTEX
  8
0
  5
30A7
 10
0.0500000
 20
87.7243
 30
0.000000
  70
    32
  0
VERTEX
  8
0
  5
30A8
 10
0.0500000
 20
87.7205
 30
0.000000
  70
    32
  0
VERTEX
  8
0
  5
30A9
 10
0.0500000
 20
87.7166
 30
0.000000
  70
    32
  0
VERTEX
  8
0
  5
30AA
 10
0.0500000
 20
87.7127
 30
0.000000
  70
    32
  0
VERTEX
  8
0
  5
30AB
 10
0.0500000
 20
87.7088
 30
0.000000
  70
    32
  0
VERTEX
  8
0
  5
30AC
 10
0.0500000
 20
87.7049
 30
0.000000
  70
    32
  0
VERTEX
  8
0
  5
30AD
 10
0.0500000
 20
87.7010
 30
0.000000
  70
    32
  0
VERTEX
  8
0
  5
30AE
 10
0.0500000
 20
87.6970
 30
0.000000
  70
    32
  0
VERTEX
  8
0
  5
30AF
 10
0.0500000
 20
87.6931
 30
0.000000
  70
    32
  0
VERTEX
  8
0
  5
30B0
 10
0.0500000
 20
87.6891
 30
0.000000
  70
    32
  0
VERTEX
  8
0
  5
30B1
 10
0.0500000
 20
87.6852
 30
0.000000
  70
    32
  0
VERTEX
  8
0
  5
30B2
 10
0.0500000
 20
87.6812
 30
0.000000
  70
    32
  0
VERTEX
  8
0
  5
30B3
 10
0.0500000
 20
87.6772
 30
0.000000
  70
    32
  0
VERTEX
  8
0
  5
30B4
 10
0.0500000
 20
87.6732
 30
0.000000
  70
    32
  0
VERTEX
  8
0
  5
30B5
 10
0.0500000
 20
87.6692
 30
0.000000
  70
    32
  0
VERTEX
  8
0
  5
30B6
 10
0.0500000
 20
87.6652
 30
0.000000
  70
    32
  0
VERTEX
  8
0
  5
30B7
 10
0.0500000
 20
87.6612
 30
0.000000
  70
    32
  0
VERTEX
  8
0
  5
30B8
 10
0.0500000
 20
87.6571
 30
0.000000
  70
    32
  0
VERTEX
  8
0
  5
30B9
 10
0.0500000
 20
87.6531
 30
0.000000
  70
    32
  0
VERTEX
  8
0
  5
30BA
 10
0.0500000
 20
87.6490
 30
0.000000
  70
    32
  0
VERTEX
  8
0
  5
30BB
 10
0.0500000
 20
87.6450
 30
0.000000
  70
    32
  0
VERTEX
  8
0
  5
30BC
 10
0.0500000
 20
87.6409
 30
0.000000
  70
    32
  0
VERTEX
  8
0
  5
30BD
 10
0.0500000
 20
87.6368
 30
0.000000
  70
    32
  0
VERTEX
  8
0
  5
30BE
 10
0.0500000
 20
87.6327
 30
0.000000
  70
    32
  0
VERTEX
  8
0
  5
30BF
 10
0.0500000
 20
87.6286
 30
0.000000
  70
    32
  0
VERTEX
  8
0
  5
30C0
 10
0.0500000
 20
87.6245
 30
0.000000
  70
    32
  0
VERTEX
  8
0
  5
30C1
 10
0.0500000
 20
87.6204
 30
0.000000
  70
    32
  0
VERTEX
  8
0
  5
30C2
 10
0.0500000
 20
87.6163
 30
0.000000
  70
    32
  0
VERTEX
  8
0
  5
30C3
 10
0.0500000
 20
87.6121
 30
0.000000
  70
    32
  0
VERTEX
  8
0
  5
30C4
 10
0.0500000
 20
87.6080
 30
0.000000
  70
    32
  0
VERTEX
  8
0
  5
30C5
 10
0.0500000
 20
87.6038
 30
0.000000
  70
    32
  0
VERTEX
  8
0
  5
30C6
 10
0.0500000
 20
87.5997
 30
0.000000
  70
    32
  0
VERTEX
  8
0
  5
30C7
 10
0.0500000
 20
87.5955
 30
0.000000
  70
    32
  0
VERTEX
  8
0
  5
30C8
 10
0.0500000
 20
87.5913
 30
0.000000
  70
    32
  0
VERTEX
  8
0
  5
30C9
 10
0.0500000
 20
87.5871
 30
0.000000
  70
    32
  0
VERTEX
  8
0
  5
30CA
 10
0.0500000
 20
87.5829
 30
0.000000
  70
    32
  0
VERTEX
  8
0
  5
30CB
 10
0.0500000
 20
87.5787
 30
0.000000
  70
    32
  0
VERTEX
  8
0
  5
30CC
 10
0.0500000
 20
87.5745
 30
0.000000
  70
    32
  0
VERTEX
  8
0
  5
30CD
 10
0.0500000
 20
87.5703
 30
0.000000
  70
    32
  0
VERTEX
  8
0
  5
30CE
 10
0.0500000
 20
87.5661
 30
0.000000
  70
    32
  0
VERTEX
  8
0
  5
30CF
 10
0.0500000
 20
87.5619
 30
0.000000
  70
    32
  0
VERTEX
  8
0
  5
30D0
 10
0.0500000
 20
87.5576
 30
0.000000
  70
    32
  0
VERTEX
  8
0
  5
30D1
 10
0.0500000
 20
87.5534
 30
0.000000
  70
    32
  0
VERTEX
  8
0
  5
30D2
 10
0.0500000
 20
87.5491
 30
0.000000
  70
    32
  0
VERTEX
  8
0
  5
30D3
 10
0.0500000
 20
87.5449
 30
0.000000
  70
    32
  0
VERTEX
  8
0
  5
30D4
 10
0.0500000
 20
87.5406
 30
0.000000
  70
    32
  0
VERTEX
  8
0
  5
30D5
 10
0.0500000
 20
87.5364
 30
0.000000
  70
    32
  0
VERTEX
  8
0
  5
30D6
 10
0.0500000
 20
87.5321
 30
0.000000
  70
    32
  0
VERTEX
  8
0
  5
30D7
 10
0.0500000
 20
87.5278
 30
0.000000
  70
    32
  0
VERTEX
  8
0
  5
30D8
 10
0.0500000
 20
87.5235
 30
0.000000
  70
    32
  0
VERTEX
  8
0
  5
30D9
 10
0.0500000
 20
87.5192
 30
0.000000
  70
    32
  0
VERTEX
  8
0
  5
30DA
 10
0.0500000
 20
87.5149
 30
0.000000
  70
    32
  0
VERTEX
  8
0
  5
30DB
 10
0.0500000
 20
87.5106
 30
0.000000
  70
    32
  0
VERTEX
  8
0
  5
30DC
 10
0.0500000
 20
87.5063
 30
0.000000
  70
    32
  0
VERTEX
  8
0
  5
30DD
 10
0.0500000
 20
87.5020
 30
0.000000
  70
    32
  0
VERTEX
  8
0
  5
30DE
 10
0.0500000
 20
87.4977
 30
0.000000
  70
    32
  0
VERTEX
  8
0
  5
30DF
 10
0.0500000
 20
87.4934
 30
0.000000
  70
    32
  0
VERTEX
  8
0
  5
30E0
 10
0.0500000
 20
87.4890
 30
0.000000
  70
    32
  0
VERTEX
  8
0
  5
30E1
 10
0.0500000
 20
87.4847
 30
0.000000
  70
    32
  0
VERTEX
  8
0
  5
30E2
 10
0.0500000
 20
87.4804
 30
0.000000
  70
    32
  0
VERTEX
  8
0
  5
30E3
 10
0.0500000
 20
87.4760
 30
0.000000
  70
    32
  0
VERTEX
  8
0
  5
30E4
 10
0.0500000
 20
87.4717
 30
0.000000
  70
    32
  0
VERTEX
  8
0
  5
30E5
 10
0.0500000
 20
87.4674
 30
0.000000
  70
    32
  0
VERTEX
  8
0
  5
30E6
 10
0.0500000
 20
87.4630
 30
0.000000
  70
    32
  0
VERTEX
  8
0
  5
30E7
 10
0.0500000
 20
87.4587
 30
0.000000
  70
    32
  0
VERTEX
  8
0
  5
30E8
 10
0.0500000
 20
87.4543
 30
0.000000
  70
    32
  0
VERTEX
  8
0
  5
30E9
 10
0.0500000
 20
87.4499
 30
0.000000
  70
    32
  0
VERTEX
  8
0
  5
30EA
 10
0.0500000
 20
87.4456
 30
0.000000
  70
    32
  0
VERTEX
  8
0
  5
30EB
 10
0.0500000
 20
87.4412
 30
0.000000
  70
    32
  0
VERTEX
  8
0
  5
30EC
 10
0.0500000
 20
87.4369
 30
0.000000
  70
    32
  0
VERTEX
  8
0
  5
30ED
 10
0.0500000
 20
87.4325
 30
0.000000
  70
    32
  0
VERTEX
  8
0
  5
30EE
 10
0.0500000
 20
87.4281
 30
0.000000
  70
    32
  0
VERTEX
  8
0
  5
30EF
 10
0.0500000
 20
87.4237
 30
0.000000
  70
    32
  0
VERTEX
  8
0
  5
30F0
 10
0.0500000
 20
87.4194
 30
0.000000
  70
    32
  0
VERTEX
  8
0
  5
30F1
 10
0.0500000
 20
87.4150
 30
0.000000
  70
    32
  0
VERTEX
  8
0
  5
30F2
 10
0.0500000
 20
87.4106
 30
0.000000
  70
    32
  0
VERTEX
  8
0
  5
30F3
 10
0.0500000
 20
87.4062
 30
0.000000
  70
    32
  0
VERTEX
  8
0
  5
30F4
 10
0.0500000
 20
87.4019
 30
0.000000
  70
    32
  0
VERTEX
  8
0
  5
30F5
 10
0.0500000
 20
87.3975
 30
0.000000
  70
    32
  0
VERTEX
  8
0
  5
30F6
 10
0.0500000
 20
87.3931
 30
0.000000
  70
    32
  0
VERTEX
  8
0
  5
30F7
 10
0.0500000
 20
87.3887
 30
0.000000
  70
    32
  0
VERTEX
  8
0
  5
30F8
 10
0.0500000
 20
87.3843
 30
0.000000
  70
    32
  0
VERTEX
  8
0
  5
30F9
 10
0.0500000
 20
87.3800
 30
0.000000
  70
    32
  0
VERTEX
  8
0
  5
30FA
 10
0.0500000
 20
87.3756
 30
0.000000
  70
    32
  0
VERTEX
  8
0
  5
30FB
 10
0.0500000
 20
87.3712
 30
0.000000
  70
    32
  0
VERTEX
  8
0
  5
30FC
 10
0.0500000
 20
87.3668
 30
0.000000
  70
    32
  0
VERTEX
  8
0
  5
30FD
 10
0.0500000
 20
87.3624
 30
0.000000
  70
    32
  0
VERTEX
  8
0
  5
30FE
 10
0.0500000
 20
87.3580
 30
0.000000
  70
    32
  0
VERTEX
  8
0
  5
30FF
 10
0.0500000
 20
87.3537
 30
0.000000
  70
    32
  0
VERTEX
  8
0
  5
3100
 10
0.0500000
 20
87.3493
 30
0.000000
  70
    32
  0
VERTEX
  8
0
  5
3101
 10
0.0500000
 20
87.3449
 30
0.000000
  70
    32
  0
VERTEX
  8
0
  5
3102
 10
0.0500000
 20
87.3405
 30
0.000000
  70
    32
  0
VERTEX
  8
0
  5
3103
 10
0.0500000
 20
87.3362
 30
0.000000
  70
    32
  0
VERTEX
  8
0
  5
3104
 10
0.0500000
 20
87.3318
 30
0.000000
  70
    32
  0
VERTEX
  8
0
  5
3105
 10
0.0500000
 20
87.3274
 30
0.000000
  70
    32
  0
VERTEX
  8
0
  5
3106
 10
0.0500000
 20
87.3230
 30
0.000000
  70
    32
  0
VERTEX
  8
0
  5
3107
 10
0.0500000
 20
87.3187
 30
0.000000
  70
    32
  0
VERTEX
  8
0
  5
3108
 10
0.0500000
 20
87.3143
 30
0.000000
  70
    32
  0
VERTEX
  8
0
  5
3109
 10
0.0500000
 20
87.3099
 30
0.000000
  70
    32
  0
VERTEX
  8
0
  5
310A
 10
0.0500000
 20
87.3056
 30
0.000000
  70
    32
  0
VERTEX
  8
0
  5
310B
 10
0.0500000
 20
87.3012
 30
0.000000
  70
    32
  0
VERTEX
  8
0
  5
310C
 10
0.0500000
 20
87.2969
 30
0.000000
  70
    32
  0
VERTEX
  8
0
  5
310D
 10
0.0500000
 20
87.2925
 30
0.000000
  70
    32
  0
VERTEX
  8
0
  5
310E
 10
0.0500000
 20
87.2882
 30
0.000000
  70
    32
  0
VERTEX
  8
0
  5
310F
 10
0.0500000
 20
87.2838
 30
0.000000
  70
    32
  0
VERTEX
  8
0
  5
3110
 10
0.0500000
 20
87.2795
 30
0.000000
  70
    32
  0
VERTEX
  8
0
  5
3111
 10
0.0500000
 20
87.2751
 30
0.000000
  70
    32
  0
VERTEX
  8
0
  5
3112
 10
0.0500000
 20
87.2708
 30
0.000000
  70
    32
  0
VERTEX
  8
0
  5
3113
 10
0.0500000
 20
87.2665
 30
0.000000
  70
    32
  0
VERTEX
  8
0
  5
3114
 10
0.0500000
 20
87.2621
 30
0.000000
  70
    32
  0
VERTEX
  8
0
  5
3115
 10
0.0500000
 20
87.2578
 30
0.000000
  70
    32
  0
VERTEX
  8
0
  5
3116
 10
0.0500000
 20
87.2535
 30
0.000000
  70
    32
  0
VERTEX
  8
0
  5
3117
 10
0.0500000
 20
87.2492
 30
0.000000
  70
    32
  0
VERTEX
  8
0
  5
3118
 10
0.0500000
 20
87.2449
 30
0.000000
  70
    32
  0
VERTEX
  8
0
  5
3119
 10
0.0500000
 20
87.2406
 30
0.000000
  70
    32
  0
VERTEX
  8
0
  5
311A
 10
0.0500000
 20
87.2363
 30
0.000000
  70
    32
  0
VERTEX
  8
0
  5
311B
 10
0.0500000
 20
87.2320
 30
0.000000
  70
    32
  0
VERTEX
  8
0
  5
311C
 10
0.0500000
 20
87.2277
 30
0.000000
  70
    32
  0
VERTEX
  8
0
  5
311D
 10
0.0500000
 20
87.2234
 30
0.000000
  70
    32
  0
VERTEX
  8
0
  5
311E
 10
0.0500000
 20
87.2191
 30
0.000000
  70
    32
  0
VERTEX
  8
0
  5
311F
 10
0.0500000
 20
87.2147
 30
0.000000
  70
    32
  0
VERTEX
  8
0
  5
3120
 10
0.0500000
 20
87.2104
 30
0.000000
  70
    32
  0
VERTEX
  8
0
  5
3121
 10
0.0500000
 20
87.2060
 30
0.000000
  70
    32
  0
VERTEX
  8
0
  5
3122
 10
0.0500000
 20
87.2016
 30
0.000000
  70
    32
  0
VERTEX
  8
0
  5
3123
 10
0.0500000
 20
87.1973
 30
0.000000
  70
    32
  0
VERTEX
  8
0
  5
3124
 10
0.0500000
 20
87.1929
 30
0.000000
  70
    32
  0
VERTEX
  8
0
  5
3125
 10
0.0500000
 20
87.1884
 30
0.000000
  70
    32
  0
VERTEX
  8
0
  5
3126
 10
0.0500000
 20
87.1840
 30
0.000000
  70
    32
  0
VERTEX
  8
0
  5
3127
 10
0.0500000
 20
87.1796
 30
0.000000
  70
    32
  0
VERTEX
  8
0
  5
3128
 10
0.0500000
 20
87.1751
 30
0.000000
  70
    32
  0
VERTEX
  8
0
  5
3129
 10
0.0500000
 20
87.1707
 30
0.000000
  70
    32
  0
VERTEX
  8
0
  5
312A
 10
0.0500000
 20
87.1662
 30
0.000000
  70
    32
  0
VERTEX
  8
0
  5
312B
 10
0.0500000
 20
87.1617
 30
0.000000
  70
    32
  0
VERTEX
  8
0
  5
312C
 10
0.0500000
 20
87.1572
 30
0.000000
  70
    32
  0
VERTEX
  8
0
  5
312D
 10
0.0500000
 20
87.1527
 30
0.000000
  70
    32
  0
VERTEX
  8
0
  5
312E
 10
0.0500000
 20
87.1482
 30
0.000000
  70
    32
  0
VERTEX
  8
0
  5
312F
 10
0.0500000
 20
87.1436
 30
0.000000
  70
    32
  0
VERTEX
  8
0
  5
3130
 10
0.0500000
 20
87.1391
 30
0.000000
  70
    32
  0
VERTEX
  8
0
  5
3131
 10
0.0500000
 20
87.1345
 30
0.000000
  70
    32
  0
VERTEX
  8
0
  5
3132
 10
0.0500000
 20
87.1300
 30
0.000000
  70
    32
  0
VERTEX
  8
0
  5
3133
 10
0.0500000
 20
87.1254
 30
0.000000
  70
    32
  0
VERTEX
  8
0
  5
3134
 10
0.0500000
 20
87.1208
 30
0.000000
  70
    32
  0
VERTEX
  8
0
  5
3135
 10
0.0500000
 20
87.1162
 30
0.000000
  70
    32
  0
VERTEX
  8
0
  5
3136
 10
0.0500000
 20
87.1116
 30
0.000000
  70
    32
  0
VERTEX
  8
0
  5
3137
 10
0.0500000
 20
87.1070
 30
0.000000
  70
    32
  0
VERTEX
  8
0
  5
3138
 10
0.0500000
 20
87.1023
 30
0.000000
  70
    32
  0
VERTEX
  8
0
  5
3139
 10
0.0500000
 20
87.0977
 30
0.000000
  70
    32
  0
VERTEX
  8
0
  5
313A
 10
0.0500000
 20
87.0930
 30
0.000000
  70
    32
  0
VERTEX
  8
0
  5
313B
 10
0.0500000
 20
87.0884
 30
0.000000
  70
    32
  0
VERTEX
  8
0
  5
313C
 10
0.0500000
 20
87.0837
 30
0.000000
  70
    32
  0
VERTEX
  8
0
  5
313D
 10
0.0500000
 20
87.0790
 30
0.000000
  70
    32
  0
VERTEX
  8
0
  5
313E
 10
0.0500000
 20
87.0743
 30
0.000000
  70
    32
  0
VERTEX
  8
0
  5
313F
 10
0.0500000
 20
87.0696
 30
0.000000
  70
    32
  0
VERTEX
  8
0
  5
3140
 10
0.0500000
 20
87.0649
 30
0.000000
  70
    32
  0
VERTEX
  8
0
  5
3141
 10
0.0500000
 20
87.0602
 30
0.000000
  70
    32
  0
VERTEX
  8
0
  5
3142
 10
0.0500000
 20
87.0555
 30
0.000000
  70
    32
  0
VERTEX
  8
0
  5
3143
 10
0.0500000
 20
87.0507
 30
0.000000
  70
    32
  0
VERTEX
  8
0
  5
3144
 10
0.0500000
 20
87.0460
 30
0.000000
  70
    32
  0
VERTEX
  8
0
  5
3145
 10
0.0500000
 20
87.0412
 30
0.000000
  70
    32
  0
VERTEX
  8
0
  5
3146
 10
0.0500000
 20
87.0365
 30
0.000000
  70
    32
  0
VERTEX
  8
0
  5
3147
 10
0.0500000
 20
87.0317
 30
0.000000
  70
    32
  0
VERTEX
  8
0
  5
3148
 10
0.0500000
 20
87.0269
 30
0.000000
  70
    32
  0
VERTEX
  8
0
  5
3149
 10
0.0500000
 20
87.0222
 30
0.000000
  70
    32
  0
VERTEX
  8
0
  5
314A
 10
0.0500000
 20
87.0174
 30
0.000000
  70
    32
  0
VERTEX
  8
0
  5
314B
 10
0.0500000
 20
87.0126
 30
0.000000
  70
    32
  0
VERTEX
  8
0
  5
314C
 10
0.0500000
 20
87.0078
 30
0.000000
  70
    32
  0
VERTEX
  8
0
  5
314D
 10
0.0500000
 20
87.0029
 30
0.000000
  70
    32
  0
VERTEX
  8
0
  5
314E
 10
0.0500000
 20
86.9981
 30
0.000000
  70
    32
  0
VERTEX
  8
0
  5
314F
 10
0.0500000
 20
86.9933
 30
0.000000
  70
    32
  0
VERTEX
  8
0
  5
3150
 10
0.0500000
 20
86.9885
 30
0.000000
  70
    32
  0
VERTEX
  8
0
  5
3151
 10
0.0500000
 20
86.9836
 30
0.000000
  70
    32
  0
VERTEX
  8
0
  5
3152
 10
0.0500000
 20
86.9788
 30
0.000000
  70
    32
  0
VERTEX
  8
0
  5
3153
 10
0.0500000
 20
86.9739
 30
0.000000
  70
    32
  0
VERTEX
  8
0
  5
3154
 10
0.0500000
 20
86.9690
 30
0.000000
  70
    32
  0
VERTEX
  8
0
  5
3155
 10
0.0500000
 20
86.9642
 30
0.000000
  70
    32
  0
VERTEX
  8
0
  5
3156
 10
0.0500000
 20
86.9593
 30
0.000000
  70
    32
  0
VERTEX
  8
0
  5
3157
 10
0.0500000
 20
86.9544
 30
0.000000
  70
    32
  0
VERTEX
  8
0
  5
3158
 10
0.0500000
 20
86.9495
 30
0.000000
  70
    32
  0
VERTEX
  8
0
  5
3159
 10
0.0500000
 20
86.9447
 30
0.000000
  70
    32
  0
VERTEX
  8
0
  5
315A
 10
0.0500000
 20
86.9398
 30
0.000000
  70
    32
  0
VERTEX
  8
0
  5
315B
 10
0.0500000
 20
86.9349
 30
0.000000
  70
    32
  0
VERTEX
  8
0
  5
315C
 10
0.0500000
 20
86.9300
 30
0.000000
  70
    32
  0
VERTEX
  8
0
  5
315D
 10
0.0500000
 20
86.9250
 30
0.000000
  70
    32
  0
VERTEX
  8
0
  5
315E
 10
0.0500000
 20
86.9201
 30
0.000000
  70
    32
  0
VERTEX
  8
0
  5
315F
 10
0.0500000
 20
86.9152
 30
0.000000
  70
    32
  0
VERTEX
  8
0
  5
3160
 10
0.0500000
 20
86.9103
 30
0.000000
  70
    32
  0
VERTEX
  8
0
  5
3161
 10
0.0500000
 20
86.9054
 30
0.000000
  70
    32
  0
VERTEX
  8
0
  5
3162
 10
0.0500000
 20
86.9004
 30
0.000000
  70
    32
  0
VERTEX
  8
0
  5
3163
 10
0.0500000
 20
86.8955
 30
0.000000
  70
    32
  0
VERTEX
  8
0
  5
3164
 10
0.0500000
 20
86.8905
 30
0.000000
  70
    32
  0
VERTEX
  8
0
  5
3165
 10
0.0500000
 20
86.8856
 30
0.000000
  70
    32
  0
VERTEX
  8
0
  5
3166
 10
0.0500000
 20
86.8807
 30
0.000000
  70
    32
  0
VERTEX
  8
0
  5
3167
 10
0.0500000
 20
86.8757
 30
0.000000
  70
    32
  0
VERTEX
  8
0
  5
3168
 10
0.0500000
 20
86.8708
 30
0.000000
  70
    32
  0
VERTEX
  8
0
  5
3169
 10
0.0500000
 20
86.8658
 30
0.000000
  70
    32
  0
VERTEX
  8
0
  5
316A
 10
0.0500000
 20
86.8608
 30
0.000000
  70
    32
  0
VERTEX
  8
0
  5
316B
 10
0.0500000
 20
86.8559
 30
0.000000
  70
    32
  0
VERTEX
  8
0
  5
316C
 10
0.0500000
 20
86.8509
 30
0.000000
  70
    32
  0
VERTEX
  8
0
  5
316D
 10
0.0500000
 20
86.8459
 30
0.000000
  70
    32
  0
VERTEX
  8
0
  5
316E
 10
0.0500000
 20
86.8410
 30
0.000000
  70
    32
  0
VERTEX
  8
0
  5
316F
 10
0.0500000
 20
86.8360
 30
0.000000
  70
    32
  0
VERTEX
  8
0
  5
3170
 10
0.0500000
 20
86.8310
 30
0.000000
  70
    32
  0
VERTEX
  8
0
  5
3171
 10
0.0500000
 20
86.8260
 30
0.000000
  70
    32
  0
VERTEX
  8
0
  5
3172
 10
0.0500000
 20
86.8211
 30
0.000000
  70
    32
  0
VERTEX
  8
0
  5
3173
 10
0.0500000
 20
86.8161
 30
0.000000
  70
    32
  0
VERTEX
  8
0
  5
3174
 10
0.0500000
 20
86.8111
 30
0.000000
  70
    32
  0
VERTEX
  8
0
  5
3175
 10
0.0500000
 20
86.8061
 30
0.000000
  70
    32
  0
VERTEX
  8
0
  5
3176
 10
0.0500000
 20
86.8011
 30
0.000000
  70
    32
  0
VERTEX
  8
0
  5
3177
 10
0.0500000
 20
86.7962
 30
0.000000
  70
    32
  0
VERTEX
  8
0
  5
3178
 10
0.0500000
 20
86.7912
 30
0.000000
  70
    32
  0
VERTEX
  8
0
  5
3179
 10
0.0500000
 20
86.7862
 30
0.000000
  70
    32
  0
VERTEX
  8
0
  5
317A
 10
0.0500000
 20
86.7812
 30
0.000000
  70
    32
  0
VERTEX
  8
0
  5
317B
 10
0.0500000
 20
86.7762
 30
0.000000
  70
    32
  0
VERTEX
  8
0
  5
317C
 10
0.0500000
 20
86.7712
 30
0.000000
  70
    32
  0
VERTEX
  8
0
  5
317D
 10
0.0500000
 20
86.7662
 30
0.000000
  70
    32
  0
VERTEX
  8
0
  5
317E
 10
0.0500000
 20
86.7613
 30
0.000000
  70
    32
  0
VERTEX
  8
0
  5
317F
 10
0.0500000
 20
86.7563
 30
0.000000
  70
    32
  0
VERTEX
  8
0
  5
3180
 10
0.0500000
 20
86.7513
 30
0.000000
  70
    32
  0
VERTEX
  8
0
  5
3181
 10
0.0500000
 20
86.7463
 30
0.000000
  70
    32
  0
VERTEX
  8
0
  5
3182
 10
0.0500000
 20
86.7413
 30
0.000000
  70
    32
  0
VERTEX
  8
0
  5
3183
 10
0.0500000
 20
86.7363
 30
0.000000
  70
    32
  0
VERTEX
  8
0
  5
3184
 10
0.0500000
 20
86.7314
 30
0.000000
  70
    32
  0
VERTEX
  8
0
  5
3185
 10
0.0500000
 20
86.7264
 30
0.000000
  70
    32
  0
VERTEX
  8
0
  5
3186
 10
0.0500000
 20
86.7214
 30
0.000000
  70
    32
  0
VERTEX
  8
0
  5
3187
 10
0.0500000
 20
86.7164
 30
0.000000
  70
    32
  0
VERTEX
  8
0
  5
3188
 10
0.0500000
 20
86.7115
 30
0.000000
  70
    32
  0
VERTEX
  8
0
  5
3189
 10
0.0500000
 20
86.7065
 30
0.000000
  70
    32
  0
VERTEX
  8
0
  5
318A
 10
0.0500000
 20
86.7015
 30
0.000000
  70
    32
  0
VERTEX
  8
0
  5
318B
 10
0.0500000
 20
86.6966
 30
0.000000
  70
    32
  0
VERTEX
  8
0
  5
318C
 10
0.0500000
 20
86.6916
 30
0.000000
  70
    32
  0
VERTEX
  8
0
  5
318D
 10
0.0500000
 20
86.6866
 30
0.000000
  70
    32
  0
VERTEX
  8
0
  5
318E
 10
0.0500000
 20
86.6817
 30
0.000000
  70
    32
  0
VERTEX
  8
0
  5
318F
 10
0.0500000
 20
86.6767
 30
0.000000
  70
    32
  0
VERTEX
  8
0
  5
3190
 10
0.0500000
 20
86.6718
 30
0.000000
  70
    32
  0
VERTEX
  8
0
  5
3191
 10
0.0500000
 20
86.6668
 30
0.000000
  70
    32
  0
VERTEX
  8
0
  5
3192
 10
0.0500000
 20
86.6619
 30
0.000000
  70
    32
  0
VERTEX
  8
0
  5
3193
 10
0.0500000
 20
86.6569
 30
0.000000
  70
    32
  0
VERTEX
  8
0
  5
3194
 10
0.0500000
 20
86.6520
 30
0.000000
  70
    32
  0
VERTEX
  8
0
  5
3195
 10
0.0500000
 20
86.6471
 30
0.000000
  70
    32
  0
VERTEX
  8
0
  5
3196
 10
0.0500000
 20
86.6422
 30
0.000000
  70
    32
  0
VERTEX
  8
0
  5
3197
 10
0.0500000
 20
86.6372
 30
0.000000
  70
    32
  0
VERTEX
  8
0
  5
3198
 10
0.0500000
 20
86.6323
 30
0.000000
  70
    32
  0
VERTEX
  8
0
  5
3199
 10
0.0500000
 20
86.6274
 30
0.000000
  70
    32
  0
VERTEX
  8
0
  5
319A
 10
0.0500000
 20
86.6225
 30
0.000000
  70
    32
  0
VERTEX
  8
0
  5
319B
 10
0.0500000
 20
86.6176
 30
0.000000
  70
    32
  0
VERTEX
  8
0
  5
319C
 10
0.0500000
 20
86.6127
 30
0.000000
  70
    32
  0
VERTEX
  8
0
  5
319D
 10
0.0500000
 20
86.6078
 30
0.000000
  70
    32
  0
VERTEX
  8
0
  5
319E
 10
0.0500000
 20
86.6029
 30
0.000000
  70
    32
  0
VERTEX
  8
0
  5
319F
 10
0.0500000
 20
86.5980
 30
0.000000
  70
    32
  0
VERTEX
  8
0
  5
31A0
 10
0.0500000
 20
86.5932
 30
0.000000
  70
    32
  0
VERTEX
  8
0
  5
31A1
 10
0.0500000
 20
86.5883
 30
0.000000
  70
    32
  0
VERTEX
  8
0
  5
31A2
 10
0.0500000
 20
86.5834
 30
0.000000
  70
    32
  0
VERTEX
  8
0
  5
31A3
 10
0.0500000
 20
86.5786
 30
0.000000
  70
    32
  0
VERTEX
  8
0
  5
31A4
 10
0.0500000
 20
86.5737
 30
0.000000
  70
    32
  0
VERTEX
  8
0
  5
31A5
 10
0.0500000
 20
86.5689
 30
0.000000
  70
    32
  0
VERTEX
  8
0
  5
31A6
 10
0.0500000
 20
86.5641
 30
0.000000
  70
    32
  0
VERTEX
  8
0
  5
31A7
 10
0.0500000
 20
86.5592
 30
0.000000
  70
    32
  0
VERTEX
  8
0
  5
31A8
 10
0.0500000
 20
86.5544
 30
0.000000
  70
    32
  0
VERTEX
  8
0
  5
31A9
 10
0.0500000
 20
86.5496
 30
0.000000
  70
    32
  0
VERTEX
  8
0
  5
31AA
 10
0.0500000
 20
86.5448
 30
0.000000
  70
    32
  0
VERTEX
  8
0
  5
31AB
 10
0.0500000
 20
86.5400
 30
0.000000
  70
    32
  0
VERTEX
  8
0
  5
31AC
 10
0.0500000
 20
86.5352
 30
0.000000
  70
    32
  0
VERTEX
  8
0
  5
31AD
 10
0.0500000
 20
86.5304
 30
0.000000
  70
    32
  0
VERTEX
  8
0
  5
31AE
 10
0.0500000
 20
86.5256
 30
0.000000
  70
    32
  0
VERTEX
  8
0
  5
31AF
 10
0.0500000
 20
86.5209
 30
0.000000
  70
    32
  0
VERTEX
  8
0
  5
31B0
 10
0.0500000
 20
86.5161
 30
0.000000
  70
    32
  0
VERTEX
  8
0
  5
31B1
 10
0.0500000
 20
86.5114
 30
0.000000
  70
    32
  0
VERTEX
  8
0
  5
31B2
 10
0.0500000
 20
86.5066
 30
0.000000
  70
    32
  0
VERTEX
  8
0
  5
31B3
 10
0.0500000
 20
86.5019
 30
0.000000
  70
    32
  0
VERTEX
  8
0
  5
31B4
 10
0.0500000
 20
86.4972
 30
0.000000
  70
    32
  0
VERTEX
  8
0
  5
31B5
 10
0.0500000
 20
86.4925
 30
0.000000
  70
    32
  0
VERTEX
  8
0
  5
31B6
 10
0.0500000
 20
86.4878
 30
0.000000
  70
    32
  0
VERTEX
  8
0
  5
31B7
 10
0.0500000
 20
86.4831
 30
0.000000
  70
    32
  0
VERTEX
  8
0
  5
31B8
 10
0.0500000
 20
86.4784
 30
0.000000
  70
    32
  0
VERTEX
  8
0
  5
31B9
 10
0.0500000
 20
86.4738
 30
0.000000
  70
    32
  0
VERTEX
  8
0
  5
31BA
 10
0.0500000
 20
86.4691
 30
0.000000
  70
    32
  0
VERTEX
  8
0
  5
31BB
 10
0.0500000
 20
86.4645
 30
0.000000
  70
    32
  0
SEQEND
  8
0
  5
31BC
  0
LINE
  5
2E95
  8
0
  6
CONTINUOUS
 62
     3
 10
0.0499999999997278
 20
89.2928792199379444
 30
0.0
 11
0.0499999999997275
 21
87.8786654322841656
 31
0.0
  0
LINE
  5
2E96
  8
0
  6
CONTINUOUS
 62
     3
 10
0.0499999999997277
 20
89.9999861111102746
 30
0.0
 11
0.0499999999997278
 21
89.292879219938186
 31
0.0
  0
LINE
  5
2E97
  8
0
  6
CONTINUOUS
 62
     3
 10
0.0499999999997278
 20
-89.2928792199379444
 30
0.0
 11
0.0499999999997277
 21
-89.9999861111100472
 31
0.0
  0
LINE
  5
2E98
  8
0
  6
CONTINUOUS
 62
     3
 10
0.0499999999997275
 20
-87.8786654322841656
 30
0.0
 11
0.0499999999997278
 21
-89.2928792199379444
 31
0.0
  0
POLYLINE
  8
0
  5
31BD
  62
3
  66
     1
 10
0.000000
 20
0.000000
 30
0.000000
  70
     8
  0
VERTEX
  8
0
  5
31BE
 10
0.0500000
 20
-86.4645
 30
0.000000
  70
    32
  0
VERTEX
  8
0
  5
31BF
 10
0.0500000
 20
-86.4691
 30
0.000000
  70
    32
  0
VERTEX
  8
0
  5
31C0
 10
0.0500000
 20
-86.4738
 30
0.000000
  70
    32
  0
VERTEX
  8
0
  5
31C1
 10
0.0500000
 20
-86.4784
 30
0.000000
  70
    32
  0
VERTEX
  8
0
  5
31C2
 10
0.0500000
 20
-86.4831
 30
0.000000
  70
    32
  0
VERTEX
  8
0
  5
31C3
 10
0.0500000
 20
-86.4878
 30
0.000000
  70
    32
  0
VERTEX
  8
0
  5
31C4
 10
0.0500000
 20
-86.4925
 30
0.000000
  70
    32
  0
VERTEX
  8
0
  5
31C5
 10
0.0500000
 20
-86.4972
 30
0.000000
  70
    32
  0
VERTEX
  8
0
  5
31C6
 10
0.0500000
 20
-86.5019
 30
0.000000
  70
    32
  0
VERTEX
  8
0
  5
31C7
 10
0.0500000
 20
-86.5066
 30
0.000000
  70
    32
  0
VERTEX
  8
0
  5
31C8
 10
0.0500000
 20
-86.5114
 30
0.000000
  70
    32
  0
VERTEX
  8
0
  5
31C9
 10
0.0500000
 20
-86.5161
 30
0.000000
  70
    32
  0
VERTEX
  8
0
  5
31CA
 10
0.0500000
 20
-86.5209
 30
0.000000
  70
    32
  0
VERTEX
  8
0
  5
31CB
 10
0.0500000
 20
-86.5256
 30
0.000000
  70
    32
  0
VERTEX
  8
0
  5
31CC
 10
0.0500000
 20
-86.5304
 30
0.000000
  70
    32
  0
VERTEX
  8
0
  5
31CD
 10
0.0500000
 20
-86.5352
 30
0.000000
  70
    32
  0
VERTEX
  8
0
  5
31CE
 10
0.0500000
 20
-86.5400
 30
0.000000
  70
    32
  0
VERTEX
  8
0
  5
31CF
 10
0.0500000
 20
-86.5448
 30
0.000000
  70
    32
  0
VERTEX
  8
0
  5
31D0
 10
0.0500000
 20
-86.5496
 30
0.000000
  70
    32
  0
VERTEX
  8
0
  5
31D1
 10
0.0500000
 20
-86.5544
 30
0.000000
  70
    32
  0
VERTEX
  8
0
  5
31D2
 10
0.0500000
 20
-86.5592
 30
0.000000
  70
    32
  0
VERTEX
  8
0
  5
31D3
 10
0.0500000
 20
-86.5641
 30
0.000000
  70
    32
  0
VERTEX
  8
0
  5
31D4
 10
0.0500000
 20
-86.5689
 30
0.000000
  70
    32
  0
VERTEX
  8
0
  5
31D5
 10
0.0500000
 20
-86.5737
 30
0.000000
  70
    32
  0
VERTEX
  8
0
  5
31D6
 10
0.0500000
 20
-86.5786
 30
0.000000
  70
    32
  0
VERTEX
  8
0
  5
31D7
 10
0.0500000
 20
-86.5834
 30
0.000000
  70
    32
  0
VERTEX
  8
0
  5
31D8
 10
0.0500000
 20
-86.5883
 30
0.000000
  70
    32
  0
VERTEX
  8
0
  5
31D9
 10
0.0500000
 20
-86.5932
 30
0.000000
  70
    32
  0
VERTEX
  8
0
  5
31DA
 10
0.0500000
 20
-86.5980
 30
0.000000
  70
    32
  0
VERTEX
  8
0
  5
31DB
 10
0.0500000
 20
-86.6029
 30
0.000000
  70
    32
  0
VERTEX
  8
0
  5
31DC
 10
0.0500000
 20
-86.6078
 30
0.000000
  70
    32
  0
VERTEX
  8
0
  5
31DD
 10
0.0500000
 20
-86.6127
 30
0.000000
  70
    32
  0
VERTEX
  8
0
  5
31DE
 10
0.0500000
 20
-86.6176
 30
0.000000
  70
    32
  0
VERTEX
  8
0
  5
31DF
 10
0.0500000
 20
-86.6225
 30
0.000000
  70
    32
  0
VERTEX
  8
0
  5
31E0
 10
0.0500000
 20
-86.6274
 30
0.000000
  70
    32
  0
VERTEX
  8
0
  5
31E1
 10
0.0500000
 20
-86.6323
 30
0.000000
  70
    32
  0
VERTEX
  8
0
  5
31E2
 10
0.0500000
 20
-86.6372
 30
0.000000
  70
    32
  0
VERTEX
  8
0
  5
31E3
 10
0.0500000
 20
-86.6422
 30
0.000000
  70
    32
  0
VERTEX
  8
0
  5
31E4
 10
0.0500000
 20
-86.6471
 30
0.000000
  70
    32
  0
VERTEX
  8
0
  5
31E5
 10
0.0500000
 20
-86.6520
 30
0.000000
  70
    32
  0
VERTEX
  8
0
  5
31E6
 10
0.0500000
 20
-86.6569
 30
0.000000
  70
    32
  0
VERTEX
  8
0
  5
31E7
 10
0.0500000
 20
-86.6619
 30
0.000000
  70
    32
  0
VERTEX
  8
0
  5
31E8
 10
0.0500000
 20
-86.6668
 30
0.000000
  70
    32
  0
VERTEX
  8
0
  5
31E9
 10
0.0500000
 20
-86.6718
 30
0.000000
  70
    32
  0
VERTEX
  8
0
  5
31EA
 10
0.0500000
 20
-86.6767
 30
0.000000
  70
    32
  0
VERTEX
  8
0
  5
31EB
 10
0.0500000
 20
-86.6817
 30
0.000000
  70
    32
  0
VERTEX
  8
0
  5
31EC
 10
0.0500000
 20
-86.6866
 30
0.000000
  70
    32
  0
VERTEX
  8
0
  5
31ED
 10
0.0500000
 20
-86.6916
 30
0.000000
  70
    32
  0
VERTEX
  8
0
  5
31EE
 10
0.0500000
 20
-86.6966
 30
0.000000
  70
    32
  0
VERTEX
  8
0
  5
31EF
 10
0.0500000
 20
-86.7015
 30
0.000000
  70
    32
  0
VERTEX
  8
0
  5
31F0
 10
0.0500000
 20
-86.7065
 30
0.000000
  70
    32
  0
VERTEX
  8
0
  5
31F1
 10
0.0500000
 20
-86.7115
 30
0.000000
  70
    32
  0
VERTEX
  8
0
  5
31F2
 10
0.0500000
 20
-86.7164
 30
0.000000
  70
    32
  0
VERTEX
  8
0
  5
31F3
 10
0.0500000
 20
-86.7214
 30
0.000000
  70
    32
  0
VERTEX
  8
0
  5
31F4
 10
0.0500000
 20
-86.7264
 30
0.000000
  70
    32
  0
VERTEX
  8
0
  5
31F5
 10
0.0500000
 20
-86.7314
 30
0.000000
  70
    32
  0
VERTEX
  8
0
  5
31F6
 10
0.0500000
 20
-86.7363
 30
0.000000
  70
    32
  0
VERTEX
  8
0
  5
31F7
 10
0.0500000
 20
-86.7413
 30
0.000000
  70
    32
  0
VERTEX
  8
0
  5
31F8
 10
0.0500000
 20
-86.7463
 30
0.000000
  70
    32
  0
VERTEX
  8
0
  5
31F9
 10
0.0500000
 20
-86.7513
 30
0.000000
  70
    32
  0
VERTEX
  8
0
  5
31FA
 10
0.0500000
 20
-86.7563
 30
0.000000
  70
    32
  0
VERTEX
  8
0
  5
31FB
 10
0.0500000
 20
-86.7613
 30
0.000000
  70
    32
  0
VERTEX
  8
0
  5
31FC
 10
0.0500000
 20
-86.7662
 30
0.000000
  70
    32
  0
VERTEX
  8
0
  5
31FD
 10
0.0500000
 20
-86.7712
 30
0.000000
  70
    32
  0
VERTEX
  8
0
  5
31FE
 10
0.0500000
 20
-86.7762
 30
0.000000
  70
    32
  0
VERTEX
  8
0
  5
31FF
 10
0.0500000
 20
-86.7812
 30
0.000000
  70
    32
  0
VERTEX
  8
0
  5
3200
 10
0.0500000
 20
-86.7862
 30
0.000000
  70
    32
  0
VERTEX
  8
0
  5
3201
 10
0.0500000
 20
-86.7912
 30
0.000000
  70
    32
  0
VERTEX
  8
0
  5
3202
 10
0.0500000
 20
-86.7962
 30
0.000000
  70
    32
  0
VERTEX
  8
0
  5
3203
 10
0.0500000
 20
-86.8011
 30
0.000000
  70
    32
  0
VERTEX
  8
0
  5
3204
 10
0.0500000
 20
-86.8061
 30
0.000000
  70
    32
  0
VERTEX
  8
0
  5
3205
 10
0.0500000
 20
-86.8111
 30
0.000000
  70
    32
  0
VERTEX
  8
0
  5
3206
 10
0.0500000
 20
-86.8161
 30
0.000000
  70
    32
  0
VERTEX
  8
0
  5
3207
 10
0.0500000
 20
-86.8211
 30
0.000000
  70
    32
  0
VERTEX
  8
0
  5
3208
 10
0.0500000
 20
-86.8260
 30
0.000000
  70
    32
  0
VERTEX
  8
0
  5
3209
 10
0.0500000
 20
-86.8310
 30
0.000000
  70
    32
  0
VERTEX
  8
0
  5
320A
 10
0.0500000
 20
-86.8360
 30
0.000000
  70
    32
  0
VERTEX
  8
0
  5
320B
 10
0.0500000
 20
-86.8410
 30
0.000000
  70
    32
  0
VERTEX
  8
0
  5
320C
 10
0.0500000
 20
-86.8459
 30
0.000000
  70
    32
  0
VERTEX
  8
0
  5
320D
 10
0.0500000
 20
-86.8509
 30
0.000000
  70
    32
  0
VERTEX
  8
0
  5
320E
 10
0.0500000
 20
-86.8559
 30
0.000000
  70
    32
  0
VERTEX
  8
0
  5
320F
 10
0.0500000
 20
-86.8608
 30
0.000000
  70
    32
  0
VERTEX
  8
0
  5
3210
 10
0.0500000
 20
-86.8658
 30
0.000000
  70
    32
  0
VERTEX
  8
0
  5
3211
 10
0.0500000
 20
-86.8708
 30
0.000000
  70
    32
  0
VERTEX
  8
0
  5
3212
 10
0.0500000
 20
-86.8757
 30
0.000000
  70
    32
  0
VERTEX
  8
0
  5
3213
 10
0.0500000
 20
-86.8807
 30
0.000000
  70
    32
  0
VERTEX
  8
0
  5
3214
 10
0.0500000
 20
-86.8856
 30
0.000000
  70
    32
  0
VERTEX
  8
0
  5
3215
 10
0.0500000
 20
-86.8905
 30
0.000000
  70
    32
  0
VERTEX
  8
0
  5
3216
 10
0.0500000
 20
-86.8955
 30
0.000000
  70
    32
  0
VERTEX
  8
0
  5
3217
 10
0.0500000
 20
-86.9004
 30
0.000000
  70
    32
  0
VERTEX
  8
0
  5
3218
 10
0.0500000
 20
-86.9054
 30
0.000000
  70
    32
  0
VERTEX
  8
0
  5
3219
 10
0.0500000
 20
-86.9103
 30
0.000000
  70
    32
  0
VERTEX
  8
0
  5
321A
 10
0.0500000
 20
-86.9152
 30
0.000000
  70
    32
  0
VERTEX
  8
0
  5
321B
 10
0.0500000
 20
-86.9201
 30
0.000000
  70
    32
  0
VERTEX
  8
0
  5
321C
 10
0.0500000
 20
-86.9250
 30
0.000000
  70
    32
  0
VERTEX
  8
0
  5
321D
 10
0.0500000
 20
-86.9300
 30
0.000000
  70
    32
  0
VERTEX
  8
0
  5
321E
 10
0.0500000
 20
-86.9349
 30
0.000000
  70
    32
  0
VERTEX
  8
0
  5
321F
 10
0.0500000
 20
-86.9398
 30
0.000000
  70
    32
  0
VERTEX
  8
0
  5
3220
 10
0.0500000
 20
-86.9447
 30
0.000000
  70
    32
  0
VERTEX
  8
0
  5
3221
 10
0.0500000
 20
-86.9495
 30
0.000000
  70
    32
  0
VERTEX
  8
0
  5
3222
 10
0.0500000
 20
-86.9544
 30
0.000000
  70
    32
  0
VERTEX
  8
0
  5
3223
 10
0.0500000
 20
-86.9593
 30
0.000000
  70
    32
  0
VERTEX
  8
0
  5
3224
 10
0.0500000
 20
-86.9642
 30
0.000000
  70
    32
  0
VERTEX
  8
0
  5
3225
 10
0.0500000
 20
-86.9690
 30
0.000000
  70
    32
  0
VERTEX
  8
0
  5
3226
 10
0.0500000
 20
-86.9739
 30
0.000000
  70
    32
  0
VERTEX
  8
0
  5
3227
 10
0.0500000
 20
-86.9788
 30
0.000000
  70
    32
  0
VERTEX
  8
0
  5
3228
 10
0.0500000
 20
-86.9836
 30
0.000000
  70
    32
  0
VERTEX
  8
0
  5
3229
 10
0.0500000
 20
-86.9885
 30
0.000000
  70
    32
  0
VERTEX
  8
0
  5
322A
 10
0.0500000
 20
-86.9933
 30
0.000000
  70
    32
  0
VERTEX
  8
0
  5
322B
 10
0.0500000
 20
-86.9981
 30
0.000000
  70
    32
  0
VERTEX
  8
0
  5
322C
 10
0.0500000
 20
-87.0029
 30
0.000000
  70
    32
  0
VERTEX
  8
0
  5
322D
 10
0.0500000
 20
-87.0078
 30
0.000000
  70
    32
  0
VERTEX
  8
0
  5
322E
 10
0.0500000
 20
-87.0126
 30
0.000000
  70
    32
  0
VERTEX
  8
0
  5
322F
 10
0.0500000
 20
-87.0174
 30
0.000000
  70
    32
  0
VERTEX
  8
0
  5
3230
 10
0.0500000
 20
-87.0222
 30
0.000000
  70
    32
  0
VERTEX
  8
0
  5
3231
 10
0.0500000
 20
-87.0269
 30
0.000000
  70
    32
  0
VERTEX
  8
0
  5
3232
 10
0.0500000
 20
-87.0317
 30
0.000000
  70
    32
  0
VERTEX
  8
0
  5
3233
 10
0.0500000
 20
-87.0365
 30
0.000000
  70
    32
  0
VERTEX
  8
0
  5
3234
 10
0.0500000
 20
-87.0412
 30
0.000000
  70
    32
  0
VERTEX
  8
0
  5
3235
 10
0.0500000
 20
-87.0460
 30
0.000000
  70
    32
  0
VERTEX
  8
0
  5
3236
 10
0.0500000
 20
-87.0507
 30
0.000000
  70
    32
  0
VERTEX
  8
0
  5
3237
 10
0.0500000
 20
-87.0555
 30
0.000000
  70
    32
  0
VERTEX
  8
0
  5
3238
 10
0.0500000
 20
-87.0602
 30
0.000000
  70
    32
  0
VERTEX
  8
0
  5
3239
 10
0.0500000
 20
-87.0649
 30
0.000000
  70
    32
  0
VERTEX
  8
0
  5
323A
 10
0.0500000
 20
-87.0696
 30
0.000000
  70
    32
  0
VERTEX
  8
0
  5
323B
 10
0.0500000
 20
-87.0743
 30
0.000000
  70
    32
  0
VERTEX
  8
0
  5
323C
 10
0.0500000
 20
-87.0790
 30
0.000000
  70
    32
  0
VERTEX
  8
0
  5
323D
 10
0.0500000
 20
-87.0837
 30
0.000000
  70
    32
  0
VERTEX
  8
0
  5
323E
 10
0.0500000
 20
-87.0884
 30
0.000000
  70
    32
  0
VERTEX
  8
0
  5
323F
 10
0.0500000
 20
-87.0930
 30
0.000000
  70
    32
  0
VERTEX
  8
0
  5
3240
 10
0.0500000
 20
-87.0977
 30
0.000000
  70
    32
  0
VERTEX
  8
0
  5
3241
 10
0.0500000
 20
-87.1023
 30
0.000000
  70
    32
  0
VERTEX
  8
0
  5
3242
 10
0.0500000
 20
-87.1070
 30
0.000000
  70
    32
  0
VERTEX
  8
0
  5
3243
 10
0.0500000
 20
-87.1116
 30
0.000000
  70
    32
  0
VERTEX
  8
0
  5
3244
 10
0.0500000
 20
-87.1162
 30
0.000000
  70
    32
  0
VERTEX
  8
0
  5
3245
 10
0.0500000
 20
-87.1208
 30
0.000000
  70
    32
  0
VERTEX
  8
0
  5
3246
 10
0.0500000
 20
-87.1254
 30
0.000000
  70
    32
  0
VERTEX
  8
0
  5
3247
 10
0.0500000
 20
-87.1300
 30
0.000000
  70
    32
  0
VERTEX
  8
0
  5
3248
 10
0.0500000
 20
-87.1345
 30
0.000000
  70
    32
  0
VERTEX
  8
0
  5
3249
 10
0.0500000
 20
-87.1391
 30
0.000000
  70
    32
  0
VERTEX
  8
0
  5
324A
 10
0.0500000
 20
-87.1436
 30
0.000000
  70
    32
  0
VERTEX
  8
0
  5
324B
 10
0.0500000
 20
-87.1482
 30
0.000000
  70
    32
  0
VERTEX
  8
0
  5
324C
 10
0.0500000
 20
-87.1527
 30
0.000000
  70
    32
  0
VERTEX
  8
0
  5
324D
 10
0.0500000
 20
-87.1572
 30
0.000000
  70
    32
  0
VERTEX
  8
0
  5
324E
 10
0.0500000
 20
-87.1617
 30
0.000000
  70
    32
  0
VERTEX
  8
0
  5
324F
 10
0.0500000
 20
-87.1662
 30
0.000000
  70
    32
  0
VERTEX
  8
0
  5
3250
 10
0.0500000
 20
-87.1707
 30
0.000000
  70
    32
  0
VERTEX
  8
0
  5
3251
 10
0.0500000
 20
-87.1751
 30
0.000000
  70
    32
  0
VERTEX
  8
0
  5
3252
 10
0.0500000
 20
-87.1796
 30
0.000000
  70
    32
  0
VERTEX
  8
0
  5
3253
 10
0.0500000
 20
-87.1840
 30
0.000000
  70
    32
  0
VERTEX
  8
0
  5
3254
 10
0.0500000
 20
-87.1884
 30
0.000000
  70
    32
  0
VERTEX
  8
0
  5
3255
 10
0.0500000
 20
-87.1929
 30
0.000000
  70
    32
  0
VERTEX
  8
0
  5
3256
 10
0.0500000
 20
-87.1973
 30
0.000000
  70
    32
  0
VERTEX
  8
0
  5
3257
 10
0.0500000
 20
-87.2016
 30
0.000000
  70
    32
  0
VERTEX
  8
0
  5
3258
 10
0.0500000
 20
-87.2060
 30
0.000000
  70
    32
  0
VERTEX
  8
0
  5
3259
 10
0.0500000
 20
-87.2104
 30
0.000000
  70
    32
  0
VERTEX
  8
0
  5
325A
 10
0.0500000
 20
-87.2147
 30
0.000000
  70
    32
  0
VERTEX
  8
0
  5
325B
 10
0.0500000
 20
-87.2191
 30
0.000000
  70
    32
  0
VERTEX
  8
0
  5
325C
 10
0.0500000
 20
-87.2234
 30
0.000000
  70
    32
  0
VERTEX
  8
0
  5
325D
 10
0.0500000
 20
-87.2277
 30
0.000000
  70
    32
  0
VERTEX
  8
0
  5
325E
 10
0.0500000
 20
-87.2320
 30
0.000000
  70
    32
  0
VERTEX
  8
0
  5
325F
 10
0.0500000
 20
-87.2363
 30
0.000000
  70
    32
  0
VERTEX
  8
0
  5
3260
 10
0.0500000
 20
-87.2406
 30
0.000000
  70
    32
  0
VERTEX
  8
0
  5
3261
 10
0.0500000
 20
-87.2449
 30
0.000000
  70
    32
  0
VERTEX
  8
0
  5
3262
 10
0.0500000
 20
-87.2492
 30
0.000000
  70
    32
  0
VERTEX
  8
0
  5
3263
 10
0.0500000
 20
-87.2535
 30
0.000000
  70
    32
  0
VERTEX
  8
0
  5
3264
 10
0.0500000
 20
-87.2578
 30
0.000000
  70
    32
  0
VERTEX
  8
0
  5
3265
 10
0.0500000
 20
-87.2621
 30
0.000000
  70
    32
  0
VERTEX
  8
0
  5
3266
 10
0.0500000
 20
-87.2665
 30
0.000000
  70
    32
  0
VERTEX
  8
0
  5
3267
 10
0.0500000
 20
-87.2708
 30
0.000000
  70
    32
  0
VERTEX
  8
0
  5
3268
 10
0.0500000
 20
-87.2751
 30
0.000000
  70
    32
  0
VERTEX
  8
0
  5
3269
 10
0.0500000
 20
-87.2795
 30
0.000000
  70
    32
  0
VERTEX
  8
0
  5
326A
 10
0.0500000
 20
-87.2838
 30
0.000000
  70
    32
  0
VERTEX
  8
0
  5
326B
 10
0.0500000
 20
-87.2882
 30
0.000000
  70
    32
  0
VERTEX
  8
0
  5
326C
 10
0.0500000
 20
-87.2925
 30
0.000000
  70
    32
  0
VERTEX
  8
0
  5
326D
 10
0.0500000
 20
-87.2969
 30
0.000000
  70
    32
  0
VERTEX
  8
0
  5
326E
 10
0.0500000
 20
-87.3012
 30
0.000000
  70
    32
  0
VERTEX
  8
0
  5
326F
 10
0.0500000
 20
-87.3056
 30
0.000000
  70
    32
  0
VERTEX
  8
0
  5
3270
 10
0.0500000
 20
-87.3099
 30
0.000000
  70
    32
  0
VERTEX
  8
0
  5
3271
 10
0.0500000
 20
-87.3143
 30
0.000000
  70
    32
  0
VERTEX
  8
0
  5
3272
 10
0.0500000
 20
-87.3187
 30
0.000000
  70
    32
  0
VERTEX
  8
0
  5
3273
 10
0.0500000
 20
-87.3230
 30
0.000000
  70
    32
  0
VERTEX
  8
0
  5
3274
 10
0.0500000
 20
-87.3274
 30
0.000000
  70
    32
  0
VERTEX
  8
0
  5
3275
 10
0.0500000
 20
-87.3318
 30
0.000000
  70
    32
  0
VERTEX
  8
0
  5
3276
 10
0.0500000
 20
-87.3362
 30
0.000000
  70
    32
  0
VERTEX
  8
0
  5
3277
 10
0.0500000
 20
-87.3405
 30
0.000000
  70
    32
  0
VERTEX
  8
0
  5
3278
 10
0.0500000
 20
-87.3449
 30
0.000000
  70
    32
  0
VERTEX
  8
0
  5
3279
 10
0.0500000
 20
-87.3493
 30
0.000000
  70
    32
  0
VERTEX
  8
0
  5
327A
 10
0.0500000
 20
-87.3537
 30
0.000000
  70
    32
  0
VERTEX
  8
0
  5
327B
 10
0.0500000
 20
-87.3580
 30
0.000000
  70
    32
  0
VERTEX
  8
0
  5
327C
 10
0.0500000
 20
-87.3624
 30
0.000000
  70
    32
  0
VERTEX
  8
0
  5
327D
 10
0.0500000
 20
-87.3668
 30
0.000000
  70
    32
  0
VERTEX
  8
0
  5
327E
 10
0.0500000
 20
-87.3712
 30
0.000000
  70
    32
  0
VERTEX
  8
0
  5
327F
 10
0.0500000
 20
-87.3756
 30
0.000000
  70
    32
  0
VERTEX
  8
0
  5
3280
 10
0.0500000
 20
-87.3800
 30
0.000000
  70
    32
  0
VERTEX
  8
0
  5
3281
 10
0.0500000
 20
-87.3843
 30
0.000000
  70
    32
  0
VERTEX
  8
0
  5
3282
 10
0.0500000
 20
-87.3887
 30
0.000000
  70
    32
  0
VERTEX
  8
0
  5
3283
 10
0.0500000
 20
-87.3931
 30
0.000000
  70
    32
  0
VERTEX
  8
0
  5
3284
 10
0.0500000
 20
-87.3975
 30
0.000000
  70
    32
  0
VERTEX
  8
0
  5
3285
 10
0.0500000
 20
-87.4019
 30
0.000000
  70
    32
  0
VERTEX
  8
0
  5
3286
 10
0.0500000
 20
-87.4062
 30
0.000000
  70
    32
  0
VERTEX
  8
0
  5
3287
 10
0.0500000
 20
-87.4106
 30
0.000000
  70
    32
  0
VERTEX
  8
0
  5
3288
 10
0.0500000
 20
-87.4150
 30
0.000000
  70
    32
  0
VERTEX
  8
0
  5
3289
 10
0.0500000
 20
-87.4194
 30
0.000000
  70
    32
  0
VERTEX
  8
0
  5
328A
 10
0.0500000
 20
-87.4237
 30
0.000000
  70
    32
  0
VERTEX
  8
0
  5
328B
 10
0.0500000
 20
-87.4281
 30
0.000000
  70
    32
  0
VERTEX
  8
0
  5
328C
 10
0.0500000
 20
-87.4325
 30
0.000000
  70
    32
  0
VERTEX
  8
0
  5
328D
 10
0.0500000
 20
-87.4369
 30
0.000000
  70
    32
  0
VERTEX
  8
0
  5
328E
 10
0.0500000
 20
-87.4412
 30
0.000000
  70
    32
  0
VERTEX
  8
0
  5
328F
 10
0.0500000
 20
-87.4456
 30
0.000000
  70
    32
  0
VERTEX
  8
0
  5
3290
 10
0.0500000
 20
-87.4499
 30
0.000000
  70
    32
  0
VERTEX
  8
0
  5
3291
 10
0.0500000
 20
-87.4543
 30
0.000000
  70
    32
  0
VERTEX
  8
0
  5
3292
 10
0.0500000
 20
-87.4587
 30
0.000000
  70
    32
  0
VERTEX
  8
0
  5
3293
 10
0.0500000
 20
-87.4630
 30
0.000000
  70
    32
  0
VERTEX
  8
0
  5
3294
 10
0.0500000
 20
-87.4674
 30
0.000000
  70
    32
  0
VERTEX
  8
0
  5
3295
 10
0.0500000
 20
-87.4717
 30
0.000000
  70
    32
  0
VERTEX
  8
0
  5
3296
 10
0.0500000
 20
-87.4760
 30
0.000000
  70
    32
  0
VERTEX
  8
0
  5
3297
 10
0.0500000
 20
-87.4804
 30
0.000000
  70
    32
  0
VERTEX
  8
0
  5
3298
 10
0.0500000
 20
-87.4847
 30
0.000000
  70
    32
  0
VERTEX
  8
0
  5
3299
 10
0.0500000
 20
-87.4890
 30
0.000000
  70
    32
  0
VERTEX
  8
0
  5
329A
 10
0.0500000
 20
-87.4934
 30
0.000000
  70
    32
  0
VERTEX
  8
0
  5
329B
 10
0.0500000
 20
-87.4977
 30
0.000000
  70
    32
  0
VERTEX
  8
0
  5
329C
 10
0.0500000
 20
-87.5020
 30
0.000000
  70
    32
  0
VERTEX
  8
0
  5
329D
 10
0.0500000
 20
-87.5063
 30
0.000000
  70
    32
  0
VERTEX
  8
0
  5
329E
 10
0.0500000
 20
-87.5106
 30
0.000000
  70
    32
  0
VERTEX
  8
0
  5
329F
 10
0.0500000
 20
-87.5149
 30
0.000000
  70
    32
  0
VERTEX
  8
0
  5
32A0
 10
0.0500000
 20
-87.5192
 30
0.000000
  70
    32
  0
VERTEX
  8
0
  5
32A1
 10
0.0500000
 20
-87.5235
 30
0.000000
  70
    32
  0
VERTEX
  8
0
  5
32A2
 10
0.0500000
 20
-87.5278
 30
0.000000
  70
    32
  0
VERTEX
  8
0
  5
32A3
 10
0.0500000
 20
-87.5321
 30
0.000000
  70
    32
  0
VERTEX
  8
0
  5
32A4
 10
0.0500000
 20
-87.5364
 30
0.000000
  70
    32
  0
VERTEX
  8
0
  5
32A5
 10
0.0500000
 20
-87.5406
 30
0.000000
  70
    32
  0
VERTEX
  8
0
  5
32A6
 10
0.0500000
 20
-87.5449
 30
0.000000
  70
    32
  0
VERTEX
  8
0
  5
32A7
 10
0.0500000
 20
-87.5491
 30
0.000000
  70
    32
  0
VERTEX
  8
0
  5
32A8
 10
0.0500000
 20
-87.5534
 30
0.000000
  70
    32
  0
VERTEX
  8
0
  5
32A9
 10
0.0500000
 20
-87.5576
 30
0.000000
  70
    32
  0
VERTEX
  8
0
  5
32AA
 10
0.0500000
 20
-87.5619
 30
0.000000
  70
    32
  0
VERTEX
  8
0
  5
32AB
 10
0.0500000
 20
-87.5661
 30
0.000000
  70
    32
  0
VERTEX
  8
0
  5
32AC
 10
0.0500000
 20
-87.5703
 30
0.000000
  70
    32
  0
VERTEX
  8
0
  5
32AD
 10
0.0500000
 20
-87.5745
 30
0.000000
  70
    32
  0
VERTEX
  8
0
  5
32AE
 10
0.0500000
 20
-87.5787
 30
0.000000
  70
    32
  0
VERTEX
  8
0
  5
32AF
 10
0.0500000
 20
-87.5829
 30
0.000000
  70
    32
  0
VERTEX
  8
0
  5
32B0
 10
0.0500000
 20
-87.5871
 30
0.000000
  70
    32
  0
VERTEX
  8
0
  5
32B1
 10
0.0500000
 20
-87.5913
 30
0.000000
  70
    32
  0
VERTEX
  8
0
  5
32B2
 10
0.0500000
 20
-87.5955
 30
0.000000
  70
    32
  0
VERTEX
  8
0
  5
32B3
 10
0.0500000
 20
-87.5997
 30
0.000000
  70
    32
  0
VERTEX
  8
0
  5
32B4
 10
0.0500000
 20
-87.6038
 30
0.000000
  70
    32
  0
VERTEX
  8
0
  5
32B5
 10
0.0500000
 20
-87.6080
 30
0.000000
  70
    32
  0
VERTEX
  8
0
  5
32B6
 10
0.0500000
 20
-87.6121
 30
0.000000
  70
    32
  0
VERTEX
  8
0
  5
32B7
 10
0.0500000
 20
-87.6163
 30
0.000000
  70
    32
  0
VERTEX
  8
0
  5
32B8
 10
0.0500000
 20
-87.6204
 30
0.000000
  70
    32
  0
VERTEX
  8
0
  5
32B9
 10
0.0500000
 20
-87.6245
 30
0.000000
  70
    32
  0
VERTEX
  8
0
  5
32BA
 10
0.0500000
 20
-87.6286
 30
0.000000
  70
    32
  0
VERTEX
  8
0
  5
32BB
 10
0.0500000
 20
-87.6327
 30
0.000000
  70
    32
  0
VERTEX
  8
0
  5
32BC
 10
0.0500000
 20
-87.6368
 30
0.000000
  70
    32
  0
VERTEX
  8
0
  5
32BD
 10
0.0500000
 20
-87.6409
 30
0.000000
  70
    32
  0
VERTEX
  8
0
  5
32BE
 10
0.0500000
 20
-87.6450
 30
0.000000
  70
    32
  0
VERTEX
  8
0
  5
32BF
 10
0.0500000
 20
-87.6490
 30
0.000000
  70
    32
  0
VERTEX
  8
0
  5
32C0
 10
0.0500000
 20
-87.6531
 30
0.000000
  70
    32
  0
VERTEX
  8
0
  5
32C1
 10
0.0500000
 20
-87.6571
 30
0.000000
  70
    32
  0
VERTEX
  8
0
  5
32C2
 10
0.0500000
 20
-87.6612
 30
0.000000
  70
    32
  0
VERTEX
  8
0
  5
32C3
 10
0.0500000
 20
-87.6652
 30
0.000000
  70
    32
  0
VERTEX
  8
0
  5
32C4
 10
0.0500000
 20
-87.6692
 30
0.000000
  70
    32
  0
VERTEX
  8
0
  5
32C5
 10
0.0500000
 20
-87.6732
 30
0.000000
  70
    32
  0
VERTEX
  8
0
  5
32C6
 10
0.0500000
 20
-87.6772
 30
0.000000
  70
    32
  0
VERTEX
  8
0
  5
32C7
 10
0.0500000
 20
-87.6812
 30
0.000000
  70
    32
  0
VERTEX
  8
0
  5
32C8
 10
0.0500000
 20
-87.6852
 30
0.000000
  70
    32
  0
VERTEX
  8
0
  5
32C9
 10
0.0500000
 20
-87.6891
 30
0.000000
  70
    32
  0
VERTEX
  8
0
  5
32CA
 10
0.0500000
 20
-87.6931
 30
0.000000
  70
    32
  0
VERTEX
  8
0
  5
32CB
 10
0.0500000
 20
-87.6970
 30
0.000000
  70
    32
  0
VERTEX
  8
0
  5
32CC
 10
0.0500000
 20
-87.7010
 30
0.000000
  70
    32
  0
VERTEX
  8
0
  5
32CD
 10
0.0500000
 20
-87.7049
 30
0.000000
  70
    32
  0
VERTEX
  8
0
  5
32CE
 10
0.0500000
 20
-87.7088
 30
0.000000
  70
    32
  0
VERTEX
  8
0
  5
32CF
 10
0.0500000
 20
-87.7127
 30
0.000000
  70
    32
  0
VERTEX
  8
0
  5
32D0
 10
0.0500000
 20
-87.7166
 30
0.000000
  70
    32
  0
VERTEX
  8
0
  5
32D1
 10
0.0500000
 20
-87.7205
 30
0.000000
  70
    32
  0
VERTEX
  8
0
  5
32D2
 10
0.0500000
 20
-87.7243
 30
0.000000
  70
    32
  0
VERTEX
  8
0
  5
32D3
 10
0.0500000
 20
-87.7282
 30
0.000000
  70
    32
  0
VERTEX
  8
0
  5
32D4
 10
0.0500000
 20
-87.7320
 30
0.000000
  70
    32
  0
VERTEX
  8
0
  5
32D5
 10
0.0500000
 20
-87.7359
 30
0.000000
  70
    32
  0
VERTEX
  8
0
  5
32D6
 10
0.0500000
 20
-87.7397
 30
0.000000
  70
    32
  0
VERTEX
  8
0
  5
32D7
 10
0.0500000
 20
-87.7435
 30
0.000000
  70
    32
  0
VERTEX
  8
0
  5
32D8
 10
0.0500000
 20
-87.7473
 30
0.000000
  70
    32
  0
VERTEX
  8
0
  5
32D9
 10
0.0500000
 20
-87.7511
 30
0.000000
  70
    32
  0
VERTEX
  8
0
  5
32DA
 10
0.0500000
 20
-87.7549
 30
0.000000
  70
    32
  0
VERTEX
  8
0
  5
32DB
 10
0.0500000
 20
-87.7586
 30
0.000000
  70
    32
  0
VERTEX
  8
0
  5
32DC
 10
0.0500000
 20
-87.7624
 30
0.000000
  70
    32
  0
VERTEX
  8
0
  5
32DD
 10
0.0500000
 20
-87.7661
 30
0.000000
  70
    32
  0
VERTEX
  8
0
  5
32DE
 10
0.0500000
 20
-87.7699
 30
0.000000
  70
    32
  0
VERTEX
  8
0
  5
32DF
 10
0.0500000
 20
-87.7736
 30
0.000000
  70
    32
  0
VERTEX
  8
0
  5
32E0
 10
0.0500000
 20
-87.7773
 30
0.000000
  70
    32
  0
VERTEX
  8
0
  5
32E1
 10
0.0500000
 20
-87.7810
 30
0.000000
  70
    32
  0
VERTEX
  8
0
  5
32E2
 10
0.0500000
 20
-87.7846
 30
0.000000
  70
    32
  0
VERTEX
  8
0
  5
32E3
 10
0.0500000
 20
-87.7883
 30
0.000000
  70
    32
  0
VERTEX
  8
0
  5
32E4
 10
0.0500000
 20
-87.7920
 30
0.000000
  70
    32
  0
VERTEX
  8
0
  5
32E5
 10
0.0500000
 20
-87.7956
 30
0.000000
  70
    32
  0
VERTEX
  8
0
  5
32E6
 10
0.0500000
 20
-87.7992
 30
0.000000
  70
    32
  0
VERTEX
  8
0
  5
32E7
 10
0.0500000
 20
-87.8028
 30
0.000000
  70
    32
  0
VERTEX
  8
0
  5
32E8
 10
0.0500000
 20
-87.8064
 30
0.000000
  70
    32
  0
VERTEX
  8
0
  5
32E9
 10
0.0500000
 20
-87.8100
 30
0.000000
  70
    32
  0
VERTEX
  8
0
  5
32EA
 10
0.0500000
 20
-87.8136
 30
0.000000
  70
    32
  0
VERTEX
  8
0
  5
32EB
 10
0.0500000
 20
-87.8171
 30
0.000000
  70
    32
  0
VERTEX
  8
0
  5
32EC
 10
0.0500000
 20
-87.8207
 30
0.000000
  70
    32
  0
VERTEX
  8
0
  5
32ED
 10
0.0500000
 20
-87.8242
 30
0.000000
  70
    32
  0
VERTEX
  8
0
  5
32EE
 10
0.0500000
 20
-87.8277
 30
0.000000
  70
    32
  0
VERTEX
  8
0
  5
32EF
 10
0.0500000
 20
-87.8312
 30
0.000000
  70
    32
  0
VERTEX
  8
0
  5
32F0
 10
0.0500000
 20
-87.8347
 30
0.000000
  70
    32
  0
VERTEX
  8
0
  5
32F1
 10
0.0500000
 20
-87.8382
 30
0.000000
  70
    32
  0
VERTEX
  8
0
  5
32F2
 10
0.0500000
 20
-87.8416
 30
0.000000
  70
    32
  0
VERTEX
  8
0
  5
32F3
 10
0.0500000
 20
-87.8451
 30
0.000000
  70
    32
  0
VERTEX
  8
0
  5
32F4
 10
0.0500000
 20
-87.8485
 30
0.000000
  70
    32
  0
VERTEX
  8
0
  5
32F5
 10
0.0500000
 20
-87.8519
 30
0.000000
  70
    32
  0
VERTEX
  8
0
  5
32F6
 10
0.0500000
 20
-87.8553
 30
0.000000
  70
    32
  0
VERTEX
  8
0
  5
32F7
 10
0.0500000
 20
-87.8587
 30
0.000000
  70
    32
  0
VERTEX
  8
0
  5
32F8
 10
0.0500000
 20
-87.8621
 30
0.000000
  70
    32
  0
VERTEX
  8
0
  5
32F9
 10
0.0500000
 20
-87.8654
 30
0.000000
  70
    32
  0
VERTEX
  8
0
  5
32FA
 10
0.0500000
 20
-87.8687
 30
0.000000
  70
    32
  0
VERTEX
  8
0
  5
32FB
 10
0.0500000
 20
-87.8721
 30
0.000000
  70
    32
  0
VERTEX
  8
0
  5
32FC
 10
0.0500000
 20
-87.8754
 30
0.000000
  70
    32
  0
VERTEX
  8
0
  5
32FD
 10
0.0500000
 20
-87.8787
 30
0.000000
  70
    32
  0
SEQEND
  8
0
  5
32FE
  0
LINE
  5
2E9A
  8
0
  6
CONTINUOUS
 62
     3
 10
0.0499999999997274
 20
-82.4999999999995453
 30
0.0
 11
0.0499999999997274
 21
-86.464451637260467
 31
0.0
  0
LINE
  5
2E9B
  8
0
  6
CONTINUOUS
 62
     3
 10
0.0499999999997274
 20
81.5
 30
0.0
 11
0.0499999999995
 21
68.1499999999998636
 31
0.0
  0
LINE
  5
2E9C
  8
0
  6
CONTINUOUS
 62
     3
 10
-4.1804255640258807
 20
-68.1500000000000909
 30
-0.0000000000000009
 11
0.0499999999997272
 21
-68.1500000000000909
 31
0.0000000000000001
  0
ARC
  5
2E9D
  8
0
  6
CONTINUOUS
 62
     3
 10
0.0000000000002276
 20
0.0
 30
0.0
 40
42.4999999999999716
 50
270.0674068149762093
 51
89.9325931850238049
  0
ARC
  5
2E9E
  8
0
  6
CONTINUOUS
 62
     3
 10
-7.0000000000004539
 20
-66.2500000000004547
 30
-0.0000000000000016
 40
3.4000000000001842
 50
33.9744759502960321
 51
326.0255240497156137
  0
LINE
  5
2E9F
  8
0
  6
CONTINUOUS
 62
     3
 10
0.0499999999995
 20
64.3499999999999091
 30
0.0
 11
0.0499999999997274
 21
42.4999705882250893
 31
0.0
  0
LINE
  5
2EA0
  8
0
  6
CONTINUOUS
 62
     3
 10
-4.1804255640258807
 20
64.3500000000001364
 30
-0.0000000000000009
 11
0.0499999999994998
 21
64.3500000000001364
 31
0.0000000000000001
  0
ARC
  5
2EA1
  8
0
  6
CONTINUOUS
 62
     3
 10
-7.0000000000004539
 20
66.2500000000002274
 30
-0.0000000000000016
 40
3.3999999999999919
 50
33.9744759502843792
 51
326.025524049703904
  0
LINE
  5
2EA2
  8
0
  6
CONTINUOUS
 62
     3
 10
0.0499999999997274
 20
68.1500000000000909
 30
0.0
 11
-4.1804255640258807
 21
68.1500000000000909
 31
-0.0000000000000009
  0
LINE
  5
2EA3
  8
0
  6
CONTINUOUS
 62
     3
 10
0.0499999999995
 20
-64.3500000000001364
 30
0.0
 11
-4.1804255640258807
 21
-64.3500000000001364
 31
-0.0000000000000009
  0
LINE
  5
2EA4
  8
0
  6
CONTINUOUS
 62
     3
 10
0.0499999999997274
 20
-42.4999705882250893
 30
0.0
 11
0.0499999999995
 21
-64.3500000000001364
 31
0.0
  0
ARC
  5
2EA5
  8
0
  6
CONTINUOUS
 62
     3
 10
0.0000000000000005
 20
0.0
 30
0.0
 40
90.0
 50
270.031830990255628
 51
89.9681690097443862
  0
ARC
  5
2EA6
  8
0
  6
CONTINUOUS
 62
     3
 10
-0.0000000000002267
 20
0.0
 30
0.0
 40
89.2928932188134752
 50
270.0320830585961858
 51
89.9679169414038427
  0
LINE
  5
2EA7
  8
0
  6
CONTINUOUS
 62
     3
 10
-0.0500000000004091
 20
68.25
 30
0.0
 11
-0.0500000000004091
 21
81.5
 31
0.0
  0
LINE
  5
2EA8
  8
0
  6
CONTINUOUS
 62
     3
 10
-0.0500000000001816
 20
87.8786654322841656
 30
0.0
 11
-0.0500000000001812
 21
89.2928792199379444
 31
0.0
  0
ARC
  5
2EA9
  8
0
  6
CONTINUOUS
 62
     3
 10
-0.0000000000002267
 20
0.0
 30
0.0
 40
89.2928932188134752
 50
90.0320830585961716
 51
269.9679169414038142
  0
POLYLINE
  8
0
  5
32FF
  62
3
  66
     1
 10
0.000000
 20
0.000000
 30
0.000000
  70
     8
  0
VERTEX
  8
0
  5
3300
 10
-0.0500000
 20
86.4645
 30
0.000000
  70
    32
  0
VERTEX
  8
0
  5
3301
 10
-0.0500000
 20
86.4691
 30
0.000000
  70
    32
  0
VERTEX
  8
0
  5
3302
 10
-0.0500000
 20
86.4738
 30
0.000000
  70
    32
  0
VERTEX
  8
0
  5
3303
 10
-0.0500000
 20
86.4784
 30
0.000000
  70
    32
  0
VERTEX
  8
0
  5
3304
 10
-0.0500000
 20
86.4831
 30
0.000000
  70
    32
  0
VERTEX
  8
0
  5
3305
 10
-0.0500000
 20
86.4878
 30
0.000000
  70
    32
  0
VERTEX
  8
0
  5
3306
 10
-0.0500000
 20
86.4925
 30
0.000000
  70
    32
  0
VERTEX
  8
0
  5
3307
 10
-0.0500000
 20
86.4972
 30
0.000000
  70
    32
  0
VERTEX
  8
0
  5
3308
 10
-0.0500000
 20
86.5019
 30
0.000000
  70
    32
  0
VERTEX
  8
0
  5
3309
 10
-0.0500000
 20
86.5066
 30
0.000000
  70
    32
  0
VERTEX
  8
0
  5
330A
 10
-0.0500000
 20
86.5114
 30
0.000000
  70
    32
  0
VERTEX
  8
0
  5
330B
 10
-0.0500000
 20
86.5161
 30
0.000000
  70
    32
  0
VERTEX
  8
0
  5
330C
 10
-0.0500000
 20
86.5209
 30
0.000000
  70
    32
  0
VERTEX
  8
0
  5
330D
 10
-0.0500000
 20
86.5256
 30
0.000000
  70
    32
  0
VERTEX
  8
0
  5
330E
 10
-0.0500000
 20
86.5304
 30
0.000000
  70
    32
  0
VERTEX
  8
0
  5
330F
 10
-0.0500000
 20
86.5352
 30
0.000000
  70
    32
  0
VERTEX
  8
0
  5
3310
 10
-0.0500000
 20
86.5400
 30
0.000000
  70
    32
  0
VERTEX
  8
0
  5
3311
 10
-0.0500000
 20
86.5448
 30
0.000000
  70
    32
  0
VERTEX
  8
0
  5
3312
 10
-0.0500000
 20
86.5496
 30
0.000000
  70
    32
  0
VERTEX
  8
0
  5
3313
 10
-0.0500000
 20
86.5544
 30
0.000000
  70
    32
  0
VERTEX
  8
0
  5
3314
 10
-0.0500000
 20
86.5592
 30
0.000000
  70
    32
  0
VERTEX
  8
0
  5
3315
 10
-0.0500000
 20
86.5641
 30
0.000000
  70
    32
  0
VERTEX
  8
0
  5
3316
 10
-0.0500000
 20
86.5689
 30
0.000000
  70
    32
  0
VERTEX
  8
0
  5
3317
 10
-0.0500000
 20
86.5737
 30
0.000000
  70
    32
  0
VERTEX
  8
0
  5
3318
 10
-0.0500000
 20
86.5786
 30
0.000000
  70
    32
  0
VERTEX
  8
0
  5
3319
 10
-0.0500000
 20
86.5834
 30
0.000000
  70
    32
  0
VERTEX
  8
0
  5
331A
 10
-0.0500000
 20
86.5883
 30
0.000000
  70
    32
  0
VERTEX
  8
0
  5
331B
 10
-0.0500000
 20
86.5932
 30
0.000000
  70
    32
  0
VERTEX
  8
0
  5
331C
 10
-0.0500000
 20
86.5980
 30
0.000000
  70
    32
  0
VERTEX
  8
0
  5
331D
 10
-0.0500000
 20
86.6029
 30
0.000000
  70
    32
  0
VERTEX
  8
0
  5
331E
 10
-0.0500000
 20
86.6078
 30
0.000000
  70
    32
  0
VERTEX
  8
0
  5
331F
 10
-0.0500000
 20
86.6127
 30
0.000000
  70
    32
  0
VERTEX
  8
0
  5
3320
 10
-0.0500000
 20
86.6176
 30
0.000000
  70
    32
  0
VERTEX
  8
0
  5
3321
 10
-0.0500000
 20
86.6225
 30
0.000000
  70
    32
  0
VERTEX
  8
0
  5
3322
 10
-0.0500000
 20
86.6274
 30
0.000000
  70
    32
  0
VERTEX
  8
0
  5
3323
 10
-0.0500000
 20
86.6323
 30
0.000000
  70
    32
  0
VERTEX
  8
0
  5
3324
 10
-0.0500000
 20
86.6372
 30
0.000000
  70
    32
  0
VERTEX
  8
0
  5
3325
 10
-0.0500000
 20
86.6422
 30
0.000000
  70
    32
  0
VERTEX
  8
0
  5
3326
 10
-0.0500000
 20
86.6471
 30
0.000000
  70
    32
  0
VERTEX
  8
0
  5
3327
 10
-0.0500000
 20
86.6520
 30
0.000000
  70
    32
  0
VERTEX
  8
0
  5
3328
 10
-0.0500000
 20
86.6569
 30
0.000000
  70
    32
  0
VERTEX
  8
0
  5
3329
 10
-0.0500000
 20
86.6619
 30
0.000000
  70
    32
  0
VERTEX
  8
0
  5
332A
 10
-0.0500000
 20
86.6668
 30
0.000000
  70
    32
  0
VERTEX
  8
0
  5
332B
 10
-0.0500000
 20
86.6718
 30
0.000000
  70
    32
  0
VERTEX
  8
0
  5
332C
 10
-0.0500000
 20
86.6767
 30
0.000000
  70
    32
  0
VERTEX
  8
0
  5
332D
 10
-0.0500000
 20
86.6817
 30
0.000000
  70
    32
  0
VERTEX
  8
0
  5
332E
 10
-0.0500000
 20
86.6866
 30
0.000000
  70
    32
  0
VERTEX
  8
0
  5
332F
 10
-0.0500000
 20
86.6916
 30
0.000000
  70
    32
  0
VERTEX
  8
0
  5
3330
 10
-0.0500000
 20
86.6966
 30
0.000000
  70
    32
  0
VERTEX
  8
0
  5
3331
 10
-0.0500000
 20
86.7015
 30
0.000000
  70
    32
  0
VERTEX
  8
0
  5
3332
 10
-0.0500000
 20
86.7065
 30
0.000000
  70
    32
  0
VERTEX
  8
0
  5
3333
 10
-0.0500000
 20
86.7115
 30
0.000000
  70
    32
  0
VERTEX
  8
0
  5
3334
 10
-0.0500000
 20
86.7164
 30
0.000000
  70
    32
  0
VERTEX
  8
0
  5
3335
 10
-0.0500000
 20
86.7214
 30
0.000000
  70
    32
  0
VERTEX
  8
0
  5
3336
 10
-0.0500000
 20
86.7264
 30
0.000000
  70
    32
  0
VERTEX
  8
0
  5
3337
 10
-0.0500000
 20
86.7314
 30
0.000000
  70
    32
  0
VERTEX
  8
0
  5
3338
 10
-0.0500000
 20
86.7363
 30
0.000000
  70
    32
  0
VERTEX
  8
0
  5
3339
 10
-0.0500000
 20
86.7413
 30
0.000000
  70
    32
  0
VERTEX
  8
0
  5
333A
 10
-0.0500000
 20
86.7463
 30
0.000000
  70
    32
  0
VERTEX
  8
0
  5
333B
 10
-0.0500000
 20
86.7513
 30
0.000000
  70
    32
  0
VERTEX
  8
0
  5
333C
 10
-0.0500000
 20
86.7563
 30
0.000000
  70
    32
  0
VERTEX
  8
0
  5
333D
 10
-0.0500000
 20
86.7613
 30
0.000000
  70
    32
  0
VERTEX
  8
0
  5
333E
 10
-0.0500000
 20
86.7662
 30
0.000000
  70
    32
  0
VERTEX
  8
0
  5
333F
 10
-0.0500000
 20
86.7712
 30
0.000000
  70
    32
  0
VERTEX
  8
0
  5
3340
 10
-0.0500000
 20
86.7762
 30
0.000000
  70
    32
  0
VERTEX
  8
0
  5
3341
 10
-0.0500000
 20
86.7812
 30
0.000000
  70
    32
  0
VERTEX
  8
0
  5
3342
 10
-0.0500000
 20
86.7862
 30
0.000000
  70
    32
  0
VERTEX
  8
0
  5
3343
 10
-0.0500000
 20
86.7912
 30
0.000000
  70
    32
  0
VERTEX
  8
0
  5
3344
 10
-0.0500000
 20
86.7962
 30
0.000000
  70
    32
  0
VERTEX
  8
0
  5
3345
 10
-0.0500000
 20
86.8011
 30
0.000000
  70
    32
  0
VERTEX
  8
0
  5
3346
 10
-0.0500000
 20
86.8061
 30
0.000000
  70
    32
  0
VERTEX
  8
0
  5
3347
 10
-0.0500000
 20
86.8111
 30
0.000000
  70
    32
  0
VERTEX
  8
0
  5
3348
 10
-0.0500000
 20
86.8161
 30
0.000000
  70
    32
  0
VERTEX
  8
0
  5
3349
 10
-0.0500000
 20
86.8211
 30
0.000000
  70
    32
  0
VERTEX
  8
0
  5
334A
 10
-0.0500000
 20
86.8260
 30
0.000000
  70
    32
  0
VERTEX
  8
0
  5
334B
 10
-0.0500000
 20
86.8310
 30
0.000000
  70
    32
  0
VERTEX
  8
0
  5
334C
 10
-0.0500000
 20
86.8360
 30
0.000000
  70
    32
  0
VERTEX
  8
0
  5
334D
 10
-0.0500000
 20
86.8410
 30
0.000000
  70
    32
  0
VERTEX
  8
0
  5
334E
 10
-0.0500000
 20
86.8459
 30
0.000000
  70
    32
  0
VERTEX
  8
0
  5
334F
 10
-0.0500000
 20
86.8509
 30
0.000000
  70
    32
  0
VERTEX
  8
0
  5
3350
 10
-0.0500000
 20
86.8559
 30
0.000000
  70
    32
  0
VERTEX
  8
0
  5
3351
 10
-0.0500000
 20
86.8608
 30
0.000000
  70
    32
  0
VERTEX
  8
0
  5
3352
 10
-0.0500000
 20
86.8658
 30
0.000000
  70
    32
  0
VERTEX
  8
0
  5
3353
 10
-0.0500000
 20
86.8708
 30
0.000000
  70
    32
  0
VERTEX
  8
0
  5
3354
 10
-0.0500000
 20
86.8757
 30
0.000000
  70
    32
  0
VERTEX
  8
0
  5
3355
 10
-0.0500000
 20
86.8807
 30
0.000000
  70
    32
  0
VERTEX
  8
0
  5
3356
 10
-0.0500000
 20
86.8856
 30
0.000000
  70
    32
  0
VERTEX
  8
0
  5
3357
 10
-0.0500000
 20
86.8905
 30
0.000000
  70
    32
  0
VERTEX
  8
0
  5
3358
 10
-0.0500000
 20
86.8955
 30
0.000000
  70
    32
  0
VERTEX
  8
0
  5
3359
 10
-0.0500000
 20
86.9004
 30
0.000000
  70
    32
  0
VERTEX
  8
0
  5
335A
 10
-0.0500000
 20
86.9054
 30
0.000000
  70
    32
  0
VERTEX
  8
0
  5
335B
 10
-0.0500000
 20
86.9103
 30
0.000000
  70
    32
  0
VERTEX
  8
0
  5
335C
 10
-0.0500000
 20
86.9152
 30
0.000000
  70
    32
  0
VERTEX
  8
0
  5
335D
 10
-0.0500000
 20
86.9201
 30
0.000000
  70
    32
  0
VERTEX
  8
0
  5
335E
 10
-0.0500000
 20
86.9250
 30
0.000000
  70
    32
  0
VERTEX
  8
0
  5
335F
 10
-0.0500000
 20
86.9300
 30
0.000000
  70
    32
  0
VERTEX
  8
0
  5
3360
 10
-0.0500000
 20
86.9349
 30
0.000000
  70
    32
  0
VERTEX
  8
0
  5
3361
 10
-0.0500000
 20
86.9398
 30
0.000000
  70
    32
  0
VERTEX
  8
0
  5
3362
 10
-0.0500000
 20
86.9447
 30
0.000000
  70
    32
  0
VERTEX
  8
0
  5
3363
 10
-0.0500000
 20
86.9495
 30
0.000000
  70
    32
  0
VERTEX
  8
0
  5
3364
 10
-0.0500000
 20
86.9544
 30
0.000000
  70
    32
  0
VERTEX
  8
0
  5
3365
 10
-0.0500000
 20
86.9593
 30
0.000000
  70
    32
  0
VERTEX
  8
0
  5
3366
 10
-0.0500000
 20
86.9642
 30
0.000000
  70
    32
  0
VERTEX
  8
0
  5
3367
 10
-0.0500000
 20
86.9690
 30
0.000000
  70
    32
  0
VERTEX
  8
0
  5
3368
 10
-0.0500000
 20
86.9739
 30
0.000000
  70
    32
  0
VERTEX
  8
0
  5
3369
 10
-0.0500000
 20
86.9788
 30
0.000000
  70
    32
  0
VERTEX
  8
0
  5
336A
 10
-0.0500000
 20
86.9836
 30
0.000000
  70
    32
  0
VERTEX
  8
0
  5
336B
 10
-0.0500000
 20
86.9885
 30
0.000000
  70
    32
  0
VERTEX
  8
0
  5
336C
 10
-0.0500000
 20
86.9933
 30
0.000000
  70
    32
  0
VERTEX
  8
0
  5
336D
 10
-0.0500000
 20
86.9981
 30
0.000000
  70
    32
  0
VERTEX
  8
0
  5
336E
 10
-0.0500000
 20
87.0029
 30
0.000000
  70
    32
  0
VERTEX
  8
0
  5
336F
 10
-0.0500000
 20
87.0078
 30
0.000000
  70
    32
  0
VERTEX
  8
0
  5
3370
 10
-0.0500000
 20
87.0126
 30
0.000000
  70
    32
  0
VERTEX
  8
0
  5
3371
 10
-0.0500000
 20
87.0174
 30
0.000000
  70
    32
  0
VERTEX
  8
0
  5
3372
 10
-0.0500000
 20
87.0222
 30
0.000000
  70
    32
  0
VERTEX
  8
0
  5
3373
 10
-0.0500000
 20
87.0269
 30
0.000000
  70
    32
  0
VERTEX
  8
0
  5
3374
 10
-0.0500000
 20
87.0317
 30
0.000000
  70
    32
  0
VERTEX
  8
0
  5
3375
 10
-0.0500000
 20
87.0365
 30
0.000000
  70
    32
  0
VERTEX
  8
0
  5
3376
 10
-0.0500000
 20
87.0412
 30
0.000000
  70
    32
  0
VERTEX
  8
0
  5
3377
 10
-0.0500000
 20
87.0460
 30
0.000000
  70
    32
  0
VERTEX
  8
0
  5
3378
 10
-0.0500000
 20
87.0507
 30
0.000000
  70
    32
  0
VERTEX
  8
0
  5
3379
 10
-0.0500000
 20
87.0555
 30
0.000000
  70
    32
  0
VERTEX
  8
0
  5
337A
 10
-0.0500000
 20
87.0602
 30
0.000000
  70
    32
  0
VERTEX
  8
0
  5
337B
 10
-0.0500000
 20
87.0649
 30
0.000000
  70
    32
  0
VERTEX
  8
0
  5
337C
 10
-0.0500000
 20
87.0696
 30
0.000000
  70
    32
  0
VERTEX
  8
0
  5
337D
 10
-0.0500000
 20
87.0743
 30
0.000000
  70
    32
  0
VERTEX
  8
0
  5
337E
 10
-0.0500000
 20
87.0790
 30
0.000000
  70
    32
  0
VERTEX
  8
0
  5
337F
 10
-0.0500000
 20
87.0837
 30
0.000000
  70
    32
  0
VERTEX
  8
0
  5
3380
 10
-0.0500000
 20
87.0884
 30
0.000000
  70
    32
  0
VERTEX
  8
0
  5
3381
 10
-0.0500000
 20
87.0930
 30
0.000000
  70
    32
  0
VERTEX
  8
0
  5
3382
 10
-0.0500000
 20
87.0977
 30
0.000000
  70
    32
  0
VERTEX
  8
0
  5
3383
 10
-0.0500000
 20
87.1023
 30
0.000000
  70
    32
  0
VERTEX
  8
0
  5
3384
 10
-0.0500000
 20
87.1070
 30
0.000000
  70
    32
  0
VERTEX
  8
0
  5
3385
 10
-0.0500000
 20
87.1116
 30
0.000000
  70
    32
  0
VERTEX
  8
0
  5
3386
 10
-0.0500000
 20
87.1162
 30
0.000000
  70
    32
  0
VERTEX
  8
0
  5
3387
 10
-0.0500000
 20
87.1208
 30
0.000000
  70
    32
  0
VERTEX
  8
0
  5
3388
 10
-0.0500000
 20
87.1254
 30
0.000000
  70
    32
  0
VERTEX
  8
0
  5
3389
 10
-0.0500000
 20
87.1300
 30
0.000000
  70
    32
  0
VERTEX
  8
0
  5
338A
 10
-0.0500000
 20
87.1345
 30
0.000000
  70
    32
  0
VERTEX
  8
0
  5
338B
 10
-0.0500000
 20
87.1391
 30
0.000000
  70
    32
  0
VERTEX
  8
0
  5
338C
 10
-0.0500000
 20
87.1436
 30
0.000000
  70
    32
  0
VERTEX
  8
0
  5
338D
 10
-0.0500000
 20
87.1482
 30
0.000000
  70
    32
  0
VERTEX
  8
0
  5
338E
 10
-0.0500000
 20
87.1527
 30
0.000000
  70
    32
  0
VERTEX
  8
0
  5
338F
 10
-0.0500000
 20
87.1572
 30
0.000000
  70
    32
  0
VERTEX
  8
0
  5
3390
 10
-0.0500000
 20
87.1617
 30
0.000000
  70
    32
  0
VERTEX
  8
0
  5
3391
 10
-0.0500000
 20
87.1662
 30
0.000000
  70
    32
  0
VERTEX
  8
0
  5
3392
 10
-0.0500000
 20
87.1707
 30
0.000000
  70
    32
  0
VERTEX
  8
0
  5
3393
 10
-0.0500000
 20
87.1751
 30
0.000000
  70
    32
  0
VERTEX
  8
0
  5
3394
 10
-0.0500000
 20
87.1796
 30
0.000000
  70
    32
  0
VERTEX
  8
0
  5
3395
 10
-0.0500000
 20
87.1840
 30
0.000000
  70
    32
  0
VERTEX
  8
0
  5
3396
 10
-0.0500000
 20
87.1884
 30
0.000000
  70
    32
  0
VERTEX
  8
0
  5
3397
 10
-0.0500000
 20
87.1929
 30
0.000000
  70
    32
  0
VERTEX
  8
0
  5
3398
 10
-0.0500000
 20
87.1973
 30
0.000000
  70
    32
  0
VERTEX
  8
0
  5
3399
 10
-0.0500000
 20
87.2016
 30
0.000000
  70
    32
  0
VERTEX
  8
0
  5
339A
 10
-0.0500000
 20
87.2060
 30
0.000000
  70
    32
  0
VERTEX
  8
0
  5
339B
 10
-0.0500000
 20
87.2104
 30
0.000000
  70
    32
  0
VERTEX
  8
0
  5
339C
 10
-0.0500000
 20
87.2147
 30
0.000000
  70
    32
  0
VERTEX
  8
0
  5
339D
 10
-0.0500000
 20
87.2191
 30
0.000000
  70
    32
  0
VERTEX
  8
0
  5
339E
 10
-0.0500000
 20
87.2234
 30
0.000000
  70
    32
  0
VERTEX
  8
0
  5
339F
 10
-0.0500000
 20
87.2277
 30
0.000000
  70
    32
  0
VERTEX
  8
0
  5
33A0
 10
-0.0500000
 20
87.2320
 30
0.000000
  70
    32
  0
VERTEX
  8
0
  5
33A1
 10
-0.0500000
 20
87.2363
 30
0.000000
  70
    32
  0
VERTEX
  8
0
  5
33A2
 10
-0.0500000
 20
87.2406
 30
0.000000
  70
    32
  0
VERTEX
  8
0
  5
33A3
 10
-0.0500000
 20
87.2449
 30
0.000000
  70
    32
  0
VERTEX
  8
0
  5
33A4
 10
-0.0500000
 20
87.2492
 30
0.000000
  70
    32
  0
VERTEX
  8
0
  5
33A5
 10
-0.0500000
 20
87.2535
 30
0.000000
  70
    32
  0
VERTEX
  8
0
  5
33A6
 10
-0.0500000
 20
87.2578
 30
0.000000
  70
    32
  0
VERTEX
  8
0
  5
33A7
 10
-0.0500000
 20
87.2621
 30
0.000000
  70
    32
  0
VERTEX
  8
0
  5
33A8
 10
-0.0500000
 20
87.2665
 30
0.000000
  70
    32
  0
VERTEX
  8
0
  5
33A9
 10
-0.0500000
 20
87.2708
 30
0.000000
  70
    32
  0
VERTEX
  8
0
  5
33AA
 10
-0.0500000
 20
87.2751
 30
0.000000
  70
    32
  0
VERTEX
  8
0
  5
33AB
 10
-0.0500000
 20
87.2795
 30
0.000000
  70
    32
  0
VERTEX
  8
0
  5
33AC
 10
-0.0500000
 20
87.2838
 30
0.000000
  70
    32
  0
VERTEX
  8
0
  5
33AD
 10
-0.0500000
 20
87.2882
 30
0.000000
  70
    32
  0
VERTEX
  8
0
  5
33AE
 10
-0.0500000
 20
87.2925
 30
0.000000
  70
    32
  0
VERTEX
  8
0
  5
33AF
 10
-0.0500000
 20
87.2969
 30
0.000000
  70
    32
  0
VERTEX
  8
0
  5
33B0
 10
-0.0500000
 20
87.3012
 30
0.000000
  70
    32
  0
VERTEX
  8
0
  5
33B1
 10
-0.0500000
 20
87.3056
 30
0.000000
  70
    32
  0
VERTEX
  8
0
  5
33B2
 10
-0.0500000
 20
87.3099
 30
0.000000
  70
    32
  0
VERTEX
  8
0
  5
33B3
 10
-0.0500000
 20
87.3143
 30
0.000000
  70
    32
  0
VERTEX
  8
0
  5
33B4
 10
-0.0500000
 20
87.3187
 30
0.000000
  70
    32
  0
VERTEX
  8
0
  5
33B5
 10
-0.0500000
 20
87.3230
 30
0.000000
  70
    32
  0
VERTEX
  8
0
  5
33B6
 10
-0.0500000
 20
87.3274
 30
0.000000
  70
    32
  0
VERTEX
  8
0
  5
33B7
 10
-0.0500000
 20
87.3318
 30
0.000000
  70
    32
  0
VERTEX
  8
0
  5
33B8
 10
-0.0500000
 20
87.3362
 30
0.000000
  70
    32
  0
VERTEX
  8
0
  5
33B9
 10
-0.0500000
 20
87.3405
 30
0.000000
  70
    32
  0
VERTEX
  8
0
  5
33BA
 10
-0.0500000
 20
87.3449
 30
0.000000
  70
    32
  0
VERTEX
  8
0
  5
33BB
 10
-0.0500000
 20
87.3493
 30
0.000000
  70
    32
  0
VERTEX
  8
0
  5
33BC
 10
-0.0500000
 20
87.3537
 30
0.000000
  70
    32
  0
VERTEX
  8
0
  5
33BD
 10
-0.0500000
 20
87.3580
 30
0.000000
  70
    32
  0
VERTEX
  8
0
  5
33BE
 10
-0.0500000
 20
87.3624
 30
0.000000
  70
    32
  0
VERTEX
  8
0
  5
33BF
 10
-0.0500000
 20
87.3668
 30
0.000000
  70
    32
  0
VERTEX
  8
0
  5
33C0
 10
-0.0500000
 20
87.3712
 30
0.000000
  70
    32
  0
VERTEX
  8
0
  5
33C1
 10
-0.0500000
 20
87.3756
 30
0.000000
  70
    32
  0
VERTEX
  8
0
  5
33C2
 10
-0.0500000
 20
87.3800
 30
0.000000
  70
    32
  0
VERTEX
  8
0
  5
33C3
 10
-0.0500000
 20
87.3843
 30
0.000000
  70
    32
  0
VERTEX
  8
0
  5
33C4
 10
-0.0500000
 20
87.3887
 30
0.000000
  70
    32
  0
VERTEX
  8
0
  5
33C5
 10
-0.0500000
 20
87.3931
 30
0.000000
  70
    32
  0
VERTEX
  8
0
  5
33C6
 10
-0.0500000
 20
87.3975
 30
0.000000
  70
    32
  0
VERTEX
  8
0
  5
33C7
 10
-0.0500000
 20
87.4019
 30
0.000000
  70
    32
  0
VERTEX
  8
0
  5
33C8
 10
-0.0500000
 20
87.4062
 30
0.000000
  70
    32
  0
VERTEX
  8
0
  5
33C9
 10
-0.0500000
 20
87.4106
 30
0.000000
  70
    32
  0
VERTEX
  8
0
  5
33CA
 10
-0.0500000
 20
87.4150
 30
0.000000
  70
    32
  0
VERTEX
  8
0
  5
33CB
 10
-0.0500000
 20
87.4194
 30
0.000000
  70
    32
  0
VERTEX
  8
0
  5
33CC
 10
-0.0500000
 20
87.4237
 30
0.000000
  70
    32
  0
VERTEX
  8
0
  5
33CD
 10
-0.0500000
 20
87.4281
 30
0.000000
  70
    32
  0
VERTEX
  8
0
  5
33CE
 10
-0.0500000
 20
87.4325
 30
0.000000
  70
    32
  0
VERTEX
  8
0
  5
33CF
 10
-0.0500000
 20
87.4369
 30
0.000000
  70
    32
  0
VERTEX
  8
0
  5
33D0
 10
-0.0500000
 20
87.4412
 30
0.000000
  70
    32
  0
VERTEX
  8
0
  5
33D1
 10
-0.0500000
 20
87.4456
 30
0.000000
  70
    32
  0
VERTEX
  8
0
  5
33D2
 10
-0.0500000
 20
87.4499
 30
0.000000
  70
    32
  0
VERTEX
  8
0
  5
33D3
 10
-0.0500000
 20
87.4543
 30
0.000000
  70
    32
  0
VERTEX
  8
0
  5
33D4
 10
-0.0500000
 20
87.4587
 30
0.000000
  70
    32
  0
VERTEX
  8
0
  5
33D5
 10
-0.0500000
 20
87.4630
 30
0.000000
  70
    32
  0
VERTEX
  8
0
  5
33D6
 10
-0.0500000
 20
87.4674
 30
0.000000
  70
    32
  0
VERTEX
  8
0
  5
33D7
 10
-0.0500000
 20
87.4717
 30
0.000000
  70
    32
  0
VERTEX
  8
0
  5
33D8
 10
-0.0500000
 20
87.4760
 30
0.000000
  70
    32
  0
VERTEX
  8
0
  5
33D9
 10
-0.0500000
 20
87.4804
 30
0.000000
  70
    32
  0
VERTEX
  8
0
  5
33DA
 10
-0.0500000
 20
87.4847
 30
0.000000
  70
    32
  0
VERTEX
  8
0
  5
33DB
 10
-0.0500000
 20
87.4890
 30
0.000000
  70
    32
  0
VERTEX
  8
0
  5
33DC
 10
-0.0500000
 20
87.4934
 30
0.000000
  70
    32
  0
VERTEX
  8
0
  5
33DD
 10
-0.0500000
 20
87.4977
 30
0.000000
  70
    32
  0
VERTEX
  8
0
  5
33DE
 10
-0.0500000
 20
87.5020
 30
0.000000
  70
    32
  0
VERTEX
  8
0
  5
33DF
 10
-0.0500000
 20
87.5063
 30
0.000000
  70
    32
  0
VERTEX
  8
0
  5
33E0
 10
-0.0500000
 20
87.5106
 30
0.000000
  70
    32
  0
VERTEX
  8
0
  5
33E1
 10
-0.0500000
 20
87.5149
 30
0.000000
  70
    32
  0
VERTEX
  8
0
  5
33E2
 10
-0.0500000
 20
87.5192
 30
0.000000
  70
    32
  0
VERTEX
  8
0
  5
33E3
 10
-0.0500000
 20
87.5235
 30
0.000000
  70
    32
  0
VERTEX
  8
0
  5
33E4
 10
-0.0500000
 20
87.5278
 30
0.000000
  70
    32
  0
VERTEX
  8
0
  5
33E5
 10
-0.0500000
 20
87.5321
 30
0.000000
  70
    32
  0
VERTEX
  8
0
  5
33E6
 10
-0.0500000
 20
87.5364
 30
0.000000
  70
    32
  0
VERTEX
  8
0
  5
33E7
 10
-0.0500000
 20
87.5406
 30
0.000000
  70
    32
  0
VERTEX
  8
0
  5
33E8
 10
-0.0500000
 20
87.5449
 30
0.000000
  70
    32
  0
VERTEX
  8
0
  5
33E9
 10
-0.0500000
 20
87.5491
 30
0.000000
  70
    32
  0
VERTEX
  8
0
  5
33EA
 10
-0.0500000
 20
87.5534
 30
0.000000
  70
    32
  0
VERTEX
  8
0
  5
33EB
 10
-0.0500000
 20
87.5576
 30
0.000000
  70
    32
  0
VERTEX
  8
0
  5
33EC
 10
-0.0500000
 20
87.5619
 30
0.000000
  70
    32
  0
VERTEX
  8
0
  5
33ED
 10
-0.0500000
 20
87.5661
 30
0.000000
  70
    32
  0
VERTEX
  8
0
  5
33EE
 10
-0.0500000
 20
87.5703
 30
0.000000
  70
    32
  0
VERTEX
  8
0
  5
33EF
 10
-0.0500000
 20
87.5745
 30
0.000000
  70
    32
  0
VERTEX
  8
0
  5
33F0
 10
-0.0500000
 20
87.5787
 30
0.000000
  70
    32
  0
VERTEX
  8
0
  5
33F1
 10
-0.0500000
 20
87.5829
 30
0.000000
  70
    32
  0
VERTEX
  8
0
  5
33F2
 10
-0.0500000
 20
87.5871
 30
0.000000
  70
    32
  0
VERTEX
  8
0
  5
33F3
 10
-0.0500000
 20
87.5913
 30
0.000000
  70
    32
  0
VERTEX
  8
0
  5
33F4
 10
-0.0500000
 20
87.5955
 30
0.000000
  70
    32
  0
VERTEX
  8
0
  5
33F5
 10
-0.0500000
 20
87.5997
 30
0.000000
  70
    32
  0
VERTEX
  8
0
  5
33F6
 10
-0.0500000
 20
87.6038
 30
0.000000
  70
    32
  0
VERTEX
  8
0
  5
33F7
 10
-0.0500000
 20
87.6080
 30
0.000000
  70
    32
  0
VERTEX
  8
0
  5
33F8
 10
-0.0500000
 20
87.6121
 30
0.000000
  70
    32
  0
VERTEX
  8
0
  5
33F9
 10
-0.0500000
 20
87.6163
 30
0.000000
  70
    32
  0
VERTEX
  8
0
  5
33FA
 10
-0.0500000
 20
87.6204
 30
0.000000
  70
    32
  0
VERTEX
  8
0
  5
33FB
 10
-0.0500000
 20
87.6245
 30
0.000000
  70
    32
  0
VERTEX
  8
0
  5
33FC
 10
-0.0500000
 20
87.6286
 30
0.000000
  70
    32
  0
VERTEX
  8
0
  5
33FD
 10
-0.0500000
 20
87.6327
 30
0.000000
  70
    32
  0
VERTEX
  8
0
  5
33FE
 10
-0.0500000
 20
87.6368
 30
0.000000
  70
    32
  0
VERTEX
  8
0
  5
33FF
 10
-0.0500000
 20
87.6409
 30
0.000000
  70
    32
  0
VERTEX
  8
0
  5
3400
 10
-0.0500000
 20
87.6450
 30
0.000000
  70
    32
  0
VERTEX
  8
0
  5
3401
 10
-0.0500000
 20
87.6490
 30
0.000000
  70
    32
  0
VERTEX
  8
0
  5
3402
 10
-0.0500000
 20
87.6531
 30
0.000000
  70
    32
  0
VERTEX
  8
0
  5
3403
 10
-0.0500000
 20
87.6571
 30
0.000000
  70
    32
  0
VERTEX
  8
0
  5
3404
 10
-0.0500000
 20
87.6612
 30
0.000000
  70
    32
  0
VERTEX
  8
0
  5
3405
 10
-0.0500000
 20
87.6652
 30
0.000000
  70
    32
  0
VERTEX
  8
0
  5
3406
 10
-0.0500000
 20
87.6692
 30
0.000000
  70
    32
  0
VERTEX
  8
0
  5
3407
 10
-0.0500000
 20
87.6732
 30
0.000000
  70
    32
  0
VERTEX
  8
0
  5
3408
 10
-0.0500000
 20
87.6772
 30
0.000000
  70
    32
  0
VERTEX
  8
0
  5
3409
 10
-0.0500000
 20
87.6812
 30
0.000000
  70
    32
  0
VERTEX
  8
0
  5
340A
 10
-0.0500000
 20
87.6852
 30
0.000000
  70
    32
  0
VERTEX
  8
0
  5
340B
 10
-0.0500000
 20
87.6891
 30
0.000000
  70
    32
  0
VERTEX
  8
0
  5
340C
 10
-0.0500000
 20
87.6931
 30
0.000000
  70
    32
  0
VERTEX
  8
0
  5
340D
 10
-0.0500000
 20
87.6970
 30
0.000000
  70
    32
  0
VERTEX
  8
0
  5
340E
 10
-0.0500000
 20
87.7010
 30
0.000000
  70
    32
  0
VERTEX
  8
0
  5
340F
 10
-0.0500000
 20
87.7049
 30
0.000000
  70
    32
  0
VERTEX
  8
0
  5
3410
 10
-0.0500000
 20
87.7088
 30
0.000000
  70
    32
  0
VERTEX
  8
0
  5
3411
 10
-0.0500000
 20
87.7127
 30
0.000000
  70
    32
  0
VERTEX
  8
0
  5
3412
 10
-0.0500000
 20
87.7166
 30
0.000000
  70
    32
  0
VERTEX
  8
0
  5
3413
 10
-0.0500000
 20
87.7205
 30
0.000000
  70
    32
  0
VERTEX
  8
0
  5
3414
 10
-0.0500000
 20
87.7243
 30
0.000000
  70
    32
  0
VERTEX
  8
0
  5
3415
 10
-0.0500000
 20
87.7282
 30
0.000000
  70
    32
  0
VERTEX
  8
0
  5
3416
 10
-0.0500000
 20
87.7320
 30
0.000000
  70
    32
  0
VERTEX
  8
0
  5
3417
 10
-0.0500000
 20
87.7359
 30
0.000000
  70
    32
  0
VERTEX
  8
0
  5
3418
 10
-0.0500000
 20
87.7397
 30
0.000000
  70
    32
  0
VERTEX
  8
0
  5
3419
 10
-0.0500000
 20
87.7435
 30
0.000000
  70
    32
  0
VERTEX
  8
0
  5
341A
 10
-0.0500000
 20
87.7473
 30
0.000000
  70
    32
  0
VERTEX
  8
0
  5
341B
 10
-0.0500000
 20
87.7511
 30
0.000000
  70
    32
  0
VERTEX
  8
0
  5
341C
 10
-0.0500000
 20
87.7549
 30
0.000000
  70
    32
  0
VERTEX
  8
0
  5
341D
 10
-0.0500000
 20
87.7586
 30
0.000000
  70
    32
  0
VERTEX
  8
0
  5
341E
 10
-0.0500000
 20
87.7624
 30
0.000000
  70
    32
  0
VERTEX
  8
0
  5
341F
 10
-0.0500000
 20
87.7661
 30
0.000000
  70
    32
  0
VERTEX
  8
0
  5
3420
 10
-0.0500000
 20
87.7699
 30
0.000000
  70
    32
  0
VERTEX
  8
0
  5
3421
 10
-0.0500000
 20
87.7736
 30
0.000000
  70
    32
  0
VERTEX
  8
0
  5
3422
 10
-0.0500000
 20
87.7773
 30
0.000000
  70
    32
  0
VERTEX
  8
0
  5
3423
 10
-0.0500000
 20
87.7810
 30
0.000000
  70
    32
  0
VERTEX
  8
0
  5
3424
 10
-0.0500000
 20
87.7846
 30
0.000000
  70
    32
  0
VERTEX
  8
0
  5
3425
 10
-0.0500000
 20
87.7883
 30
0.000000
  70
    32
  0
VERTEX
  8
0
  5
3426
 10
-0.0500000
 20
87.7920
 30
0.000000
  70
    32
  0
VERTEX
  8
0
  5
3427
 10
-0.0500000
 20
87.7956
 30
0.000000
  70
    32
  0
VERTEX
  8
0
  5
3428
 10
-0.0500000
 20
87.7992
 30
0.000000
  70
    32
  0
VERTEX
  8
0
  5
3429
 10
-0.0500000
 20
87.8028
 30
0.000000
  70
    32
  0
VERTEX
  8
0
  5
342A
 10
-0.0500000
 20
87.8064
 30
0.000000
  70
    32
  0
VERTEX
  8
0
  5
342B
 10
-0.0500000
 20
87.8100
 30
0.000000
  70
    32
  0
VERTEX
  8
0
  5
342C
 10
-0.0500000
 20
87.8136
 30
0.000000
  70
    32
  0
VERTEX
  8
0
  5
342D
 10
-0.0500000
 20
87.8171
 30
0.000000
  70
    32
  0
VERTEX
  8
0
  5
342E
 10
-0.0500000
 20
87.8207
 30
0.000000
  70
    32
  0
VERTEX
  8
0
  5
342F
 10
-0.0500000
 20
87.8242
 30
0.000000
  70
    32
  0
VERTEX
  8
0
  5
3430
 10
-0.0500000
 20
87.8277
 30
0.000000
  70
    32
  0
VERTEX
  8
0
  5
3431
 10
-0.0500000
 20
87.8312
 30
0.000000
  70
    32
  0
VERTEX
  8
0
  5
3432
 10
-0.0500000
 20
87.8347
 30
0.000000
  70
    32
  0
VERTEX
  8
0
  5
3433
 10
-0.0500000
 20
87.8382
 30
0.000000
  70
    32
  0
VERTEX
  8
0
  5
3434
 10
-0.0500000
 20
87.8416
 30
0.000000
  70
    32
  0
VERTEX
  8
0
  5
3435
 10
-0.0500000
 20
87.8451
 30
0.000000
  70
    32
  0
VERTEX
  8
0
  5
3436
 10
-0.0500000
 20
87.8485
 30
0.000000
  70
    32
  0
VERTEX
  8
0
  5
3437
 10
-0.0500000
 20
87.8519
 30
0.000000
  70
    32
  0
VERTEX
  8
0
  5
3438
 10
-0.0500000
 20
87.8553
 30
0.000000
  70
    32
  0
VERTEX
  8
0
  5
3439
 10
-0.0500000
 20
87.8587
 30
0.000000
  70
    32
  0
VERTEX
  8
0
  5
343A
 10
-0.0500000
 20
87.8621
 30
0.000000
  70
    32
  0
VERTEX
  8
0
  5
343B
 10
-0.0500000
 20
87.8654
 30
0.000000
  70
    32
  0
VERTEX
  8
0
  5
343C
 10
-0.0500000
 20
87.8687
 30
0.000000
  70
    32
  0
VERTEX
  8
0
  5
343D
 10
-0.0500000
 20
87.8721
 30
0.000000
  70
    32
  0
VERTEX
  8
0
  5
343E
 10
-0.0500000
 20
87.8754
 30
0.000000
  70
    32
  0
VERTEX
  8
0
  5
343F
 10
-0.0500000
 20
87.8787
 30
0.000000
  70
    32
  0
SEQEND
  8
0
  5
3440
  0
LINE
  5
2EAB
  8
0
  6
CONTINUOUS
 62
     3
 10
-0.0500000000001812
 20
89.292879219938186
 30
0.0
 11
-0.0500000000001814
 21
89.9999861111102746
 31
0.0
  0
ARC
  5
2EAC
  8
0
  6
CONTINUOUS
 62
     3
 10
-0.0000000000004542
 20
0.0
 30
0.0
 40
90.0
 50
90.0318309902556138
 51
269.968169009744372
  0
ARC
  5
2EAD
  8
0
  6
CONTINUOUS
 62
     3
 10
-7.0000000000002274
 20
66.2499999999995453
 30
-0.0000000000000016
 40
3.499999734708573
 50
34.8499076030452599
 51
325.1500923969690007
  0
LINE
  5
2EAE
  8
0
  6
CONTINUOUS
 62
     3
 10
-4.1277190000000701
 20
68.25
 30
-0.0000000000000009
 11
-0.0500000000001819
 21
68.25
 31
0.0
  0
ARC
  5
2EAF
  8
0
  6
CONTINUOUS
 62
     3
 10
0.0000000000000002
 20
0.0
 30
0.0
 40
42.4999999999999716
 50
90.0674068149768203
 51
269.9325931850232223
  0
LINE
  5
2EB0
  8
0
  6
CONTINUOUS
 62
     3
 10
-0.0500000000001817
 20
-68.2500000000002274
 30
0.0
 11
-4.1277190000000701
 21
-68.2500000000002274
 31
-0.0000000000000009
  0
ARC
  5
2EB1
  8
0
  6
CONTINUOUS
 62
     3
 10
-7.0000000000002274
 20
-66.2500000000002274
 30
-0.0000000000000016
 40
3.4999997347088332
 50
34.8499076030371171
 51
325.1500923969629184
  0
LINE
  5
2EB2
  8
0
  6
CONTINUOUS
 62
     3
 10
-4.1277190000000701
 20
-64.2500000000002132
 30
-0.0000000000000009
 11
-0.0500000000001819
 21
-64.2500000000002132
 31
0.0
  0
LINE
  5
2EB3
  8
0
  6
CONTINUOUS
 62
     3
 10
-0.0500000000001817
 20
-64.25
 30
0.0
 11
-0.0500000000001817
 21
-42.4999705882250893
 31
0.0
  0
LINE
  5
2EB4
  8
0
  6
CONTINUOUS
 62
     3
 10
-0.0500000000001817
 20
42.4999705882250893
 30
0.0
 11
-0.0500000000001817
 21
64.25
 31
0.0
  0
LINE
  5
2EB5
  8
0
  6
CONTINUOUS
 62
     3
 10
-0.0500000000001817
 20
64.25
 30
0.0
 11
-4.1277190000000701
 21
64.25
 31
-0.0000000000000009
  0
LINE
  5
2EB6
  8
0
  6
CONTINUOUS
 62
     3
 10
-0.0500000000004091
 20
82.5
 30
0.0
 11
-0.0500000000004091
 21
86.464451637260467
 31
0.0
  0
LINE
  5
2EB7
  8
0
  6
CONTINUOUS
 62
     3
 10
-0.0500000000004091
 20
-81.4999999999995453
 30
0.0
 11
-0.0500000000004091
 21
-68.25
 31
0.0
  0
LINE
  5
2EB8
  8
0
  6
CONTINUOUS
 62
     3
 10
-0.0500000000004091
 20
82.5
 30
0.0
 11
0.0499999999995
 21
82.5
 31
0.0
  0
LINE
  5
2EB9
  8
0
  6
CONTINUOUS
 62
     3
 10
0.0499999999995
 20
81.5
 30
0.0
 11
-0.0500000000004091
 21
81.5
 31
0.0
  0
ENDBLK
  5
2EBB
  8
0
  0
BLOCK
  8
0
  2
A$C7CEC5780
 70
     0
 10
0.0
 20
0.0
 30
0.0
  3
A$C7CEC5780
  1

  0
LINE
  5
2EBF
  8
0
  6
CONTINUOUS
 62
     3
 10
-0.050000000002683
 20
0.9999999999970148
 30
-0.0000000000000002
 11
0.0499999999972261
 21
0.9999999999970148
 31
-0.0000000000000002
210
0.0
220
1.0
230
-0.0000000000000002
  0
LINE
  5
2EC0
  8
0
  6
CONTINUOUS
 62
     3
 10
0.0499999999972261
 20
-0.0000000000000293
 30
0.0
 11
-0.050000000002683
 21
-0.0000000000000293
 31
0.0
210
0.0
220
1.0
230
-0.0000000000000002
  0
LINE
  5
2EC1
  8
0
  6
CONTINUOUS
 62
     3
 10
-0.0500000000001819
 20
2.2928932188102848
 30
-0.0000000000000005
 11
-0.0500000000001819
 21
2.9999999999968452
 31
-0.0000000000000007
210
0.0
220
1.0
230
-0.0000000000000002
  0
LINE
  5
2EC2
  8
0
  6
CONTINUOUS
 62
     3
 10
-0.0500000000001819
 20
0.8786796564375018
 30
-0.0000000000000002
 11
-0.0500000000001819
 21
2.2928932188103879
 31
-0.0000000000000005
210
0.0
220
1.0
230
-0.0000000000000002
  0
POLYLINE
  8
0
  5
3441
  62
3
  66
     1
 10
0.000000
 20
0.000000
 30
0.000000
  70
     8
  0
VERTEX
  8
0
  5
3442
 10
-0.0500000
 20
-2.95360e-12
 30
0.000000
  70
    32
  0
VERTEX
  8
0
  5
3443
 10
-0.0500000
 20
8.62083e-06
 30
0.000000
  70
    32
  0
VERTEX
  8
0
  5
3444
 10
-0.0500000
 20
3.45058e-05
 30
0.000000
  70
    32
  0
VERTEX
  8
0
  5
3445
 10
-0.0500000
 20
7.76887e-05
 30
0.000000
  70
    32
  0
VERTEX
  8
0
  5
3446
 10
-0.0500000
 20
0.000138203
 30
0.000000
  70
    32
  0
VERTEX
  8
0
  5
3447
 10
-0.0500000
 20
0.000216083
 30
0.000000
  70
    32
  0
VERTEX
  8
0
  5
3448
 10
-0.0500000
 20
0.000311362
 30
0.000000
  70
    32
  0
VERTEX
  8
0
  5
3449
 10
-0.0500000
 20
0.000424073
 30
0.000000
  70
    32
  0
VERTEX
  8
0
  5
344A
 10
-0.0500000
 20
0.000554251
 30
0.000000
  70
    32
  0
VERTEX
  8
0
  5
344B
 10
-0.0500000
 20
0.000701930
 30
0.000000
  70
    32
  0
VERTEX
  8
0
  5
344C
 10
-0.0500000
 20
0.000867142
 30
0.000000
  70
    32
  0
VERTEX
  8
0
  5
344D
 10
-0.0500000
 20
0.00104992
 30
0.000000
  70
    32
  0
VERTEX
  8
0
  5
344E
 10
-0.0500000
 20
0.00125030
 30
0.000000
  70
    32
  0
VERTEX
  8
0
  5
344F
 10
-0.0500000
 20
0.00146832
 30
0.000000
  70
    32
  0
VERTEX
  8
0
  5
3450
 10
-0.0500000
 20
0.00170400
 30
0.000000
  70
    32
  0
VERTEX
  8
0
  5
3451
 10
-0.0500000
 20
0.00195739
 30
0.000000
  70
    32
  0
VERTEX
  8
0
  5
3452
 10
-0.0500000
 20
0.00222852
 30
0.000000
  70
    32
  0
VERTEX
  8
0
  5
3453
 10
-0.0500000
 20
0.00251741
 30
0.000000
  70
    32
  0
VERTEX
  8
0
  5
3454
 10
-0.0500000
 20
0.00282411
 30
0.000000
  70
    32
  0
VERTEX
  8
0
  5
3455
 10
-0.0500000
 20
0.00314864
 30
0.000000
  70
    32
  0
VERTEX
  8
0
  5
3456
 10
-0.0500000
 20
0.00349105
 30
0.000000
  70
    32
  0
VERTEX
  8
0
  5
3457
 10
-0.0500000
 20
0.00385136
 30
0.000000
  70
    32
  0
VERTEX
  8
0
  5
3458
 10
-0.0500000
 20
0.00422961
 30
0.000000
  70
    32
  0
VERTEX
  8
0
  5
3459
 10
-0.0500000
 20
0.00462583
 30
0.000000
  70
    32
  0
VERTEX
  8
0
  5
345A
 10
-0.0500000
 20
0.00504006
 30
0.000000
  70
    32
  0
VERTEX
  8
0
  5
345B
 10
-0.0500000
 20
0.00547233
 30
0.000000
  70
    32
  0
VERTEX
  8
0
  5
345C
 10
-0.0500000
 20
0.00592267
 30
0.000000
  70
    32
  0
VERTEX
  8
0
  5
345D
 10
-0.0500000
 20
0.00639112
 30
0.000000
  70
    32
  0
VERTEX
  8
0
  5
345E
 10
-0.0500000
 20
0.00687771
 30
0.000000
  70
    32
  0
VERTEX
  8
0
  5
345F
 10
-0.0500000
 20
0.00738247
 30
0.000000
  70
    32
  0
VERTEX
  8
0
  5
3460
 10
-0.0500000
 20
0.00790545
 30
0.000000
  70
    32
  0
VERTEX
  8
0
  5
3461
 10
-0.0500000
 20
0.00844666
 30
0.000000
  70
    32
  0
VERTEX
  8
0
  5
3462
 10
-0.0500000
 20
0.00900615
 30
0.000000
  70
    32
  0
VERTEX
  8
0
  5
3463
 10
-0.0500000
 20
0.00958395
 30
0.000000
  70
    32
  0
VERTEX
  8
0
  5
3464
 10
-0.0500000
 20
0.0101801
 30
0.000000
  70
    32
  0
VERTEX
  8
0
  5
3465
 10
-0.0500000
 20
0.0107946
 30
0.000000
  70
    32
  0
VERTEX
  8
0
  5
3466
 10
-0.0500000
 20
0.0114276
 30
0.000000
  70
    32
  0
VERTEX
  8
0
  5
3467
 10
-0.0500000
 20
0.0120789
 30
0.000000
  70
    32
  0
VERTEX
  8
0
  5
3468
 10
-0.0500000
 20
0.0127488
 30
0.000000
  70
    32
  0
VERTEX
  8
0
  5
3469
 10
-0.0500000
 20
0.0134371
 30
0.000000
  70
    32
  0
VERTEX
  8
0
  5
346A
 10
-0.0500000
 20
0.0141441
 30
0.000000
  70
    32
  0
VERTEX
  8
0
  5
346B
 10
-0.0500000
 20
0.0148696
 30
0.000000
  70
    32
  0
VERTEX
  8
0
  5
346C
 10
-0.0500000
 20
0.0156137
 30
0.000000
  70
    32
  0
VERTEX
  8
0
  5
346D
 10
-0.0500000
 20
0.0163764
 30
0.000000
  70
    32
  0
VERTEX
  8
0
  5
346E
 10
-0.0500000
 20
0.0171578
 30
0.000000
  70
    32
  0
VERTEX
  8
0
  5
346F
 10
-0.0500000
 20
0.0179580
 30
0.000000
  70
    32
  0
VERTEX
  8
0
  5
3470
 10
-0.0500000
 20
0.0187769
 30
0.000000
  70
    32
  0
VERTEX
  8
0
  5
3471
 10
-0.0500000
 20
0.0196146
 30
0.000000
  70
    32
  0
VERTEX
  8
0
  5
3472
 10
-0.0500000
 20
0.0204710
 30
0.000000
  70
    32
  0
VERTEX
  8
0
  5
3473
 10
-0.0500000
 20
0.0213464
 30
0.000000
  70
    32
  0
VERTEX
  8
0
  5
3474
 10
-0.0500000
 20
0.0222406
 30
0.000000
  70
    32
  0
VERTEX
  8
0
  5
3475
 10
-0.0500000
 20
0.0231537
 30
0.000000
  70
    32
  0
VERTEX
  8
0
  5
3476
 10
-0.0500000
 20
0.0240858
 30
0.000000
  70
    32
  0
VERTEX
  8
0
  5
3477
 10
-0.0500000
 20
0.0250369
 30
0.000000
  70
    32
  0
VERTEX
  8
0
  5
3478
 10
-0.0500000
 20
0.0260070
 30
0.000000
  70
    32
  0
VERTEX
  8
0
  5
3479
 10
-0.0500000
 20
0.0269961
 30
0.000000
  70
    32
  0
VERTEX
  8
0
  5
347A
 10
-0.0500000
 20
0.0280044
 30
0.000000
  70
    32
  0
VERTEX
  8
0
  5
347B
 10
-0.0500000
 20
0.0290317
 30
0.000000
  70
    32
  0
VERTEX
  8
0
  5
347C
 10
-0.0500000
 20
0.0300782
 30
0.000000
  70
    32
  0
VERTEX
  8
0
  5
347D
 10
-0.0500000
 20
0.0311439
 30
0.000000
  70
    32
  0
VERTEX
  8
0
  5
347E
 10
-0.0500000
 20
0.0322288
 30
0.000000
  70
    32
  0
VERTEX
  8
0
  5
347F
 10
-0.0500000
 20
0.0333330
 30
0.000000
  70
    32
  0
VERTEX
  8
0
  5
3480
 10
-0.0500000
 20
0.0344564
 30
0.000000
  70
    32
  0
VERTEX
  8
0
  5
3481
 10
-0.0500000
 20
0.0355992
 30
0.000000
  70
    32
  0
VERTEX
  8
0
  5
3482
 10
-0.0500000
 20
0.0367613
 30
0.000000
  70
    32
  0
VERTEX
  8
0
  5
3483
 10
-0.0500000
 20
0.0379428
 30
0.000000
  70
    32
  0
VERTEX
  8
0
  5
3484
 10
-0.0500000
 20
0.0391438
 30
0.000000
  70
    32
  0
VERTEX
  8
0
  5
3485
 10
-0.0500000
 20
0.0403642
 30
0.000000
  70
    32
  0
VERTEX
  8
0
  5
3486
 10
-0.0500000
 20
0.0416040
 30
0.000000
  70
    32
  0
VERTEX
  8
0
  5
3487
 10
-0.0500000
 20
0.0428635
 30
0.000000
  70
    32
  0
VERTEX
  8
0
  5
3488
 10
-0.0500000
 20
0.0441424
 30
0.000000
  70
    32
  0
VERTEX
  8
0
  5
3489
 10
-0.0500000
 20
0.0454410
 30
0.000000
  70
    32
  0
VERTEX
  8
0
  5
348A
 10
-0.0500000
 20
0.0467591
 30
0.000000
  70
    32
  0
VERTEX
  8
0
  5
348B
 10
-0.0500000
 20
0.0480970
 30
0.000000
  70
    32
  0
VERTEX
  8
0
  5
348C
 10
-0.0500000
 20
0.0494545
 30
0.000000
  70
    32
  0
VERTEX
  8
0
  5
348D
 10
-0.0500000
 20
0.0508318
 30
0.000000
  70
    32
  0
VERTEX
  8
0
  5
348E
 10
-0.0500000
 20
0.0522288
 30
0.000000
  70
    32
  0
VERTEX
  8
0
  5
348F
 10
-0.0500000
 20
0.0536456
 30
0.000000
  70
    32
  0
VERTEX
  8
0
  5
3490
 10
-0.0500000
 20
0.0550822
 30
0.000000
  70
    32
  0
VERTEX
  8
0
  5
3491
 10
-0.0500000
 20
0.0565387
 30
0.000000
  70
    32
  0
VERTEX
  8
0
  5
3492
 10
-0.0500000
 20
0.0580151
 30
-1.54014e-24
  70
    32
  0
VERTEX
  8
0
  5
3493
 10
-0.0500000
 20
0.0595114
 30
-1.92531e-22
  70
    32
  0
VERTEX
  8
0
  5
3494
 10
-0.0500000
 20
0.0610274
 30
-1.12285e-21
  70
    32
  0
VERTEX
  8
0
  5
3495
 10
-0.0500000
 20
0.0625631
 30
-3.38396e-21
  70
    32
  0
VERTEX
  8
0
  5
3496
 10
-0.0500000
 20
0.0641182
 30
-7.56733e-21
  70
    32
  0
VERTEX
  8
0
  5
3497
 10
-0.0500000
 20
0.0656928
 30
-1.42644e-20
  70
    32
  0
VERTEX
  8
0
  5
3498
 10
-0.0500000
 20
0.0672866
 30
-2.40667e-20
  70
    32
  0
VERTEX
  8
0
  5
3499
 10
-0.0500000
 20
0.0688995
 30
-3.75656e-20
  70
    32
  0
VERTEX
  8
0
  5
349A
 10
-0.0500000
 20
0.0705314
 30
-5.53527e-20
  70
    32
  0
VERTEX
  8
0
  5
349B
 10
-0.0500000
 20
0.0721822
 30
-7.80193e-20
  70
    32
  0
VERTEX
  8
0
  5
349C
 10
-0.0500000
 20
0.0738517
 30
-1.06157e-19
  70
    32
  0
VERTEX
  8
0
  5
349D
 10
-0.0500000
 20
0.0755399
 30
-1.40357e-19
  70
    32
  0
VERTEX
  8
0
  5
349E
 10
-0.0500000
 20
0.0772465
 30
-1.81211e-19
  70
    32
  0
VERTEX
  8
0
  5
349F
 10
-0.0500000
 20
0.0789715
 30
-2.29311e-19
  70
    32
  0
VERTEX
  8
0
  5
34A0
 10
-0.0500000
 20
0.0807147
 30
-2.85247e-19
  70
    32
  0
VERTEX
  8
0
  5
34A1
 10
-0.0500000
 20
0.0824761
 30
-3.49612e-19
  70
    32
  0
VERTEX
  8
0
  5
34A2
 10
-0.0500000
 20
0.0842554
 30
-4.22997e-19
  70
    32
  0
VERTEX
  8
0
  5
34A3
 10
-0.0500000
 20
0.0860525
 30
-5.05993e-19
  70
    32
  0
VERTEX
  8
0
  5
34A4
 10
-0.0500000
 20
0.0878674
 30
-5.99192e-19
  70
    32
  0
VERTEX
  8
0
  5
34A5
 10
-0.0500000
 20
0.0896999
 30
-7.03185e-19
  70
    32
  0
VERTEX
  8
0
  5
34A6
 10
-0.0500000
 20
0.0915498
 30
-8.18564e-19
  70
    32
  0
VERTEX
  8
0
  5
34A7
 10
-0.0500000
 20
0.0934171
 30
-9.45920e-19
  70
    32
  0
VERTEX
  8
0
  5
34A8
 10
-0.0500000
 20
0.0953016
 30
-1.08584e-18
  70
    32
  0
VERTEX
  8
0
  5
34A9
 10
-0.0500000
 20
0.0972031
 30
-1.23893e-18
  70
    32
  0
VERTEX
  8
0
  5
34AA
 10
-0.0500000
 20
0.0991217
 30
-1.40576e-18
  70
    32
  0
VERTEX
  8
0
  5
34AB
 10
-0.0500000
 20
0.101057
 30
-1.58694e-18
  70
    32
  0
VERTEX
  8
0
  5
34AC
 10
-0.0500000
 20
0.103009
 30
-1.78306e-18
  70
    32
  0
VERTEX
  8
0
  5
34AD
 10
-0.0500000
 20
0.104978
 30
-1.99470e-18
  70
    32
  0
VERTEX
  8
0
  5
34AE
 10
-0.0500000
 20
0.106963
 30
-2.22245e-18
  70
    32
  0
VERTEX
  8
0
  5
34AF
 10
-0.0500000
 20
0.108964
 30
-2.46692e-18
  70
    32
  0
VERTEX
  8
0
  5
34B0
 10
-0.0500000
 20
0.110982
 30
-2.72869e-18
  70
    32
  0
VERTEX
  8
0
  5
34B1
 10
-0.0500000
 20
0.113016
 30
-3.00834e-18
  70
    32
  0
VERTEX
  8
0
  5
34B2
 10
-0.0500000
 20
0.115065
 30
-3.30649e-18
  70
    32
  0
VERTEX
  8
0
  5
34B3
 10
-0.0500000
 20
0.117131
 30
-3.62370e-18
  70
    32
  0
VERTEX
  8
0
  5
34B4
 10
-0.0500000
 20
0.119212
 30
-3.96058e-18
  70
    32
  0
VERTEX
  8
0
  5
34B5
 10
-0.0500000
 20
0.121308
 30
-4.31772e-18
  70
    32
  0
VERTEX
  8
0
  5
34B6
 10
-0.0500000
 20
0.123421
 30
-4.69571e-18
  70
    32
  0
VERTEX
  8
0
  5
34B7
 10
-0.0500000
 20
0.125548
 30
-5.09514e-18
  70
    32
  0
VERTEX
  8
0
  5
34B8
 10
-0.0500000
 20
0.127691
 30
-5.51661e-18
  70
    32
  0
VERTEX
  8
0
  5
34B9
 10
-0.0500000
 20
0.129848
 30
-5.96069e-18
  70
    32
  0
VERTEX
  8
0
  5
34BA
 10
-0.0500000
 20
0.132021
 30
-6.42799e-18
  70
    32
  0
VERTEX
  8
0
  5
34BB
 10
-0.0500000
 20
0.134208
 30
-6.91910e-18
  70
    32
  0
VERTEX
  8
0
  5
34BC
 10
-0.0500000
 20
0.136410
 30
-7.43460e-18
  70
    32
  0
VERTEX
  8
0
  5
34BD
 10
-0.0500000
 20
0.138627
 30
-7.97510e-18
  70
    32
  0
VERTEX
  8
0
  5
34BE
 10
-0.0500000
 20
0.140858
 30
-8.54117e-18
  70
    32
  0
VERTEX
  8
0
  5
34BF
 10
-0.0500000
 20
0.143103
 30
-9.13342e-18
  70
    32
  0
VERTEX
  8
0
  5
34C0
 10
-0.0500000
 20
0.145362
 30
-9.75243e-18
  70
    32
  0
VERTEX
  8
0
  5
34C1
 10
-0.0500000
 20
0.147636
 30
-1.03988e-17
  70
    32
  0
VERTEX
  8
0
  5
34C2
 10
-0.0500000
 20
0.149923
 30
-1.10731e-17
  70
    32
  0
VERTEX
  8
0
  5
34C3
 10
-0.0500000
 20
0.152224
 30
-1.17760e-17
  70
    32
  0
VERTEX
  8
0
  5
34C4
 10
-0.0500000
 20
0.154539
 30
-1.25079e-17
  70
    32
  0
VERTEX
  8
0
  5
34C5
 10
-0.0500000
 20
0.156867
 30
-1.32696e-17
  70
    32
  0
VERTEX
  8
0
  5
34C6
 10
-0.0500000
 20
0.159209
 30
-1.40617e-17
  70
    32
  0
VERTEX
  8
0
  5
34C7
 10
-0.0500000
 20
0.161564
 30
-1.48846e-17
  70
    32
  0
VERTEX
  8
0
  5
34C8
 10
-0.0500000
 20
0.163932
 30
-1.57390e-17
  70
    32
  0
VERTEX
  8
0
  5
34C9
 10
-0.0500000
 20
0.166313
 30
-1.66255e-17
  70
    32
  0
VERTEX
  8
0
  5
34CA
 10
-0.0500000
 20
0.168707
 30
-1.75447e-17
  70
    32
  0
VERTEX
  8
0
  5
34CB
 10
-0.0500000
 20
0.171113
 30
-1.84971e-17
  70
    32
  0
VERTEX
  8
0
  5
34CC
 10
-0.0500000
 20
0.173533
 30
-1.94834e-17
  70
    32
  0
VERTEX
  8
0
  5
34CD
 10
-0.0500000
 20
0.175965
 30
-2.05042e-17
  70
    32
  0
VERTEX
  8
0
  5
34CE
 10
-0.0500000
 20
0.178409
 30
-2.15600e-17
  70
    32
  0
VERTEX
  8
0
  5
34CF
 10
-0.0500000
 20
0.180865
 30
-2.26514e-17
  70
    32
  0
VERTEX
  8
0
  5
34D0
 10
-0.0500000
 20
0.183334
 30
-2.37791e-17
  70
    32
  0
VERTEX
  8
0
  5
34D1
 10
-0.0500000
 20
0.185814
 30
-2.49436e-17
  70
    32
  0
VERTEX
  8
0
  5
34D2
 10
-0.0500000
 20
0.188307
 30
-2.61455e-17
  70
    32
  0
VERTEX
  8
0
  5
34D3
 10
-0.0500000
 20
0.190811
 30
-2.73854e-17
  70
    32
  0
VERTEX
  8
0
  5
34D4
 10
-0.0500000
 20
0.193327
 30
-2.86639e-17
  70
    32
  0
VERTEX
  8
0
  5
34D5
 10
-0.0500000
 20
0.195854
 30
-2.99816e-17
  70
    32
  0
VERTEX
  8
0
  5
34D6
 10
-0.0500000
 20
0.198393
 30
-3.13390e-17
  70
    32
  0
VERTEX
  8
0
  5
34D7
 10
-0.0500000
 20
0.200942
 30
-3.27369e-17
  70
    32
  0
VERTEX
  8
0
  5
34D8
 10
-0.0500000
 20
0.203503
 30
-3.41756e-17
  70
    32
  0
VERTEX
  8
0
  5
34D9
 10
-0.0500000
 20
0.206075
 30
-3.56560e-17
  70
    32
  0
VERTEX
  8
0
  5
34DA
 10
-0.0500000
 20
0.208658
 30
-3.71784e-17
  70
    32
  0
VERTEX
  8
0
  5
34DB
 10
-0.0500000
 20
0.211251
 30
-3.87437e-17
  70
    32
  0
VERTEX
  8
0
  5
34DC
 10
-0.0500000
 20
0.213856
 30
-4.03522e-17
  70
    32
  0
VERTEX
  8
0
  5
34DD
 10
-0.0500000
 20
0.216470
 30
-4.20046e-17
  70
    32
  0
VERTEX
  8
0
  5
34DE
 10
-0.0500000
 20
0.219095
 30
-4.37016e-17
  70
    32
  0
VERTEX
  8
0
  5
34DF
 10
-0.0500000
 20
0.221730
 30
-4.54436e-17
  70
    32
  0
VERTEX
  8
0
  5
34E0
 10
-0.0500000
 20
0.224375
 30
-4.72314e-17
  70
    32
  0
VERTEX
  8
0
  5
34E1
 10
-0.0500000
 20
0.227030
 30
-4.90654e-17
  70
    32
  0
VERTEX
  8
0
  5
34E2
 10
-0.0500000
 20
0.229697
 30
-5.09345e-17
  70
    32
  0
VERTEX
  8
0
  5
34E3
 10
-0.0500000
 20
0.232384
 30
-5.27686e-17
  70
    32
  0
VERTEX
  8
0
  5
34E4
 10
-0.0500000
 20
0.235093
 30
-5.45563e-17
  70
    32
  0
VERTEX
  8
0
  5
34E5
 10
-0.0500000
 20
0.237823
 30
-5.62984e-17
  70
    32
  0
VERTEX
  8
0
  5
34E6
 10
-0.0500000
 20
0.240576
 30
-5.79953e-17
  70
    32
  0
VERTEX
  8
0
  5
34E7
 10
-0.0500000
 20
0.243351
 30
-5.96478e-17
  70
    32
  0
VERTEX
  8
0
  5
34E8
 10
-0.0500000
 20
0.246147
 30
-6.12563e-17
  70
    32
  0
VERTEX
  8
0
  5
34E9
 10
-0.0500000
 20
0.248965
 30
-6.28215e-17
  70
    32
  0
VERTEX
  8
0
  5
34EA
 10
-0.0500000
 20
0.251804
 30
-6.43440e-17
  70
    32
  0
VERTEX
  8
0
  5
34EB
 10
-0.0500000
 20
0.254665
 30
-6.58243e-17
  70
    32
  0
VERTEX
  8
0
  5
34EC
 10
-0.0500000
 20
0.257547
 30
-6.72631e-17
  70
    32
  0
VERTEX
  8
0
  5
34ED
 10
-0.0500000
 20
0.260451
 30
-6.86609e-17
  70
    32
  0
VERTEX
  8
0
  5
34EE
 10
-0.0500000
 20
0.263376
 30
-7.00184e-17
  70
    32
  0
VERTEX
  8
0
  5
34EF
 10
-0.0500000
 20
0.266323
 30
-7.13361e-17
  70
    32
  0
VERTEX
  8
0
  5
34F0
 10
-0.0500000
 20
0.269290
 30
-7.26146e-17
  70
    32
  0
VERTEX
  8
0
  5
34F1
 10
-0.0500000
 20
0.272279
 30
-7.38545e-17
  70
    32
  0
VERTEX
  8
0
  5
34F2
 10
-0.0500000
 20
0.275289
 30
-7.50564e-17
  70
    32
  0
VERTEX
  8
0
  5
34F3
 10
-0.0500000
 20
0.278320
 30
-7.62209e-17
  70
    32
  0
VERTEX
  8
0
  5
34F4
 10
-0.0500000
 20
0.281372
 30
-7.73485e-17
  70
    32
  0
VERTEX
  8
0
  5
34F5
 10
-0.0500000
 20
0.284444
 30
-7.84400e-17
  70
    32
  0
VERTEX
  8
0
  5
34F6
 10
-0.0500000
 20
0.287538
 30
-7.94958e-17
  70
    32
  0
VERTEX
  8
0
  5
34F7
 10
-0.0500000
 20
0.290652
 30
-8.05165e-17
  70
    32
  0
VERTEX
  8
0
  5
34F8
 10
-0.0500000
 20
0.293787
 30
-8.15029e-17
  70
    32
  0
VERTEX
  8
0
  5
34F9
 10
-0.0500000
 20
0.296942
 30
-8.24553e-17
  70
    32
  0
VERTEX
  8
0
  5
34FA
 10
-0.0500000
 20
0.300118
 30
-8.33745e-17
  70
    32
  0
VERTEX
  8
0
  5
34FB
 10
-0.0500000
 20
0.303315
 30
-8.42610e-17
  70
    32
  0
VERTEX
  8
0
  5
34FC
 10
-0.0500000
 20
0.306531
 30
-8.51154e-17
  70
    32
  0
VERTEX
  8
0
  5
34FD
 10
-0.0500000
 20
0.309769
 30
-8.59383e-17
  70
    32
  0
VERTEX
  8
0
  5
34FE
 10
-0.0500000
 20
0.313026
 30
-8.67303e-17
  70
    32
  0
VERTEX
  8
0
  5
34FF
 10
-0.0500000
 20
0.316304
 30
-8.74920e-17
  70
    32
  0
VERTEX
  8
0
  5
3500
 10
-0.0500000
 20
0.319602
 30
-8.82240e-17
  70
    32
  0
VERTEX
  8
0
  5
3501
 10
-0.0500000
 20
0.322920
 30
-8.89269e-17
  70
    32
  0
VERTEX
  8
0
  5
3502
 10
-0.0500000
 20
0.326258
 30
-8.96012e-17
  70
    32
  0
VERTEX
  8
0
  5
3503
 10
-0.0500000
 20
0.329616
 30
-9.02476e-17
  70
    32
  0
VERTEX
  8
0
  5
3504
 10
-0.0500000
 20
0.332994
 30
-9.08666e-17
  70
    32
  0
VERTEX
  8
0
  5
3505
 10
-0.0500000
 20
0.336392
 30
-9.14588e-17
  70
    32
  0
VERTEX
  8
0
  5
3506
 10
-0.0500000
 20
0.339809
 30
-9.20249e-17
  70
    32
  0
VERTEX
  8
0
  5
3507
 10
-0.0500000
 20
0.343246
 30
-9.25654e-17
  70
    32
  0
VERTEX
  8
0
  5
3508
 10
-0.0500000
 20
0.346703
 30
-9.30809e-17
  70
    32
  0
VERTEX
  8
0
  5
3509
 10
-0.0500000
 20
0.350180
 30
-9.35720e-17
  70
    32
  0
VERTEX
  8
0
  5
350A
 10
-0.0500000
 20
0.353675
 30
-9.40393e-17
  70
    32
  0
VERTEX
  8
0
  5
350B
 10
-0.0500000
 20
0.357191
 30
-9.44834e-17
  70
    32
  0
VERTEX
  8
0
  5
350C
 10
-0.0500000
 20
0.360726
 30
-9.49048e-17
  70
    32
  0
VERTEX
  8
0
  5
350D
 10
-0.0500000
 20
0.364280
 30
-9.53043e-17
  70
    32
  0
VERTEX
  8
0
  5
350E
 10
-0.0500000
 20
0.367853
 30
-9.56823e-17
  70
    32
  0
VERTEX
  8
0
  5
350F
 10
-0.0500000
 20
0.371445
 30
-9.60394e-17
  70
    32
  0
VERTEX
  8
0
  5
3510
 10
-0.0500000
 20
0.375057
 30
-9.63763e-17
  70
    32
  0
VERTEX
  8
0
  5
3511
 10
-0.0500000
 20
0.378687
 30
-9.66935e-17
  70
    32
  0
VERTEX
  8
0
  5
3512
 10
-0.0500000
 20
0.382337
 30
-9.69916e-17
  70
    32
  0
VERTEX
  8
0
  5
3513
 10
-0.0500000
 20
0.386006
 30
-9.72713e-17
  70
    32
  0
VERTEX
  8
0
  5
3514
 10
-0.0500000
 20
0.389693
 30
-9.75331e-17
  70
    32
  0
VERTEX
  8
0
  5
3515
 10
-0.0500000
 20
0.393399
 30
-9.77775e-17
  70
    32
  0
VERTEX
  8
0
  5
3516
 10
-0.0500000
 20
0.397124
 30
-9.80053e-17
  70
    32
  0
VERTEX
  8
0
  5
3517
 10
-0.0500000
 20
0.400868
 30
-9.82169e-17
  70
    32
  0
VERTEX
  8
0
  5
3518
 10
-0.0500000
 20
0.404630
 30
-9.84131e-17
  70
    32
  0
VERTEX
  8
0
  5
3519
 10
-0.0500000
 20
0.408411
 30
-9.85942e-17
  70
    32
  0
VERTEX
  8
0
  5
351A
 10
-0.0500000
 20
0.412210
 30
-9.87611e-17
  70
    32
  0
VERTEX
  8
0
  5
351B
 10
-0.0500000
 20
0.416027
 30
-9.89142e-17
  70
    32
  0
VERTEX
  8
0
  5
351C
 10
-0.0500000
 20
0.419863
 30
-9.90541e-17
  70
    32
  0
VERTEX
  8
0
  5
351D
 10
-0.0500000
 20
0.423717
 30
-9.91814e-17
  70
    32
  0
VERTEX
  8
0
  5
351E
 10
-0.0500000
 20
0.427590
 30
-9.92968e-17
  70
    32
  0
VERTEX
  8
0
  5
351F
 10
-0.0500000
 20
0.431480
 30
-9.94008e-17
  70
    32
  0
VERTEX
  8
0
  5
3520
 10
-0.0500000
 20
0.435389
 30
-9.94940e-17
  70
    32
  0
VERTEX
  8
0
  5
3521
 10
-0.0500000
 20
0.439315
 30
-9.95770e-17
  70
    32
  0
VERTEX
  8
0
  5
3522
 10
-0.0500000
 20
0.443260
 30
-9.96504e-17
  70
    32
  0
VERTEX
  8
0
  5
3523
 10
-0.0500000
 20
0.447222
 30
-9.97148e-17
  70
    32
  0
VERTEX
  8
0
  5
3524
 10
-0.0500000
 20
0.451203
 30
-9.97707e-17
  70
    32
  0
VERTEX
  8
0
  5
3525
 10
-0.0500000
 20
0.455201
 30
-9.98188e-17
  70
    32
  0
VERTEX
  8
0
  5
3526
 10
-0.0500000
 20
0.459216
 30
-9.98596e-17
  70
    32
  0
VERTEX
  8
0
  5
3527
 10
-0.0500000
 20
0.463249
 30
-9.98938e-17
  70
    32
  0
VERTEX
  8
0
  5
3528
 10
-0.0500000
 20
0.467300
 30
-9.99220e-17
  70
    32
  0
VERTEX
  8
0
  5
3529
 10
-0.0500000
 20
0.471369
 30
-9.99446e-17
  70
    32
  0
VERTEX
  8
0
  5
352A
 10
-0.0500000
 20
0.475454
 30
-9.99624e-17
  70
    32
  0
VERTEX
  8
0
  5
352B
 10
-0.0500000
 20
0.479557
 30
-9.99759e-17
  70
    32
  0
VERTEX
  8
0
  5
352C
 10
-0.0500000
 20
0.483678
 30
-9.99857e-17
  70
    32
  0
VERTEX
  8
0
  5
352D
 10
-0.0500000
 20
0.487816
 30
-9.99924e-17
  70
    32
  0
VERTEX
  8
0
  5
352E
 10
-0.0500000
 20
0.491970
 30
-9.99966e-17
  70
    32
  0
VERTEX
  8
0
  5
352F
 10
-0.0500000
 20
0.496142
 30
-9.99989e-17
  70
    32
  0
VERTEX
  8
0
  5
3530
 10
-0.0500000
 20
0.500331
 30
-9.99998e-17
  70
    32
  0
VERTEX
  8
0
  5
3531
 10
-0.0500000
 20
0.504537
 30
-1.00000e-16
  70
    32
  0
VERTEX
  8
0
  5
3532
 10
-0.0500000
 20
0.508760
 30
-1.00026e-16
  70
    32
  0
VERTEX
  8
0
  5
3533
 10
-0.0500000
 20
0.512999
 30
-1.00142e-16
  70
    32
  0
VERTEX
  8
0
  5
3534
 10
-0.0500000
 20
0.517255
 30
-1.00349e-16
  70
    32
  0
VERTEX
  8
0
  5
3535
 10
-0.0500000
 20
0.521528
 30
-1.00643e-16
  70
    32
  0
VERTEX
  8
0
  5
3536
 10
-0.0500000
 20
0.525816
 30
-1.01022e-16
  70
    32
  0
VERTEX
  8
0
  5
3537
 10
-0.0500000
 20
0.530121
 30
-1.01485e-16
  70
    32
  0
VERTEX
  8
0
  5
3538
 10
-0.0500000
 20
0.534441
 30
-1.02028e-16
  70
    32
  0
VERTEX
  8
0
  5
3539
 10
-0.0500000
 20
0.538777
 30
-1.02650e-16
  70
    32
  0
VERTEX
  8
0
  5
353A
 10
-0.0500000
 20
0.543128
 30
-1.03347e-16
  70
    32
  0
VERTEX
  8
0
  5
353B
 10
-0.0500000
 20
0.547494
 30
-1.04119e-16
  70
    32
  0
VERTEX
  8
0
  5
353C
 10
-0.0500000
 20
0.551875
 30
-1.04961e-16
  70
    32
  0
VERTEX
  8
0
  5
353D
 10
-0.0500000
 20
0.556271
 30
-1.05873e-16
  70
    32
  0
VERTEX
  8
0
  5
353E
 10
-0.0500000
 20
0.560681
 30
-1.06851e-16
  70
    32
  0
VERTEX
  8
0
  5
353F
 10
-0.0500000
 20
0.565106
 30
-1.07893e-16
  70
    32
  0
VERTEX
  8
0
  5
3540
 10
-0.0500000
 20
0.569544
 30
-1.08997e-16
  70
    32
  0
VERTEX
  8
0
  5
3541
 10
-0.0500000
 20
0.573997
 30
-1.10160e-16
  70
    32
  0
VERTEX
  8
0
  5
3542
 10
-0.0500000
 20
0.578463
 30
-1.11381e-16
  70
    32
  0
VERTEX
  8
0
  5
3543
 10
-0.0500000
 20
0.582943
 30
-1.12656e-16
  70
    32
  0
VERTEX
  8
0
  5
3544
 10
-0.0500000
 20
0.587437
 30
-1.13984e-16
  70
    32
  0
VERTEX
  8
0
  5
3545
 10
-0.0500000
 20
0.591943
 30
-1.15361e-16
  70
    32
  0
VERTEX
  8
0
  5
3546
 10
-0.0500000
 20
0.596462
 30
-1.16787e-16
  70
    32
  0
VERTEX
  8
0
  5
3547
 10
-0.0500000
 20
0.600994
 30
-1.18257e-16
  70
    32
  0
VERTEX
  8
0
  5
3548
 10
-0.0500000
 20
0.605538
 30
-1.19770e-16
  70
    32
  0
VERTEX
  8
0
  5
3549
 10
-0.0500000
 20
0.610095
 30
-1.21324e-16
  70
    32
  0
VERTEX
  8
0
  5
354A
 10
-0.0500000
 20
0.614664
 30
-1.22916e-16
  70
    32
  0
VERTEX
  8
0
  5
354B
 10
-0.0500000
 20
0.619245
 30
-1.24544e-16
  70
    32
  0
VERTEX
  8
0
  5
354C
 10
-0.0500000
 20
0.623837
 30
-1.26205e-16
  70
    32
  0
VERTEX
  8
0
  5
354D
 10
-0.0500000
 20
0.628441
 30
-1.27897e-16
  70
    32
  0
VERTEX
  8
0
  5
354E
 10
-0.0500000
 20
0.633056
 30
-1.29618e-16
  70
    32
  0
VERTEX
  8
0
  5
354F
 10
-0.0500000
 20
0.637682
 30
-1.31365e-16
  70
    32
  0
VERTEX
  8
0
  5
3550
 10
-0.0500000
 20
0.642319
 30
-1.33137e-16
  70
    32
  0
VERTEX
  8
0
  5
3551
 10
-0.0500000
 20
0.646967
 30
-1.34929e-16
  70
    32
  0
VERTEX
  8
0
  5
3552
 10
-0.0500000
 20
0.651626
 30
-1.36741e-16
  70
    32
  0
VERTEX
  8
0
  5
3553
 10
-0.0500000
 20
0.656294
 30
-1.38570e-16
  70
    32
  0
VERTEX
  8
0
  5
3554
 10
-0.0500000
 20
0.660973
 30
-1.40414e-16
  70
    32
  0
VERTEX
  8
0
  5
3555
 10
-0.0500000
 20
0.665661
 30
-1.42269e-16
  70
    32
  0
VERTEX
  8
0
  5
3556
 10
-0.0500000
 20
0.670360
 30
-1.44134e-16
  70
    32
  0
VERTEX
  8
0
  5
3557
 10
-0.0500000
 20
0.675067
 30
-1.46007e-16
  70
    32
  0
VERTEX
  8
0
  5
3558
 10
-0.0500000
 20
0.679784
 30
-1.47885e-16
  70
    32
  0
VERTEX
  8
0
  5
3559
 10
-0.0500000
 20
0.684511
 30
-1.49765e-16
  70
    32
  0
VERTEX
  8
0
  5
355A
 10
-0.0500000
 20
0.689246
 30
-1.51645e-16
  70
    32
  0
VERTEX
  8
0
  5
355B
 10
-0.0500000
 20
0.693989
 30
-1.53524e-16
  70
    32
  0
VERTEX
  8
0
  5
355C
 10
-0.0500000
 20
0.698741
 30
-1.55398e-16
  70
    32
  0
VERTEX
  8
0
  5
355D
 10
-0.0500000
 20
0.703502
 30
-1.57265e-16
  70
    32
  0
VERTEX
  8
0
  5
355E
 10
-0.0500000
 20
0.708270
 30
-1.59124e-16
  70
    32
  0
VERTEX
  8
0
  5
355F
 10
-0.0500000
 20
0.713046
 30
-1.60970e-16
  70
    32
  0
VERTEX
  8
0
  5
3560
 10
-0.0500000
 20
0.717830
 30
-1.62803e-16
  70
    32
  0
VERTEX
  8
0
  5
3561
 10
-0.0500000
 20
0.722622
 30
-1.64619e-16
  70
    32
  0
VERTEX
  8
0
  5
3562
 10
-0.0500000
 20
0.727420
 30
-1.66417e-16
  70
    32
  0
VERTEX
  8
0
  5
3563
 10
-0.0500000
 20
0.732226
 30
-1.68194e-16
  70
    32
  0
VERTEX
  8
0
  5
3564
 10
-0.0500000
 20
0.737039
 30
-1.69947e-16
  70
    32
  0
VERTEX
  8
0
  5
3565
 10
-0.0500000
 20
0.741858
 30
-1.71675e-16
  70
    32
  0
VERTEX
  8
0
  5
3566
 10
-0.0500000
 20
0.746684
 30
-1.73375e-16
  70
    32
  0
VERTEX
  8
0
  5
3567
 10
-0.0500000
 20
0.751516
 30
-1.75044e-16
  70
    32
  0
VERTEX
  8
0
  5
3568
 10
-0.0500000
 20
0.756354
 30
-1.76680e-16
  70
    32
  0
VERTEX
  8
0
  5
3569
 10
-0.0500000
 20
0.761197
 30
-1.78281e-16
  70
    32
  0
VERTEX
  8
0
  5
356A
 10
-0.0500000
 20
0.766047
 30
-1.79845e-16
  70
    32
  0
VERTEX
  8
0
  5
356B
 10
-0.0500000
 20
0.770902
 30
-1.81369e-16
  70
    32
  0
VERTEX
  8
0
  5
356C
 10
-0.0500000
 20
0.775762
 30
-1.82850e-16
  70
    32
  0
VERTEX
  8
0
  5
356D
 10
-0.0500000
 20
0.780627
 30
-1.84287e-16
  70
    32
  0
VERTEX
  8
0
  5
356E
 10
-0.0500000
 20
0.785497
 30
-1.85676e-16
  70
    32
  0
VERTEX
  8
0
  5
356F
 10
-0.0500000
 20
0.790372
 30
-1.87017e-16
  70
    32
  0
VERTEX
  8
0
  5
3570
 10
-0.0500000
 20
0.795251
 30
-1.88305e-16
  70
    32
  0
VERTEX
  8
0
  5
3571
 10
-0.0500000
 20
0.800134
 30
-1.89540e-16
  70
    32
  0
VERTEX
  8
0
  5
3572
 10
-0.0500000
 20
0.805022
 30
-1.90718e-16
  70
    32
  0
VERTEX
  8
0
  5
3573
 10
-0.0500000
 20
0.809913
 30
-1.91837e-16
  70
    32
  0
VERTEX
  8
0
  5
3574
 10
-0.0500000
 20
0.814808
 30
-1.92895e-16
  70
    32
  0
VERTEX
  8
0
  5
3575
 10
-0.0500000
 20
0.819706
 30
-1.93889e-16
  70
    32
  0
VERTEX
  8
0
  5
3576
 10
-0.0500000
 20
0.824608
 30
-1.94817e-16
  70
    32
  0
VERTEX
  8
0
  5
3577
 10
-0.0500000
 20
0.829512
 30
-1.95677e-16
  70
    32
  0
VERTEX
  8
0
  5
3578
 10
-0.0500000
 20
0.834420
 30
-1.96467e-16
  70
    32
  0
VERTEX
  8
0
  5
3579
 10
-0.0500000
 20
0.839330
 30
-1.97183e-16
  70
    32
  0
VERTEX
  8
0
  5
357A
 10
-0.0500000
 20
0.844242
 30
-1.97824e-16
  70
    32
  0
VERTEX
  8
0
  5
357B
 10
-0.0500000
 20
0.849157
 30
-1.98387e-16
  70
    32
  0
VERTEX
  8
0
  5
357C
 10
-0.0500000
 20
0.854073
 30
-1.98870e-16
  70
    32
  0
VERTEX
  8
0
  5
357D
 10
-0.0500000
 20
0.858992
 30
-1.99271e-16
  70
    32
  0
VERTEX
  8
0
  5
357E
 10
-0.0500000
 20
0.863912
 30
-1.99586e-16
  70
    32
  0
VERTEX
  8
0
  5
357F
 10
-0.0500000
 20
0.868833
 30
-1.99814e-16
  70
    32
  0
VERTEX
  8
0
  5
3580
 10
-0.0500000
 20
0.873756
 30
-1.99953e-16
  70
    32
  0
VERTEX
  8
0
  5
3581
 10
-0.0500000
 20
0.878680
 30
-2.00000e-16
  70
    32
  0
SEQEND
  8
0
  5
3582
  0
POLYLINE
  8
0
  5
3583
  62
3
  66
     1
 10
0.000000
 20
0.000000
 30
0.000000
  70
     8
  0
VERTEX
  8
0
  5
3584
 10
0.0500000
 20
0.878680
 30
-2.00000e-16
  70
    32
  0
VERTEX
  8
0
  5
3585
 10
0.0500000
 20
0.873756
 30
-1.99953e-16
  70
    32
  0
VERTEX
  8
0
  5
3586
 10
0.0500000
 20
0.868833
 30
-1.99814e-16
  70
    32
  0
VERTEX
  8
0
  5
3587
 10
0.0500000
 20
0.863912
 30
-1.99586e-16
  70
    32
  0
VERTEX
  8
0
  5
3588
 10
0.0500000
 20
0.858992
 30
-1.99271e-16
  70
    32
  0
VERTEX
  8
0
  5
3589
 10
0.0500000
 20
0.854073
 30
-1.98870e-16
  70
    32
  0
VERTEX
  8
0
  5
358A
 10
0.0500000
 20
0.849157
 30
-1.98387e-16
  70
    32
  0
VERTEX
  8
0
  5
358B
 10
0.0500000
 20
0.844242
 30
-1.97824e-16
  70
    32
  0
VERTEX
  8
0
  5
358C
 10
0.0500000
 20
0.839330
 30
-1.97183e-16
  70
    32
  0
VERTEX
  8
0
  5
358D
 10
0.0500000
 20
0.834420
 30
-1.96467e-16
  70
    32
  0
VERTEX
  8
0
  5
358E
 10
0.0500000
 20
0.829512
 30
-1.95677e-16
  70
    32
  0
VERTEX
  8
0
  5
358F
 10
0.0500000
 20
0.824608
 30
-1.94817e-16
  70
    32
  0
VERTEX
  8
0
  5
3590
 10
0.0500000
 20
0.819706
 30
-1.93889e-16
  70
    32
  0
VERTEX
  8
0
  5
3591
 10
0.0500000
 20
0.814808
 30
-1.92895e-16
  70
    32
  0
VERTEX
  8
0
  5
3592
 10
0.0500000
 20
0.809913
 30
-1.91837e-16
  70
    32
  0
VERTEX
  8
0
  5
3593
 10
0.0500000
 20
0.805022
 30
-1.90718e-16
  70
    32
  0
VERTEX
  8
0
  5
3594
 10
0.0500000
 20
0.800134
 30
-1.89540e-16
  70
    32
  0
VERTEX
  8
0
  5
3595
 10
0.0500000
 20
0.795251
 30
-1.88305e-16
  70
    32
  0
VERTEX
  8
0
  5
3596
 10
0.0500000
 20
0.790372
 30
-1.87017e-16
  70
    32
  0
VERTEX
  8
0
  5
3597
 10
0.0500000
 20
0.785497
 30
-1.85676e-16
  70
    32
  0
VERTEX
  8
0
  5
3598
 10
0.0500000
 20
0.780627
 30
-1.84287e-16
  70
    32
  0
VERTEX
  8
0
  5
3599
 10
0.0500000
 20
0.775762
 30
-1.82850e-16
  70
    32
  0
VERTEX
  8
0
  5
359A
 10
0.0500000
 20
0.770902
 30
-1.81369e-16
  70
    32
  0
VERTEX
  8
0
  5
359B
 10
0.0500000
 20
0.766047
 30
-1.79845e-16
  70
    32
  0
VERTEX
  8
0
  5
359C
 10
0.0500000
 20
0.761197
 30
-1.78281e-16
  70
    32
  0
VERTEX
  8
0
  5
359D
 10
0.0500000
 20
0.756354
 30
-1.76680e-16
  70
    32
  0
VERTEX
  8
0
  5
359E
 10
0.0500000
 20
0.751516
 30
-1.75044e-16
  70
    32
  0
VERTEX
  8
0
  5
359F
 10
0.0500000
 20
0.746684
 30
-1.73375e-16
  70
    32
  0
VERTEX
  8
0
  5
35A0
 10
0.0500000
 20
0.741858
 30
-1.71675e-16
  70
    32
  0
VERTEX
  8
0
  5
35A1
 10
0.0500000
 20
0.737039
 30
-1.69947e-16
  70
    32
  0
VERTEX
  8
0
  5
35A2
 10
0.0500000
 20
0.732226
 30
-1.68194e-16
  70
    32
  0
VERTEX
  8
0
  5
35A3
 10
0.0500000
 20
0.727420
 30
-1.66417e-16
  70
    32
  0
VERTEX
  8
0
  5
35A4
 10
0.0500000
 20
0.722622
 30
-1.64619e-16
  70
    32
  0
VERTEX
  8
0
  5
35A5
 10
0.0500000
 20
0.717830
 30
-1.62803e-16
  70
    32
  0
VERTEX
  8
0
  5
35A6
 10
0.0500000
 20
0.713046
 30
-1.60970e-16
  70
    32
  0
VERTEX
  8
0
  5
35A7
 10
0.0500000
 20
0.708270
 30
-1.59124e-16
  70
    32
  0
VERTEX
  8
0
  5
35A8
 10
0.0500000
 20
0.703502
 30
-1.57265e-16
  70
    32
  0
VERTEX
  8
0
  5
35A9
 10
0.0500000
 20
0.698741
 30
-1.55398e-16
  70
    32
  0
VERTEX
  8
0
  5
35AA
 10
0.0500000
 20
0.693989
 30
-1.53524e-16
  70
    32
  0
VERTEX
  8
0
  5
35AB
 10
0.0500000
 20
0.689246
 30
-1.51645e-16
  70
    32
  0
VERTEX
  8
0
  5
35AC
 10
0.0500000
 20
0.684511
 30
-1.49765e-16
  70
    32
  0
VERTEX
  8
0
  5
35AD
 10
0.0500000
 20
0.679784
 30
-1.47885e-16
  70
    32
  0
VERTEX
  8
0
  5
35AE
 10
0.0500000
 20
0.675067
 30
-1.46007e-16
  70
    32
  0
VERTEX
  8
0
  5
35AF
 10
0.0500000
 20
0.670360
 30
-1.44134e-16
  70
    32
  0
VERTEX
  8
0
  5
35B0
 10
0.0500000
 20
0.665661
 30
-1.42269e-16
  70
    32
  0
VERTEX
  8
0
  5
35B1
 10
0.0500000
 20
0.660973
 30
-1.40414e-16
  70
    32
  0
VERTEX
  8
0
  5
35B2
 10
0.0500000
 20
0.656294
 30
-1.38570e-16
  70
    32
  0
VERTEX
  8
0
  5
35B3
 10
0.0500000
 20
0.651626
 30
-1.36741e-16
  70
    32
  0
VERTEX
  8
0
  5
35B4
 10
0.0500000
 20
0.646967
 30
-1.34929e-16
  70
    32
  0
VERTEX
  8
0
  5
35B5
 10
0.0500000
 20
0.642319
 30
-1.33137e-16
  70
    32
  0
VERTEX
  8
0
  5
35B6
 10
0.0500000
 20
0.637682
 30
-1.31365e-16
  70
    32
  0
VERTEX
  8
0
  5
35B7
 10
0.0500000
 20
0.633056
 30
-1.29618e-16
  70
    32
  0
VERTEX
  8
0
  5
35B8
 10
0.0500000
 20
0.628441
 30
-1.27897e-16
  70
    32
  0
VERTEX
  8
0
  5
35B9
 10
0.0500000
 20
0.623837
 30
-1.26205e-16
  70
    32
  0
VERTEX
  8
0
  5
35BA
 10
0.0500000
 20
0.619245
 30
-1.24544e-16
  70
    32
  0
VERTEX
  8
0
  5
35BB
 10
0.0500000
 20
0.614664
 30
-1.22916e-16
  70
    32
  0
VERTEX
  8
0
  5
35BC
 10
0.0500000
 20
0.610095
 30
-1.21324e-16
  70
    32
  0
VERTEX
  8
0
  5
35BD
 10
0.0500000
 20
0.605538
 30
-1.19770e-16
  70
    32
  0
VERTEX
  8
0
  5
35BE
 10
0.0500000
 20
0.600994
 30
-1.18257e-16
  70
    32
  0
VERTEX
  8
0
  5
35BF
 10
0.0500000
 20
0.596462
 30
-1.16787e-16
  70
    32
  0
VERTEX
  8
0
  5
35C0
 10
0.0500000
 20
0.591943
 30
-1.15361e-16
  70
    32
  0
VERTEX
  8
0
  5
35C1
 10
0.0500000
 20
0.587437
 30
-1.13984e-16
  70
    32
  0
VERTEX
  8
0
  5
35C2
 10
0.0500000
 20
0.582943
 30
-1.12656e-16
  70
    32
  0
VERTEX
  8
0
  5
35C3
 10
0.0500000
 20
0.578463
 30
-1.11381e-16
  70
    32
  0
VERTEX
  8
0
  5
35C4
 10
0.0500000
 20
0.573997
 30
-1.10160e-16
  70
    32
  0
VERTEX
  8
0
  5
35C5
 10
0.0500000
 20
0.569544
 30
-1.08997e-16
  70
    32
  0
VERTEX
  8
0
  5
35C6
 10
0.0500000
 20
0.565106
 30
-1.07893e-16
  70
    32
  0
VERTEX
  8
0
  5
35C7
 10
0.0500000
 20
0.560681
 30
-1.06851e-16
  70
    32
  0
VERTEX
  8
0
  5
35C8
 10
0.0500000
 20
0.556271
 30
-1.05873e-16
  70
    32
  0
VERTEX
  8
0
  5
35C9
 10
0.0500000
 20
0.551875
 30
-1.04961e-16
  70
    32
  0
VERTEX
  8
0
  5
35CA
 10
0.0500000
 20
0.547494
 30
-1.04119e-16
  70
    32
  0
VERTEX
  8
0
  5
35CB
 10
0.0500000
 20
0.543128
 30
-1.03347e-16
  70
    32
  0
VERTEX
  8
0
  5
35CC
 10
0.0500000
 20
0.538777
 30
-1.02650e-16
  70
    32
  0
VERTEX
  8
0
  5
35CD
 10
0.0500000
 20
0.534441
 30
-1.02028e-16
  70
    32
  0
VERTEX
  8
0
  5
35CE
 10
0.0500000
 20
0.530121
 30
-1.01485e-16
  70
    32
  0
VERTEX
  8
0
  5
35CF
 10
0.0500000
 20
0.525816
 30
-1.01022e-16
  70
    32
  0
VERTEX
  8
0
  5
35D0
 10
0.0500000
 20
0.521528
 30
-1.00643e-16
  70
    32
  0
VERTEX
  8
0
  5
35D1
 10
0.0500000
 20
0.517255
 30
-1.00349e-16
  70
    32
  0
VERTEX
  8
0
  5
35D2
 10
0.0500000
 20
0.512999
 30
-1.00142e-16
  70
    32
  0
VERTEX
  8
0
  5
35D3
 10
0.0500000
 20
0.508760
 30
-1.00026e-16
  70
    32
  0
VERTEX
  8
0
  5
35D4
 10
0.0500000
 20
0.504537
 30
-1.00000e-16
  70
    32
  0
VERTEX
  8
0
  5
35D5
 10
0.0500000
 20
0.500331
 30
-9.99998e-17
  70
    32
  0
VERTEX
  8
0
  5
35D6
 10
0.0500000
 20
0.496142
 30
-9.99989e-17
  70
    32
  0
VERTEX
  8
0
  5
35D7
 10
0.0500000
 20
0.491970
 30
-9.99966e-17
  70
    32
  0
VERTEX
  8
0
  5
35D8
 10
0.0500000
 20
0.487816
 30
-9.99924e-17
  70
    32
  0
VERTEX
  8
0
  5
35D9
 10
0.0500000
 20
0.483678
 30
-9.99857e-17
  70
    32
  0
VERTEX
  8
0
  5
35DA
 10
0.0500000
 20
0.479557
 30
-9.99759e-17
  70
    32
  0
VERTEX
  8
0
  5
35DB
 10
0.0500000
 20
0.475454
 30
-9.99624e-17
  70
    32
  0
VERTEX
  8
0
  5
35DC
 10
0.0500000
 20
0.471369
 30
-9.99446e-17
  70
    32
  0
VERTEX
  8
0
  5
35DD
 10
0.0500000
 20
0.467300
 30
-9.99220e-17
  70
    32
  0
VERTEX
  8
0
  5
35DE
 10
0.0500000
 20
0.463249
 30
-9.98938e-17
  70
    32
  0
VERTEX
  8
0
  5
35DF
 10
0.0500000
 20
0.459216
 30
-9.98596e-17
  70
    32
  0
VERTEX
  8
0
  5
35E0
 10
0.0500000
 20
0.455201
 30
-9.98188e-17
  70
    32
  0
VERTEX
  8
0
  5
35E1
 10
0.0500000
 20
0.451203
 30
-9.97707e-17
  70
    32
  0
VERTEX
  8
0
  5
35E2
 10
0.0500000
 20
0.447222
 30
-9.97148e-17
  70
    32
  0
VERTEX
  8
0
  5
35E3
 10
0.0500000
 20
0.443260
 30
-9.96504e-17
  70
    32
  0
VERTEX
  8
0
  5
35E4
 10
0.0500000
 20
0.439315
 30
-9.95770e-17
  70
    32
  0
VERTEX
  8
0
  5
35E5
 10
0.0500000
 20
0.435389
 30
-9.94940e-17
  70
    32
  0
VERTEX
  8
0
  5
35E6
 10
0.0500000
 20
0.431480
 30
-9.94008e-17
  70
    32
  0
VERTEX
  8
0
  5
35E7
 10
0.0500000
 20
0.427590
 30
-9.92968e-17
  70
    32
  0
VERTEX
  8
0
  5
35E8
 10
0.0500000
 20
0.423717
 30
-9.91814e-17
  70
    32
  0
VERTEX
  8
0
  5
35E9
 10
0.0500000
 20
0.419863
 30
-9.90541e-17
  70
    32
  0
VERTEX
  8
0
  5
35EA
 10
0.0500000
 20
0.416027
 30
-9.89142e-17
  70
    32
  0
VERTEX
  8
0
  5
35EB
 10
0.0500000
 20
0.412210
 30
-9.87611e-17
  70
    32
  0
VERTEX
  8
0
  5
35EC
 10
0.0500000
 20
0.408411
 30
-9.85942e-17
  70
    32
  0
VERTEX
  8
0
  5
35ED
 10
0.0500000
 20
0.404630
 30
-9.84131e-17
  70
    32
  0
VERTEX
  8
0
  5
35EE
 10
0.0500000
 20
0.400868
 30
-9.82169e-17
  70
    32
  0
VERTEX
  8
0
  5
35EF
 10
0.0500000
 20
0.397124
 30
-9.80053e-17
  70
    32
  0
VERTEX
  8
0
  5
35F0
 10
0.0500000
 20
0.393399
 30
-9.77775e-17
  70
    32
  0
VERTEX
  8
0
  5
35F1
 10
0.0500000
 20
0.389693
 30
-9.75331e-17
  70
    32
  0
VERTEX
  8
0
  5
35F2
 10
0.0500000
 20
0.386006
 30
-9.72713e-17
  70
    32
  0
VERTEX
  8
0
  5
35F3
 10
0.0500000
 20
0.382337
 30
-9.69916e-17
  70
    32
  0
VERTEX
  8
0
  5
35F4
 10
0.0500000
 20
0.378687
 30
-9.66935e-17
  70
    32
  0
VERTEX
  8
0
  5
35F5
 10
0.0500000
 20
0.375057
 30
-9.63763e-17
  70
    32
  0
VERTEX
  8
0
  5
35F6
 10
0.0500000
 20
0.371445
 30
-9.60394e-17
  70
    32
  0
VERTEX
  8
0
  5
35F7
 10
0.0500000
 20
0.367853
 30
-9.56823e-17
  70
    32
  0
VERTEX
  8
0
  5
35F8
 10
0.0500000
 20
0.364280
 30
-9.53043e-17
  70
    32
  0
VERTEX
  8
0
  5
35F9
 10
0.0500000
 20
0.360726
 30
-9.49048e-17
  70
    32
  0
VERTEX
  8
0
  5
35FA
 10
0.0500000
 20
0.357191
 30
-9.44834e-17
  70
    32
  0
VERTEX
  8
0
  5
35FB
 10
0.0500000
 20
0.353675
 30
-9.40393e-17
  70
    32
  0
VERTEX
  8
0
  5
35FC
 10
0.0500000
 20
0.350180
 30
-9.35720e-17
  70
    32
  0
VERTEX
  8
0
  5
35FD
 10
0.0500000
 20
0.346703
 30
-9.30809e-17
  70
    32
  0
VERTEX
  8
0
  5
35FE
 10
0.0500000
 20
0.343246
 30
-9.25654e-17
  70
    32
  0
VERTEX
  8
0
  5
35FF
 10
0.0500000
 20
0.339809
 30
-9.20249e-17
  70
    32
  0
VERTEX
  8
0
  5
3600
 10
0.0500000
 20
0.336392
 30
-9.14588e-17
  70
    32
  0
VERTEX
  8
0
  5
3601
 10
0.0500000
 20
0.332994
 30
-9.08666e-17
  70
    32
  0
VERTEX
  8
0
  5
3602
 10
0.0500000
 20
0.329616
 30
-9.02476e-17
  70
    32
  0
VERTEX
  8
0
  5
3603
 10
0.0500000
 20
0.326258
 30
-8.96012e-17
  70
    32
  0
VERTEX
  8
0
  5
3604
 10
0.0500000
 20
0.322920
 30
-8.89269e-17
  70
    32
  0
VERTEX
  8
0
  5
3605
 10
0.0500000
 20
0.319602
 30
-8.82240e-17
  70
    32
  0
VERTEX
  8
0
  5
3606
 10
0.0500000
 20
0.316304
 30
-8.74920e-17
  70
    32
  0
VERTEX
  8
0
  5
3607
 10
0.0500000
 20
0.313026
 30
-8.67303e-17
  70
    32
  0
VERTEX
  8
0
  5
3608
 10
0.0500000
 20
0.309769
 30
-8.59383e-17
  70
    32
  0
VERTEX
  8
0
  5
3609
 10
0.0500000
 20
0.306531
 30
-8.51154e-17
  70
    32
  0
VERTEX
  8
0
  5
360A
 10
0.0500000
 20
0.303315
 30
-8.42610e-17
  70
    32
  0
VERTEX
  8
0
  5
360B
 10
0.0500000
 20
0.300118
 30
-8.33745e-17
  70
    32
  0
VERTEX
  8
0
  5
360C
 10
0.0500000
 20
0.296942
 30
-8.24553e-17
  70
    32
  0
VERTEX
  8
0
  5
360D
 10
0.0500000
 20
0.293787
 30
-8.15029e-17
  70
    32
  0
VERTEX
  8
0
  5
360E
 10
0.0500000
 20
0.290652
 30
-8.05165e-17
  70
    32
  0
VERTEX
  8
0
  5
360F
 10
0.0500000
 20
0.287538
 30
-7.94958e-17
  70
    32
  0
VERTEX
  8
0
  5
3610
 10
0.0500000
 20
0.284444
 30
-7.84400e-17
  70
    32
  0
VERTEX
  8
0
  5
3611
 10
0.0500000
 20
0.281372
 30
-7.73485e-17
  70
    32
  0
VERTEX
  8
0
  5
3612
 10
0.0500000
 20
0.278320
 30
-7.62209e-17
  70
    32
  0
VERTEX
  8
0
  5
3613
 10
0.0500000
 20
0.275289
 30
-7.50564e-17
  70
    32
  0
VERTEX
  8
0
  5
3614
 10
0.0500000
 20
0.272279
 30
-7.38545e-17
  70
    32
  0
VERTEX
  8
0
  5
3615
 10
0.0500000
 20
0.269290
 30
-7.26146e-17
  70
    32
  0
VERTEX
  8
0
  5
3616
 10
0.0500000
 20
0.266323
 30
-7.13361e-17
  70
    32
  0
VERTEX
  8
0
  5
3617
 10
0.0500000
 20
0.263376
 30
-7.00184e-17
  70
    32
  0
VERTEX
  8
0
  5
3618
 10
0.0500000
 20
0.260451
 30
-6.86609e-17
  70
    32
  0
VERTEX
  8
0
  5
3619
 10
0.0500000
 20
0.257547
 30
-6.72631e-17
  70
    32
  0
VERTEX
  8
0
  5
361A
 10
0.0500000
 20
0.254665
 30
-6.58243e-17
  70
    32
  0
VERTEX
  8
0
  5
361B
 10
0.0500000
 20
0.251804
 30
-6.43440e-17
  70
    32
  0
VERTEX
  8
0
  5
361C
 10
0.0500000
 20
0.248965
 30
-6.28215e-17
  70
    32
  0
VERTEX
  8
0
  5
361D
 10
0.0500000
 20
0.246147
 30
-6.12563e-17
  70
    32
  0
VERTEX
  8
0
  5
361E
 10
0.0500000
 20
0.243351
 30
-5.96478e-17
  70
    32
  0
VERTEX
  8
0
  5
361F
 10
0.0500000
 20
0.240576
 30
-5.79953e-17
  70
    32
  0
VERTEX
  8
0
  5
3620
 10
0.0500000
 20
0.237823
 30
-5.62984e-17
  70
    32
  0
VERTEX
  8
0
  5
3621
 10
0.0500000
 20
0.235093
 30
-5.45563e-17
  70
    32
  0
VERTEX
  8
0
  5
3622
 10
0.0500000
 20
0.232384
 30
-5.27686e-17
  70
    32
  0
VERTEX
  8
0
  5
3623
 10
0.0500000
 20
0.229697
 30
-5.09345e-17
  70
    32
  0
VERTEX
  8
0
  5
3624
 10
0.0500000
 20
0.227030
 30
-4.90654e-17
  70
    32
  0
VERTEX
  8
0
  5
3625
 10
0.0500000
 20
0.224375
 30
-4.72314e-17
  70
    32
  0
VERTEX
  8
0
  5
3626
 10
0.0500000
 20
0.221730
 30
-4.54436e-17
  70
    32
  0
VERTEX
  8
0
  5
3627
 10
0.0500000
 20
0.219095
 30
-4.37016e-17
  70
    32
  0
VERTEX
  8
0
  5
3628
 10
0.0500000
 20
0.216470
 30
-4.20046e-17
  70
    32
  0
VERTEX
  8
0
  5
3629
 10
0.0500000
 20
0.213856
 30
-4.03522e-17
  70
    32
  0
VERTEX
  8
0
  5
362A
 10
0.0500000
 20
0.211251
 30
-3.87437e-17
  70
    32
  0
VERTEX
  8
0
  5
362B
 10
0.0500000
 20
0.208658
 30
-3.71784e-17
  70
    32
  0
VERTEX
  8
0
  5
362C
 10
0.0500000
 20
0.206075
 30
-3.56560e-17
  70
    32
  0
VERTEX
  8
0
  5
362D
 10
0.0500000
 20
0.203503
 30
-3.41756e-17
  70
    32
  0
VERTEX
  8
0
  5
362E
 10
0.0500000
 20
0.200942
 30
-3.27369e-17
  70
    32
  0
VERTEX
  8
0
  5
362F
 10
0.0500000
 20
0.198393
 30
-3.13390e-17
  70
    32
  0
VERTEX
  8
0
  5
3630
 10
0.0500000
 20
0.195854
 30
-2.99816e-17
  70
    32
  0
VERTEX
  8
0
  5
3631
 10
0.0500000
 20
0.193327
 30
-2.86639e-17
  70
    32
  0
VERTEX
  8
0
  5
3632
 10
0.0500000
 20
0.190811
 30
-2.73854e-17
  70
    32
  0
VERTEX
  8
0
  5
3633
 10
0.0500000
 20
0.188307
 30
-2.61455e-17
  70
    32
  0
VERTEX
  8
0
  5
3634
 10
0.0500000
 20
0.185814
 30
-2.49436e-17
  70
    32
  0
VERTEX
  8
0
  5
3635
 10
0.0500000
 20
0.183334
 30
-2.37791e-17
  70
    32
  0
VERTEX
  8
0
  5
3636
 10
0.0500000
 20
0.180865
 30
-2.26514e-17
  70
    32
  0
VERTEX
  8
0
  5
3637
 10
0.0500000
 20
0.178409
 30
-2.15600e-17
  70
    32
  0
VERTEX
  8
0
  5
3638
 10
0.0500000
 20
0.175965
 30
-2.05042e-17
  70
    32
  0
VERTEX
  8
0
  5
3639
 10
0.0500000
 20
0.173533
 30
-1.94834e-17
  70
    32
  0
VERTEX
  8
0
  5
363A
 10
0.0500000
 20
0.171113
 30
-1.84971e-17
  70
    32
  0
VERTEX
  8
0
  5
363B
 10
0.0500000
 20
0.168707
 30
-1.75447e-17
  70
    32
  0
VERTEX
  8
0
  5
363C
 10
0.0500000
 20
0.166313
 30
-1.66255e-17
  70
    32
  0
VERTEX
  8
0
  5
363D
 10
0.0500000
 20
0.163932
 30
-1.57390e-17
  70
    32
  0
VERTEX
  8
0
  5
363E
 10
0.0500000
 20
0.161564
 30
-1.48846e-17
  70
    32
  0
VERTEX
  8
0
  5
363F
 10
0.0500000
 20
0.159209
 30
-1.40617e-17
  70
    32
  0
VERTEX
  8
0
  5
3640
 10
0.0500000
 20
0.156867
 30
-1.32696e-17
  70
    32
  0
VERTEX
  8
0
  5
3641
 10
0.0500000
 20
0.154539
 30
-1.25079e-17
  70
    32
  0
VERTEX
  8
0
  5
3642
 10
0.0500000
 20
0.152224
 30
-1.17760e-17
  70
    32
  0
VERTEX
  8
0
  5
3643
 10
0.0500000
 20
0.149923
 30
-1.10731e-17
  70
    32
  0
VERTEX
  8
0
  5
3644
 10
0.0500000
 20
0.147636
 30
-1.03988e-17
  70
    32
  0
VERTEX
  8
0
  5
3645
 10
0.0500000
 20
0.145362
 30
-9.75243e-18
  70
    32
  0
VERTEX
  8
0
  5
3646
 10
0.0500000
 20
0.143103
 30
-9.13342e-18
  70
    32
  0
VERTEX
  8
0
  5
3647
 10
0.0500000
 20
0.140858
 30
-8.54117e-18
  70
    32
  0
VERTEX
  8
0
  5
3648
 10
0.0500000
 20
0.138627
 30
-7.97510e-18
  70
    32
  0
VERTEX
  8
0
  5
3649
 10
0.0500000
 20
0.136410
 30
-7.43460e-18
  70
    32
  0
VERTEX
  8
0
  5
364A
 10
0.0500000
 20
0.134208
 30
-6.91910e-18
  70
    32
  0
VERTEX
  8
0
  5
364B
 10
0.0500000
 20
0.132021
 30
-6.42799e-18
  70
    32
  0
VERTEX
  8
0
  5
364C
 10
0.0500000
 20
0.129848
 30
-5.96069e-18
  70
    32
  0
VERTEX
  8
0
  5
364D
 10
0.0500000
 20
0.127691
 30
-5.51661e-18
  70
    32
  0
VERTEX
  8
0
  5
364E
 10
0.0500000
 20
0.125548
 30
-5.09514e-18
  70
    32
  0
VERTEX
  8
0
  5
364F
 10
0.0500000
 20
0.123421
 30
-4.69571e-18
  70
    32
  0
VERTEX
  8
0
  5
3650
 10
0.0500000
 20
0.121308
 30
-4.31772e-18
  70
    32
  0
VERTEX
  8
0
  5
3651
 10
0.0500000
 20
0.119212
 30
-3.96058e-18
  70
    32
  0
VERTEX
  8
0
  5
3652
 10
0.0500000
 20
0.117131
 30
-3.62370e-18
  70
    32
  0
VERTEX
  8
0
  5
3653
 10
0.0500000
 20
0.115065
 30
-3.30649e-18
  70
    32
  0
VERTEX
  8
0
  5
3654
 10
0.0500000
 20
0.113016
 30
-3.00834e-18
  70
    32
  0
VERTEX
  8
0
  5
3655
 10
0.0500000
 20
0.110982
 30
-2.72869e-18
  70
    32
  0
VERTEX
  8
0
  5
3656
 10
0.0500000
 20
0.108964
 30
-2.46692e-18
  70
    32
  0
VERTEX
  8
0
  5
3657
 10
0.0500000
 20
0.106963
 30
-2.22245e-18
  70
    32
  0
VERTEX
  8
0
  5
3658
 10
0.0500000
 20
0.104978
 30
-1.99470e-18
  70
    32
  0
VERTEX
  8
0
  5
3659
 10
0.0500000
 20
0.103009
 30
-1.78306e-18
  70
    32
  0
VERTEX
  8
0
  5
365A
 10
0.0500000
 20
0.101057
 30
-1.58694e-18
  70
    32
  0
VERTEX
  8
0
  5
365B
 10
0.0500000
 20
0.0991217
 30
-1.40576e-18
  70
    32
  0
VERTEX
  8
0
  5
365C
 10
0.0500000
 20
0.0972031
 30
-1.23893e-18
  70
    32
  0
VERTEX
  8
0
  5
365D
 10
0.0500000
 20
0.0953016
 30
-1.08584e-18
  70
    32
  0
VERTEX
  8
0
  5
365E
 10
0.0500000
 20
0.0934171
 30
-9.45920e-19
  70
    32
  0
VERTEX
  8
0
  5
365F
 10
0.0500000
 20
0.0915498
 30
-8.18564e-19
  70
    32
  0
VERTEX
  8
0
  5
3660
 10
0.0500000
 20
0.0896999
 30
-7.03185e-19
  70
    32
  0
VERTEX
  8
0
  5
3661
 10
0.0500000
 20
0.0878674
 30
-5.99192e-19
  70
    32
  0
VERTEX
  8
0
  5
3662
 10
0.0500000
 20
0.0860525
 30
-5.05993e-19
  70
    32
  0
VERTEX
  8
0
  5
3663
 10
0.0500000
 20
0.0842554
 30
-4.22997e-19
  70
    32
  0
VERTEX
  8
0
  5
3664
 10
0.0500000
 20
0.0824761
 30
-3.49612e-19
  70
    32
  0
VERTEX
  8
0
  5
3665
 10
0.0500000
 20
0.0807147
 30
-2.85247e-19
  70
    32
  0
VERTEX
  8
0
  5
3666
 10
0.0500000
 20
0.0789715
 30
-2.29311e-19
  70
    32
  0
VERTEX
  8
0
  5
3667
 10
0.0500000
 20
0.0772465
 30
-1.81211e-19
  70
    32
  0
VERTEX
  8
0
  5
3668
 10
0.0500000
 20
0.0755399
 30
-1.40357e-19
  70
    32
  0
VERTEX
  8
0
  5
3669
 10
0.0500000
 20
0.0738517
 30
-1.06157e-19
  70
    32
  0
VERTEX
  8
0
  5
366A
 10
0.0500000
 20
0.0721822
 30
-7.80193e-20
  70
    32
  0
VERTEX
  8
0
  5
366B
 10
0.0500000
 20
0.0705314
 30
-5.53527e-20
  70
    32
  0
VERTEX
  8
0
  5
366C
 10
0.0500000
 20
0.0688995
 30
-3.75656e-20
  70
    32
  0
VERTEX
  8
0
  5
366D
 10
0.0500000
 20
0.0672866
 30
-2.40667e-20
  70
    32
  0
VERTEX
  8
0
  5
366E
 10
0.0500000
 20
0.0656928
 30
-1.42644e-20
  70
    32
  0
VERTEX
  8
0
  5
366F
 10
0.0500000
 20
0.0641182
 30
-7.56733e-21
  70
    32
  0
VERTEX
  8
0
  5
3670
 10
0.0500000
 20
0.0625631
 30
-3.38396e-21
  70
    32
  0
VERTEX
  8
0
  5
3671
 10
0.0500000
 20
0.0610274
 30
-1.12285e-21
  70
    32
  0
VERTEX
  8
0
  5
3672
 10
0.0500000
 20
0.0595114
 30
-1.92531e-22
  70
    32
  0
VERTEX
  8
0
  5
3673
 10
0.0500000
 20
0.0580151
 30
-1.54014e-24
  70
    32
  0
VERTEX
  8
0
  5
3674
 10
0.0500000
 20
0.0565387
 30
0.000000
  70
    32
  0
VERTEX
  8
0
  5
3675
 10
0.0500000
 20
0.0550822
 30
0.000000
  70
    32
  0
VERTEX
  8
0
  5
3676
 10
0.0500000
 20
0.0536456
 30
0.000000
  70
    32
  0
VERTEX
  8
0
  5
3677
 10
0.0500000
 20
0.0522288
 30
0.000000
  70
    32
  0
VERTEX
  8
0
  5
3678
 10
0.0500000
 20
0.0508318
 30
0.000000
  70
    32
  0
VERTEX
  8
0
  5
3679
 10
0.0500000
 20
0.0494545
 30
0.000000
  70
    32
  0
VERTEX
  8
0
  5
367A
 10
0.0500000
 20
0.0480970
 30
0.000000
  70
    32
  0
VERTEX
  8
0
  5
367B
 10
0.0500000
 20
0.0467591
 30
0.000000
  70
    32
  0
VERTEX
  8
0
  5
367C
 10
0.0500000
 20
0.0454410
 30
0.000000
  70
    32
  0
VERTEX
  8
0
  5
367D
 10
0.0500000
 20
0.0441424
 30
0.000000
  70
    32
  0
VERTEX
  8
0
  5
367E
 10
0.0500000
 20
0.0428635
 30
0.000000
  70
    32
  0
VERTEX
  8
0
  5
367F
 10
0.0500000
 20
0.0416040
 30
0.000000
  70
    32
  0
VERTEX
  8
0
  5
3680
 10
0.0500000
 20
0.0403642
 30
0.000000
  70
    32
  0
VERTEX
  8
0
  5
3681
 10
0.0500000
 20
0.0391438
 30
0.000000
  70
    32
  0
VERTEX
  8
0
  5
3682
 10
0.0500000
 20
0.0379428
 30
0.000000
  70
    32
  0
VERTEX
  8
0
  5
3683
 10
0.0500000
 20
0.0367613
 30
0.000000
  70
    32
  0
VERTEX
  8
0
  5
3684
 10
0.0500000
 20
0.0355992
 30
0.000000
  70
    32
  0
VERTEX
  8
0
  5
3685
 10
0.0500000
 20
0.0344564
 30
0.000000
  70
    32
  0
VERTEX
  8
0
  5
3686
 10
0.0500000
 20
0.0333330
 30
0.000000
  70
    32
  0
VERTEX
  8
0
  5
3687
 10
0.0500000
 20
0.0322288
 30
0.000000
  70
    32
  0
VERTEX
  8
0
  5
3688
 10
0.0500000
 20
0.0311439
 30
0.000000
  70
    32
  0
VERTEX
  8
0
  5
3689
 10
0.0500000
 20
0.0300782
 30
0.000000
  70
    32
  0
VERTEX
  8
0
  5
368A
 10
0.0500000
 20
0.0290317
 30
0.000000
  70
    32
  0
VERTEX
  8
0
  5
368B
 10
0.0500000
 20
0.0280044
 30
0.000000
  70
    32
  0
VERTEX
  8
0
  5
368C
 10
0.0500000
 20
0.0269961
 30
0.000000
  70
    32
  0
VERTEX
  8
0
  5
368D
 10
0.0500000
 20
0.0260070
 30
0.000000
  70
    32
  0
VERTEX
  8
0
  5
368E
 10
0.0500000
 20
0.0250369
 30
0.000000
  70
    32
  0
VERTEX
  8
0
  5
368F
 10
0.0500000
 20
0.0240858
 30
0.000000
  70
    32
  0
VERTEX
  8
0
  5
3690
 10
0.0500000
 20
0.0231537
 30
0.000000
  70
    32
  0
VERTEX
  8
0
  5
3691
 10
0.0500000
 20
0.0222406
 30
0.000000
  70
    32
  0
VERTEX
  8
0
  5
3692
 10
0.0500000
 20
0.0213464
 30
0.000000
  70
    32
  0
VERTEX
  8
0
  5
3693
 10
0.0500000
 20
0.0204710
 30
0.000000
  70
    32
  0
VERTEX
  8
0
  5
3694
 10
0.0500000
 20
0.0196146
 30
0.000000
  70
    32
  0
VERTEX
  8
0
  5
3695
 10
0.0500000
 20
0.0187769
 30
0.000000
  70
    32
  0
VERTEX
  8
0
  5
3696
 10
0.0500000
 20
0.0179580
 30
0.000000
  70
    32
  0
VERTEX
  8
0
  5
3697
 10
0.0500000
 20
0.0171578
 30
0.000000
  70
    32
  0
VERTEX
  8
0
  5
3698
 10
0.0500000
 20
0.0163764
 30
0.000000
  70
    32
  0
VERTEX
  8
0
  5
3699
 10
0.0500000
 20
0.0156137
 30
0.000000
  70
    32
  0
VERTEX
  8
0
  5
369A
 10
0.0500000
 20
0.0148696
 30
0.000000
  70
    32
  0
VERTEX
  8
0
  5
369B
 10
0.0500000
 20
0.0141441
 30
0.000000
  70
    32
  0
VERTEX
  8
0
  5
369C
 10
0.0500000
 20
0.0134371
 30
0.000000
  70
    32
  0
VERTEX
  8
0
  5
369D
 10
0.0500000
 20
0.0127488
 30
0.000000
  70
    32
  0
VERTEX
  8
0
  5
369E
 10
0.0500000
 20
0.0120789
 30
0.000000
  70
    32
  0
VERTEX
  8
0
  5
369F
 10
0.0500000
 20
0.0114276
 30
0.000000
  70
    32
  0
VERTEX
  8
0
  5
36A0
 10
0.0500000
 20
0.0107946
 30
0.000000
  70
    32
  0
VERTEX
  8
0
  5
36A1
 10
0.0500000
 20
0.0101801
 30
0.000000
  70
    32
  0
VERTEX
  8
0
  5
36A2
 10
0.0500000
 20
0.00958395
 30
0.000000
  70
    32
  0
VERTEX
  8
0
  5
36A3
 10
0.0500000
 20
0.00900615
 30
0.000000
  70
    32
  0
VERTEX
  8
0
  5
36A4
 10
0.0500000
 20
0.00844666
 30
0.000000
  70
    32
  0
VERTEX
  8
0
  5
36A5
 10
0.0500000
 20
0.00790545
 30
0.000000
  70
    32
  0
VERTEX
  8
0
  5
36A6
 10
0.0500000
 20
0.00738247
 30
0.000000
  70
    32
  0
VERTEX
  8
0
  5
36A7
 10
0.0500000
 20
0.00687771
 30
0.000000
  70
    32
  0
VERTEX
  8
0
  5
36A8
 10
0.0500000
 20
0.00639112
 30
0.000000
  70
    32
  0
VERTEX
  8
0
  5
36A9
 10
0.0500000
 20
0.00592267
 30
0.000000
  70
    32
  0
VERTEX
  8
0
  5
36AA
 10
0.0500000
 20
0.00547233
 30
0.000000
  70
    32
  0
VERTEX
  8
0
  5
36AB
 10
0.0500000
 20
0.00504006
 30
0.000000
  70
    32
  0
VERTEX
  8
0
  5
36AC
 10
0.0500000
 20
0.00462583
 30
0.000000
  70
    32
  0
VERTEX
  8
0
  5
36AD
 10
0.0500000
 20
0.00422961
 30
0.000000
  70
    32
  0
VERTEX
  8
0
  5
36AE
 10
0.0500000
 20
0.00385136
 30
0.000000
  70
    32
  0
VERTEX
  8
0
  5
36AF
 10
0.0500000
 20
0.00349105
 30
0.000000
  70
    32
  0
VERTEX
  8
0
  5
36B0
 10
0.0500000
 20
0.00314864
 30
0.000000
  70
    32
  0
VERTEX
  8
0
  5
36B1
 10
0.0500000
 20
0.00282411
 30
0.000000
  70
    32
  0
VERTEX
  8
0
  5
36B2
 10
0.0500000
 20
0.00251741
 30
0.000000
  70
    32
  0
VERTEX
  8
0
  5
36B3
 10
0.0500000
 20
0.00222852
 30
0.000000
  70
    32
  0
VERTEX
  8
0
  5
36B4
 10
0.0500000
 20
0.00195739
 30
0.000000
  70
    32
  0
VERTEX
  8
0
  5
36B5
 10
0.0500000
 20
0.00170400
 30
0.000000
  70
    32
  0
VERTEX
  8
0
  5
36B6
 10
0.0500000
 20
0.00146832
 30
0.000000
  70
    32
  0
VERTEX
  8
0
  5
36B7
 10
0.0500000
 20
0.00125030
 30
0.000000
  70
    32
  0
VERTEX
  8
0
  5
36B8
 10
0.0500000
 20
0.00104992
 30
0.000000
  70
    32
  0
VERTEX
  8
0
  5
36B9
 10
0.0500000
 20
0.000867142
 30
0.000000
  70
    32
  0
VERTEX
  8
0
  5
36BA
 10
0.0500000
 20
0.000701930
 30
0.000000
  70
    32
  0
VERTEX
  8
0
  5
36BB
 10
0.0500000
 20
0.000554251
 30
0.000000
  70
    32
  0
VERTEX
  8
0
  5
36BC
 10
0.0500000
 20
0.000424073
 30
0.000000
  70
    32
  0
VERTEX
  8
0
  5
36BD
 10
0.0500000
 20
0.000311362
 30
0.000000
  70
    32
  0
VERTEX
  8
0
  5
36BE
 10
0.0500000
 20
0.000216083
 30
0.000000
  70
    32
  0
VERTEX
  8
0
  5
36BF
 10
0.0500000
 20
0.000138203
 30
0.000000
  70
    32
  0
VERTEX
  8
0
  5
36C0
 10
0.0500000
 20
7.76887e-05
 30
0.000000
  70
    32
  0
VERTEX
  8
0
  5
36C1
 10
0.0500000
 20
3.45058e-05
 30
0.000000
  70
    32
  0
VERTEX
  8
0
  5
36C2
 10
0.0500000
 20
8.62083e-06
 30
0.000000
  70
    32
  0
VERTEX
  8
0
  5
36C3
 10
0.0500000
 20
-2.94960e-12
 30
0.000000
  70
    32
  0
SEQEND
  8
0
  5
36C4
  0
LINE
  5
2EC5
  8
0
  6
CONTINUOUS
 62
     3
 10
0.0499999999997272
 20
2.2928932188103879
 30
-0.0000000000000005
 11
0.0499999999997272
 21
0.8786796564375016
 31
-0.0000000000000002
210
0.0
220
1.0
230
-0.0000000000000002
  0
LINE
  5
2EC6
  8
0
  6
CONTINUOUS
 62
     3
 10
0.0499999999997272
 20
2.9999999999968452
 30
-0.0000000000000007
 11
0.0499999999997272
 21
2.2928932188102848
 31
-0.0000000000000005
210
0.0
220
1.0
230
-0.0000000000000002
  0
LINE
  5
2EC7
  8
0
  6
CONTINUOUS
 62
     3
 10
0.0499999999997195
 20
-0.0000000000029506
 30
0.0
 11
86.4644660940675749
 21
-0.0000000000029559
 31
0.0
210
0.0
220
1.0
230
-0.0000000000000002
  0
LINE
  5
2EC8
  8
0
  6
CONTINUOUS
 62
     3
 10
0.0499999999997244
 20
2.2928932188103821
 30
-0.0000000000000005
 11
90.0
 21
2.2928932188103772
 31
-0.0000000000000005
210
0.0
220
1.0
230
-0.0000000000000002
  0
LINE
  5
2EC9
  8
0
  6
CONTINUOUS
 62
     3
 10
0.0499999999997266
 20
2.9999999999969358
 30
-0.0000000000000007
 11
89.2928932188133189
 21
2.99999999999693
 31
-0.0000000000000007
210
0.0
220
1.0
230
-0.0000000000000002
  0
LINE
  5
2ECA
  8
0
  6
CONTINUOUS
 62
     3
 10
-89.292893218813731
 20
2.99999999999693
 30
-0.0000000000000007
 11
-0.0500000000001819
 21
2.9999999999969358
 31
-0.0000000000000007
210
0.0
220
1.0
230
-0.0000000000000002
  0
LINE
  5
2ECB
  8
0
  6
CONTINUOUS
 62
     3
 10
-90.000000000000469
 20
2.2928932188103772
 30
-0.0000000000000005
 11
-0.0500000000001819
 21
2.2928932188103821
 31
-0.0000000000000005
210
0.0
220
1.0
230
-0.0000000000000002
  0
LINE
  5
2ECC
  8
0
  6
CONTINUOUS
 62
     3
 10
-86.464466094067987
 20
-0.0000000000029559
 30
0.0
 11
-0.0500000000001819
 21
-0.0000000000029505
 31
0.0
210
0.0
220
1.0
230
-0.0000000000000002
  0
ARC
  5
2ECD
  8
0
  6
CONTINUOUS
 62
     3
 10
-86.4644660940675749
 20
2.9999999999963651
 30
0.0
 40
2.999999999999321
210
0.0
220
-0.0000000000000002
230
-1.0
 50
224.9999999999922977
 51
270.0000000000021032
  0
LINE
  5
2ECE
  8
0
  6
CONTINUOUS
 62
     3
 10
88.5857864376270072
 20
0.8786796564374983
 30
-0.0000000000000002
 11
89.9999999999998863
 21
2.2928932188103772
 31
-0.0000000000000005
210
0.0
220
1.0
230
-0.0000000000000002
  0
LINE
  5
2ECF
  8
0
  6
CONTINUOUS
 62
     3
 10
89.2928932188132762
 20
2.9999999999968732
 30
-0.0000000000000007
 11
89.9999999999998437
 21
2.2928932188103199
 31
-0.0000000000000005
210
0.0
220
1.0
230
-0.0000000000000002
  0
LINE
  5
2ED0
  8
0
  6
CONTINUOUS
 62
     3
 10
-89.292893218813731
 20
2.9999999999968732
 30
-0.0000000000000007
 11
-90.0000000000002842
 21
2.2928932188103199
 31
-0.0000000000000005
210
0.0
220
1.0
230
-0.0000000000000002
  0
LINE
  5
2ED1
  8
0
  6
CONTINUOUS
 62
     3
 10
-88.5857864376274478
 20
0.8786796564374983
 30
-0.0000000000000002
 11
-90.0000000000003268
 21
2.2928932188103772
 31
-0.0000000000000005
210
0.0
220
1.0
230
-0.0000000000000002
  0
ARC
  5
2ED2
  8
0
  6
CONTINUOUS
 62
     3
 10
86.4644660940680296
 20
2.9999999999963651
 30
0.0
 40
2.9999999999993201
210
0.0
220
-0.0000000000000002
230
-1.0
 50
270.0
 51
315.0000000000097771
  0
LINE
  5
2ED3
  8
0
  6
VERDECKT
 62
     1
 10
-4.1804255640258807
 20
0.0
 30
0.0
 11
-4.1804255640258807
 21
0.9999999999970443
 31
-0.0000000000000002
210
0.0
220
1.0
230
-0.0000000000000002
  0
LINE
  5
2ED4
  8
0
  6
VERDECKT
 62
     1
 10
0.0499999999997232
 20
0.9999999999970494
 30
-0.0000000000000002
 11
86.4644660940673475
 21
0.9999999999970443
 31
-0.0000000000000002
210
0.0
220
1.0
230
-0.0000000000000002
  0
LINE
  5
2ED5
  8
0
  6
VERDECKT
 62
     1
 10
-86.4644660940677738
 20
0.9999999999970441
 30
-0.0000000000000002
 11
-0.0500000000001819
 21
0.9999999999970496
 31
-0.0000000000000002
210
0.0
220
1.0
230
-0.0000000000000002
  0
LINE
  5
2ED6
  8
0
  6
VERDECKT
 62
     1
 10
-4.1277190000000701
 20
0.0
 30
0.0
 11
-4.1277190000000701
 21
0.9999999999970443
 31
-0.0000000000000002
210
0.0
220
1.0
230
-0.0000000000000002
  0
LINE
  5
2ED7
  8
0
  6
VERDECKT
 62
     1
 10
42.5
 20
0.0
 30
0.0
 11
42.5
 21
0.9999999999970443
 31
-0.0000000000000002
210
0.0
220
1.0
230
-0.0000000000000002
  0
LINE
  5
2ED8
  8
0
  6
VERDECKT
 62
     1
 10
-10.4000000000005404
 20
0.9999999999970443
 30
-0.0000000000000002
 11
-10.4000000000005404
 21
0.0
 31
0.0
210
0.0
220
1.0
230
-0.0000000000000002
  0
LINE
  5
2ED9
  8
0
  6
VERDECKT
 62
     1
 10
87.8786796564404256
 20
1.5857864376239661
 30
-0.0000000000000004
 11
89.2928932188133047
 21
2.9999999999969589
 31
-0.0000000000000007
210
0.0
220
1.0
230
-0.0000000000000002
  0
ARC
  5
2EDA
  8
0
  6
VERDECKT
 62
     1
 10
-86.4644660940674754
 20
2.9999999999967928
 30
0.0
 40
1.999999999999748
210
0.0
220
-0.0000000000000002
230
-1.0
 50
224.9999999999974989
 51
270.0000000000036948
  0
LINE
  5
2EDB
  8
0
  6
VERDECKT
 62
     1
 10
-87.8786796564408661
 20
1.5857864376239661
 30
-0.0000000000000004
 11
-89.2928932188137452
 21
2.9999999999969589
 31
-0.0000000000000007
210
0.0
220
1.0
230
-0.0000000000000002
  0
ARC
  5
2EDC
  8
0
  6
VERDECKT
 62
     1
 10
86.4644660940679159
 20
2.9999999999967941
 30
0.0
 40
1.9999999999997511
210
0.0
220
-0.0000000000000002
230
-1.0
 50
269.9999999999964189
 51
315.0000000000025011
  0
LINE
  5
2EDD
  8
0
  6
VERDECKT
 62
     1
 10
-42.5
 20
0.0
 30
0.0
 11
-42.5
 21
0.9999999999970443
 31
-0.0000000000000002
210
0.0
220
1.0
230
-0.0000000000000002
  0
LINE
  5
2EDE
  8
0
  6
VERDECKT
 62
     1
 10
-10.49999973470897
 20
0.9999999999970443
 30
-0.0000000000000002
 11
-10.49999973470897
 21
0.0
 31
0.0
210
0.0
220
1.0
230
-0.0000000000000002
  0
ENDBLK
  5
2EE0
  8
0
  0
ENDSEC
  0
SECTION
  2
ENTITIES
  0
INSERT
  5
573
  8
ADSK_ASSOC_ENTITY_BACKUPS
  2
*S0
 10
0.0
 20
0.0
 30
0.0
  0
INSERT
  5
2EBC
  8
BEM
  2
A$CACEB8A92
 10
0.0
 20
0.0
 30
0.9999999999970501
 50
89.9668674397156565
  0
INSERT
  5
2EE1
  8
BEM
  2
A$C7CEC5780
 10
0.0
 20
100.0
 30
0.0
  0
VIEWPORT
  5
609
 67
     1
  8
0
 10
99.9595808982849121
 20
143.4358978271484091
 30
0.0
 40
562.5251404939906479
 41
298.4565412383719263
 68
     1
 69
     1
1001
ACAD
1000
MVIEW
1002
{
1070
    16
1010
0.0
1020
0.0
1030
0.0
1010
0.0
1020
0.0
1030
1.0
1040
0.0
1040
298.4565412383719263
1040
99.9595808982849121
1040
143.4358978271484091
1040
50.0
1040
0.0
1040
0.0
1070
     0
1070
  1500
1070
     1
1070
     1
1070
     0
1070
     0
1070
     0
1070
     0
1040
0.0
1040
0.0
1040
0.0
1040
10.0
1040
10.0
1040
10.0
1040
10.0
1070
     0
1002
{
1002
}
1002
}
  0
ENDSEC
  0
EOF
