  0
SECTION
  2
HEADER
  9
$ACADVER
  1
AC1009
  9
$INSBASE
 10
0.0
 20
0.0
 30
0.0
  9
$EXTMIN
 10
-42.8690064149364929
 20
-249.4834839147819139
 30
12.7489937097254593
  9
$EXTMAX
 10
167.1309935850636066
 20
333.3492875835942755
 30
12.7489937097255392
  9
$LIMMIN
 10
0.0
 20
0.0
  9
$LIMMAX
 10
420.0
 20
297.0
  9
$ORTHOMODE
 70
     1
  9
$REGENMODE
 70
     1
  9
$FILLMODE
 70
     1
  9
$QTEXTMODE
 70
     0
  9
$MIRRTEXT
 70
     1
  9
$DRAGMODE
 70
     2
  9
$LTSCALE
 40
10.0
  9
$OSMODE
 70
  2495
  9
$ATTMODE
 70
     2
  9
$TEXTSIZE
 40
3.5
  9
$TRACEWID
 40
1.0
  9
$TEXTSTYLE
  7
STANDARD
  9
$CLAYER
  8
STEMPEL
  9
$CELTYPE
  6
BYLAYER
  9
$CECOLOR
 62
   256
  9
$DIMSCALE
 40
1.0
  9
$DIMASZ
 40
3.5
  9
$DIMEXO
 40
1.0
  9
$DIMDLI
 40
7.0
  9
$DIMRND
 40
0.0
  9
$DIMDLE
 40
0.0
  9
$DIMEXE
 40
1.0
  9
$DIMTP
 40
0.0
  9
$DIMTM
 40
0.0
  9
$DIMTXT
 40
3.5
  9
$DIMCEN
 40
1.5
  9
$DIMTSZ
 40
0.0
  9
$DIMTOL
 70
     0
  9
$DIMLIM
 70
     0
  9
$DIMTIH
 70
     0
  9
$DIMTOH
 70
     0
  9
$DIMSE1
 70
     0
  9
$DIMSE2
 70
     0
  9
$DIMTAD
 70
     1
  9
$DIMZIN
 70
     8
  9
$DIMBLK
  1

  9
$DIMASO
 70
     1
  9
$DIMSHO
 70
     0
  9
$DIMPOST
  1

  9
$DIMAPOST
  1

  9
$DIMALT
 70
     0
  9
$DIMALTD
 70
     2
  9
$DIMALTF
 40
25.3999999999999986
  9
$DIMLFAC
 40
2.0
  9
$DIMTOFL
 70
     1
  9
$DIMTVP
 40
0.0
  9
$DIMTIX
 70
     0
  9
$DIMSOXD
 70
     0
  9
$DIMSAH
 70
     0
  9
$DIMBLK1
  1

  9
$DIMBLK2
  1

  9
$DIMSTYLE
  2
STANDARD
  9
$DIMCLRD
 70
     0
  9
$DIMCLRE
 70
     0
  9
$DIMCLRT
 70
     1
  9
$DIMTFAC
 40
0.5142857142857143
  9
$DIMGAP
 40
1.5
  9
$LUNITS
 70
     2
  9
$LUPREC
 70
     2
  9
$SKETCHINC
 40
1.0
  9
$FILLETRAD
 40
0.0
  9
$AUNITS
 70
     0
  9
$AUPREC
 70
     0
  9
$MENU
  1
ACAD
  9
$ELEVATION
 40
0.0
  9
$PELEVATION
 40
0.0
  9
$THICKNESS
 40
0.0
  9
$LIMCHECK
 70
     0
  9
$BLIPMODE
 70
     0
  9
$CHAMFERA
 40
0.0
  9
$CHAMFERB
 40
0.0
  9
$SKPOLY
 70
     0
  9
$TDCREATE
 40
2455397.867048610933125
  9
$TDUPDATE
 40
2459828.5457060178741813
  9
$TDINDWG
 40
0.2701793171
  9
$TDUSRTIMER
 40
0.2701793171
  9
$USRTIMER
 70
     1
  9
$ANGBASE
 50
0.0
  9
$ANGDIR
 70
     0
  9
$PDMODE
 70
     0
  9
$PDSIZE
 40
0.0
  9
$PLINEWID
 40
0.0
  9
$COORDS
 70
     1
  9
$SPLFRAME
 70
     0
  9
$SPLINETYPE
 70
     6
  9
$SPLINESEGS
 70
     8
  9
$ATTDIA
 70
     1
  9
$ATTREQ
 70
     1
  9
$HANDLING
 70
     1
  9
$HANDSEED
  5
23E0
  9
$SURFTAB1
 70
     6
  9
$SURFTAB2
 70
     6
  9
$SURFTYPE
 70
     6
  9
$SURFU
 70
     6
  9
$SURFV
 70
     6
  9
$UCSNAME
  2

  9
$UCSORG
 10
0.0
 20
0.0
 30
0.0
  9
$UCSXDIR
 10
1.0
 20
0.0
 30
0.0
  9
$UCSYDIR
 10
0.0
 20
1.0
 30
0.0
  9
$PUCSNAME
  2

  9
$PUCSORG
 10
0.0
 20
0.0
 30
0.0
  9
$PUCSXDIR
 10
1.0
 20
0.0
 30
0.0
  9
$PUCSYDIR
 10
0.0
 20
1.0
 30
0.0
  9
$USERI1
 70
     0
  9
$USERI2
 70
     0
  9
$USERI3
 70
     0
  9
$USERI4
 70
     0
  9
$USERI5
 70
     0
  9
$USERR1
 40
0.0
  9
$USERR2
 40
0.0
  9
$USERR3
 40
0.0
  9
$USERR4
 40
0.0
  9
$USERR5
 40
0.0
  9
$WORLDVIEW
 70
     1
  9
$SHADEDGE
 70
     3
  9
$SHADEDIF
 70
    70
  9
$TILEMODE
 70
     1
  9
$MAXACTVP
 70
    16
  9
$PLIMCHECK
 70
     0
  9
$PEXTMIN
 10
1.0000000000000000E+20
 20
1.0000000000000000E+20
 30
1.0000000000000000E+20
  9
$PEXTMAX
 10
-1.0000000000000000E+20
 20
-1.0000000000000000E+20
 30
-1.0000000000000000E+20
  9
$PLIMMIN
 10
96.7631217009572566
 20
-23.1249440623521707
  9
$PLIMMAX
 10
393.7631217009571856
 20
396.8750559376479146
  9
$UNITMODE
 70
     0
  9
$VISRETAIN
 70
     0
  9
$PLINEGEN
 70
     0
  9
$PSLTSCALE
 70
     0
  0
ENDSEC
  0
SECTION
  2
TABLES
  0
TABLE
  2
VPORT
 70
     1
  0
VPORT
  2
*ACTIVE
 70
     0
 10
0.0
 20
0.0
 11
1.0
 21
1.0
 12
-41.2762936873709165
 22
-160.3183442516022978
 13
0.0
 23
0.0
 14
1.0
 24
1.0
 15
10.0
 25
10.0
 16
-0.0000000000002558
 26
0.0
 36
1158.9092899132378989
 17
103.4072872724344023
 27
202.2512460860085071
 37
78.8744968548627412
 40
587.0008246914513848
 41
1.7852028639618129
 42
50.0
 43
0.0
 44
0.0
 50
0.0
 51
0.0
 71
     0
 72
  1500
 73
     1
 74
     0
 75
     0
 76
     0
 77
     0
 78
     0
  0
ENDTAB
  0
TABLE
  2
LTYPE
 70
     6
  0
LTYPE
  2
CONTINUOUS
 70
     0
  3
Solid line
 72
    65
 73
     0
 40
0.0
  0
LTYPE
  2
AUSGEZOGEN
 70
     0
  3
Ausgezogene Linie
 72
    65
 73
     0
 40
0.0
  0
LTYPE
  2
PHANTOM2
 70
     0
  3
Phantom (.5x) ___ _ _ ___ _ _ ___ _ _ ___ _ _
 72
    65
 73
     6
 40
1.25
 49
0.625
 49
-0.125
 49
0.125
 49
-0.125
 49
0.125
 49
-0.125
  0
LTYPE
  2
VERDECKT
 70
     0
  3
Verdeckt __ __ __ __ __ __ __ __ __ __ __ __ __
 72
    65
 73
     2
 40
0.375
 49
0.25
 49
-0.125
  0
ENDTAB
  0
TABLE
  2
LAYER
 70
    15
  0
LAYER
  2
0
 70
     0
 62
     7
  6
CONTINUOUS
  0
LAYER
  2
DEFPOINTS
 70
     0
 62
     7
  6
AUSGEZOGEN
  0
LAYER
  2
STEMPEL
 70
     0
 62
     3
  6
CONTINUOUS
  0
LAYER
  2
ADSK_ASSOC_ENTITY_BACKUPS
 70
     1
 62
    -7
  6
CONTINUOUS
  0
ENDTAB
  0
TABLE
  2
STYLE
 70
     5
  0
STYLE
  2
STANDARD
 70
     0
 40
0.0
 41
0.8
 50
0.0
 71
     0
 42
3.5
  3
simplex.shx
  4

  0
ENDTAB
  0
TABLE
  2
VIEW
 70
     1
  0
ENDTAB
  0
TABLE
  2
UCS
 70
     0
  0
ENDTAB
  0
TABLE
  2
APPID
 70
    26
  0
APPID
  2
ACAD
 70
     0
  0
APPID
  2
ACAD_NAV_VCDISPLAY
 70
     0
  0
APPID
  2
GRADIENTCOLOR1ACI
 70
     0
  0
APPID
  2
GRADIENTCOLOR2ACI
 70
     0
  0
APPID
  2
ACAD_DSTYLE_DIMRADIAL_EXTENSION
 70
     0
  0
APPID
  2
ACADANNOMONITORALERTICONDI
 70
     0
  0
APPID
  2
ACAD_EXEMPT_FROM_CAD_STANDARDS
 70
     0
  0
APPID
  2
ACAD_MLEADERVER
 70
     0
  0
APPID
  2
ACAD_PSEXT
 70
     0
  0
APPID
  2
ACAECLAYERSTANDARD
 70
     0
  0
APPID
  2
ACAUTHENVIRON
 70
     0
  0
APPID
  2
ACDBDYNAMICBLOCKTRUENAME
 70
     0
  0
APPID
  2
ACDBDYNAMICBLOCKGUID
 70
     0
  0
APPID
  2
ACCMTRANSPARENCY
 70
     0
  0
APPID
  2
ACSYNERGY
 70
     0
  0
APPID
  2
SYNERGY_BODY_TBR_ID
 70
     0
  0
APPID
  2
ACAD_VIEW_EDGE_ID
 70
     0
  0
APPID
  2
ACSYNERGYSKETCH
 70
     0
  0
APPID
  2
ACAD_STEPID
 70
     0
  0
APPID
  2
ACAD_MODELDOC_XFORM
 70
     0
  0
APPID
  2
ACAD_DSTYLE_DIMJAG
 70
     0
  0
APPID
  2
ACAD_DSTYLE_DIMTALN
 70
     0
  0
APPID
  2
ACAD_DIMASSOC_CALC_DIMLFAC
 70
     0
  0
APPID
  2
ACAD_DIMASSOC_DIMLFAC
 70
     0
  0
APPID
  2
ACAD_DIMASSOC_OVERRIDDEN_D
 70
     0
  0
APPID
  2
AcDbAttr
 70
     0
  0
ENDTAB
  0
TABLE
  2
DIMSTYLE
 70
     2
  0
DIMSTYLE
  2
STANDARD
 70
     0
  3

  4

  5

  6

  7

 40
1.0
 41
0.18
 42
0.0625
 43
0.38
 44
0.18
 45
0.0
 46
0.0
 47
0.0
 48
0.0
140
0.18
141
0.09
142
0.0
143
25.3999999999999986
144
1.0
145
0.0
146
1.0
147
0.09
 71
     0
 72
     0
 73
     1
 74
     1
 75
     0
 76
     0
 77
     0
 78
     0
170
     0
171
     2
172
     0
173
     0
174
     0
175
     0
176
     0
177
     0
178
     0
  0
ENDTAB
  0
ENDSEC
  0
SECTION
  2
BLOCKS
  0
BLOCK
  8
0
  2
$MODEL_SPACE
 70
     0
 10
0.0
 20
0.0
 30
0.0
  3
$MODEL_SPACE
  1

  0
ENDBLK
  5
38
  8
0
  0
BLOCK
 67
     1
  8
0
  2
$PAPER_SPACE
 70
     0
 10
0.0
 20
0.0
 30
0.0
  3
$PAPER_SPACE
  1

  0
ENDBLK
  5
36
 67
     1
  8
0
  0
BLOCK
  8
0
  2
*S3
 70
     1
 10
0.0
 20
0.0
 30
0.0
  3
*S3
  1

  0
ENDBLK
  5
1C32
  8
0
  0
BLOCK
  8
0
  2
A$C3C4488B0
 70
     0
 10
0.0
 20
0.0
 30
0.0
  3
A$C3C4488B0
  1

  0
CIRCLE
  5
22B6
  8
0
 10
257.7459845525655169
 20
110.5453703684917031
 30
0.0000000000000568
 40
12.5
  0
LINE
  5
22B7
  8
0
 10
295.2787006163172236
 20
135.5075194484527117
 30
0.0000000000000568
 11
282.1167451414112861
 21
128.1073216080841064
 31
0.000000000000054
  0
ARC
  5
22B8
  8
0
 10
293.8084303930793908
 20
138.1225348347668955
 30
0.0000000000000568
 40
3.0000000000000089
 50
299.3465020760730226
 51
44.9999999999996092
  0
LINE
  5
22B9
  8
0
 10
287.4444693624005254
 20
148.7291365525651941
 30
0.0000000000000568
 11
295.929750736639221
 21
140.2438551783266121
 31
0.0000000000000587
  0
ARC
  5
22BA
  8
0
 10
285.3231490188409794
 20
146.6078162090055912
 30
0.0000000000000568
 40
2.9999999999999769
 50
45.0000000000017835
 51
150.653497923930388
  0
LINE
  5
22BB
  8
0
 10
275.3079357921579913
 20
134.9161309573372876
 30
0.0000000000000568
 11
282.7081336325265966
 21
148.0780864322433104
 31
0.0000000000000584
  0
ARC
  5
22BC
  8
0
 10
279.6662947693484966
 20
132.4656805852746118
 30
0.0000000000000568
 40
4.9999999999999627
 50
150.6534979239285121
 51
299.3465020760718858
  0
LINE
  5
22BD
  8
0
 10
282.708133632526426
 20
73.0126543047400958
 30
0.0000000000000568
 11
275.3079357921578776
 21
86.174609779645948
 31
0.0000000000000552
  0
ARC
  5
22BE
  8
0
 10
285.3231490188409794
 20
74.4829245279777581
 30
0.0000000000000568
 40
2.9999999999999591
 50
209.3465020760689015
 51
314.9999999999981242
  0
LINE
  5
22BF
  8
0
 10
295.9297507366389937
 20
80.8468855586567656
 30
0.0000000000000568
 11
287.4444693624005254
 21
72.3616041844181552
 31
0.000000000000055
  0
ARC
  5
22C0
  8
0
 10
293.8084303930793908
 20
82.9682059022163685
 30
0.0000000000000568
 40
2.999999999999976
 50
315.0000000000005116
 51
60.6534979239267784
  0
LINE
  5
22C1
  8
0
 10
282.1167451414112861
 20
92.9834191288992429
 30
0.0000000000000568
 11
295.2787006163172236
 21
85.583221288530666
 31
0.0000000000000597
  0
ARC
  5
22C2
  8
0
 10
279.6662947693484966
 20
88.6250601517087233
 30
0.0000000000000568
 40
4.9999999999999369
 50
60.6534979239296632
 51
209.3465020760702089
  0
LINE
  5
22C3
  8
0
 10
220.2132684888140091
 20
85.5832212885307229
 30
0.0000000000000568
 11
233.3752239637198898
 21
92.9834191288992855
 31
0.0000000000000597
  0
ARC
  5
22C4
  8
0
 10
221.6835387120515861
 20
82.9682059022163259
 30
0.0000000000000568
 40
3.0000000000000262
 50
119.3465020760700952
 51
225.0
  0
LINE
  5
22C5
  8
0
 10
228.0474997427305084
 20
72.3616041844180131
 30
0.0000000000000568
 11
219.562218368491898
 21
80.8468855586565951
 31
0.000000000000055
  0
ARC
  5
22C6
  8
0
 10
230.1688200862903102
 20
74.4829245279778291
 30
0.0000000000000568
 40
3.000000000000036
 50
225.0000000000009095
 51
330.6534979239282848
  0
LINE
  5
22C7
  8
0
 10
240.1840333129730993
 20
86.1746097796459765
 30
0.0000000000000568
 11
232.783835472604494
 21
73.0126543047401242
 31
0.0000000000000552
  0
ARC
  5
22C8
  8
0
 10
235.825674335782594
 20
88.6250601517087375
 30
0.0000000000000568
 40
4.9999999999999476
 50
330.6534979239290806
 51
119.3465020760702942
  0
LINE
  5
22C9
  8
0
 10
232.7838354726046077
 20
148.0780864322431967
 30
0.0000000000000568
 11
240.184033312973213
 21
134.9161309573374012
 31
0.0000000000000584
  0
ARC
  5
22CA
  8
0
 10
230.1688200862901112
 20
146.6078162090055059
 30
0.0000000000000568
 40
2.9999999999999991
 50
29.3465020760705393
 51
134.9999999999972999
  0
LINE
  5
22CB
  8
0
 10
219.562218368491898
 20
140.2438551783266973
 30
0.0000000000000568
 11
228.0474997427305937
 21
148.7291365525653077
 31
0.0000000000000587
  0
ARC
  5
22CC
  8
0
 10
221.6835387120515861
 20
138.1225348347670092
 30
0.0000000000000568
 40
3.0000000000000071
 50
135.0000000000001137
 51
240.6534979239295069
  0
LINE
  5
22CD
  8
0
 10
233.3752239637198898
 20
128.1073216080841064
 30
0.0000000000000568
 11
220.2132684888140091
 21
135.507519448452598
 31
0.000000000000054
  0
ARC
  5
22CE
  8
0
 10
235.825674335782594
 20
132.465680585274697
 30
0.0000000000000568
 40
4.9999999999999289
 50
240.6534979239297911
 51
29.346502076070081
  0
LINE
  5
22CF
  8
0
 10
213.5554416201075867
 20
119.4341035260897002
 30
0.0000000000000568
 11
228.0950796651355859
 21
115.3599256311549937
 31
0.00000000000006
  0
ARC
  5
22D0
  8
0
 10
212.7459845525656021
 20
116.5453703684917031
 30
0.0000000000000568
 40
3.0
 50
74.3465020760707631
 51
180.0000000000007105
  0
LINE
  5
22D1
  8
0
 10
209.7459845525654885
 20
104.5453703684916036
 30
0.0000000000000568
 11
209.7459845525654885
 21
116.5453703684917031
 31
0.0000000000000568
  0
ARC
  5
22D2
  8
0
 10
212.7459845525656021
 20
104.5453703684916036
 30
0.0000000000000568
 40
2.999999999999984
 50
179.9999999999996021
 51
285.6534979239290806
  0
LINE
  5
22D3
  8
0
 10
228.0950796651355859
 20
105.7308151058282988
 30
0.0000000000000568
 11
213.5554416201075867
 21
101.6566372108936065
 31
0.0000000000000537
  0
ARC
  5
22D4
  8
0
 10
226.7459845525654885
 20
110.5453703684917031
 30
0.0000000000000568
 40
4.9999999999999778
 50
285.6534979239308996
 51
74.3465020760691715
  0
LINE
  5
22D5
  8
0
 10
248.8572513949673919
 20
66.3548274360337444
 30
0.0000000000000568
 11
252.9314292899020984
 21
80.8944654810617578
 31
0.0000000000000577
  0
ARC
  5
22D6
  8
0
 10
251.7459845525654885
 20
65.5453703684917173
 30
0.0000000000000568
 40
3.0
 50
164.3465020760700952
 51
270.0
  0
LINE
  5
22D7
  8
0
 10
263.7459845525655169
 20
62.5453703684916817
 30
0.0000000000000568
 11
251.7459845525654885
 21
62.5453703684916817
 31
0.0000000000000542
  0
ARC
  5
22D8
  8
0
 10
263.7459845525655169
 20
65.5453703684917031
 30
0.0000000000000568
 40
3.0000000000000182
 50
270.0000000000001137
 51
15.6534979239302192
  0
LINE
  5
22D9
  8
0
 10
262.5605398152288217
 20
80.8944654810616441
 30
0.0000000000000568
 11
266.6347177101633861
 21
66.354827436033716
 31
0.0000000000000577
  0
ARC
  5
22DA
  8
0
 10
257.7459845525655169
 20
79.5453703684916604
 30
0.0000000000000568
 40
4.9999999999999929
 50
15.6534979239296899
 51
164.346502076069811
  0
LINE
  5
22DB
  8
0
 10
301.9365274850234186
 20
101.6566372108936065
 30
0.0000000000000568
 11
287.3968894399955047
 21
105.7308151058282988
 31
0.0000000000000537
  0
ARC
  5
22DC
  8
0
 10
302.7459845525655169
 20
104.5453703684917031
 30
0.0000000000000568
 40
3.0
 50
254.3465020760691004
 51
0.0000000000000509
  0
LINE
  5
22DD
  8
0
 10
305.7459845525655169
 20
116.5453703684917031
 30
0.0000000000000568
 11
305.7459845525655169
 21
104.5453703684916036
 31
0.0000000000000568
  0
ARC
  5
22DE
  8
0
 10
302.7459845525655169
 20
116.5453703684916036
 30
0.0000000000000568
 40
3.0000000000000431
 50
0.0000000000007633
 51
105.653497923930999
  0
LINE
  5
22DF
  8
0
 10
287.3968894399955047
 20
115.3599256311549937
 30
0.0000000000000568
 11
301.9365274850234186
 21
119.4341035260897002
 31
0.00000000000006
  0
ARC
  5
22E0
  8
0
 10
288.7459845525655169
 20
110.5453703684917031
 30
0.0000000000000568
 40
4.999999999999976
 50
105.6534979239295069
 51
254.3465020760704931
  0
LINE
  5
22E1
  8
0
 10
266.6347177101636134
 20
154.7359133009495906
 30
0.0000000000000568
 11
262.5605398152288785
 21
140.1962752559215915
 31
0.000000000000056
  0
ARC
  5
22E2
  8
0
 10
263.7459845525655169
 20
155.5453703684916036
 30
0.0000000000000568
 40
3.0
 50
344.3465020760701236
 51
90.0
  0
LINE
  5
22E3
  8
0
 10
251.7459845525654885
 20
158.5453703684916889
 30
0.0000000000000568
 11
263.7459845525655169
 21
158.5453703684916889
 31
0.0000000000000594
  0
ARC
  5
22E4
  8
0
 10
251.7459845525654885
 20
155.5453703684916889
 30
0.0000000000000568
 40
3.0000000000000151
 50
90.0000000000000995
 51
195.6534979239299048
  0
LINE
  5
22E5
  8
0
 10
252.9314292899020984
 20
140.1962752559217051
 30
0.0000000000000568
 11
248.8572513949673919
 21
154.7359133009495906
 31
0.000000000000056
  0
ARC
  5
22E6
  8
0
 10
257.7459845525655169
 20
141.5453703684916889
 30
0.0000000000000568
 40
4.9999999999999929
 50
195.6534979239297058
 51
344.3465020760698962
  0
CIRCLE
  5
22E7
  8
0
 10
257.7459845525655169
 20
110.5453703684917031
 30
0.0000000000000568
 40
105.0
  0
CIRCLE
  5
22E8
  8
0
  6
VERDECKT
 62
     1
 10
257.7459845525654032
 20
110.5453703684917031
 30
0.0000000000000568
 40
56.0
  0
CIRCLE
  5
22E9
  8
0
  6
VERDECKT
 62
     1
 10
257.7459845525655169
 20
110.5453703684917031
 30
0.0000000000000568
 40
64.0
  0
CIRCLE
  5
22EA
  8
0
  6
VERDECKT
 62
     1
 10
257.7459845525655169
 20
110.5453703684917031
 30
0.0000000000000568
 40
51.0
  0
CIRCLE
  5
22EB
  8
0
  6
VERDECKT
 62
     1
 10
257.7459845525654032
 20
110.5453703684917031
 30
0.0000000000000568
 40
53.0
  0
CIRCLE
  5
22EC
  8
0
  6
VERDECKT
 62
     1
 10
257.7459845525655169
 20
110.5453703684917031
 30
0.0000000000000568
 40
50.9999999999998792
  0
CIRCLE
  5
22ED
  8
0
  6
VERDECKT
 62
     1
 10
257.7459845525655169
 20
110.5453703684917031
 30
0.0000000000000568
 40
49.0
  0
ENDBLK
  5
22EF
  8
0
  0
BLOCK
  8
0
  2
A$C5D1B22A4
 70
     0
 10
0.0
 20
0.0
 30
0.0
  3
A$C5D1B22A4
  1

  0
LINE
  5
22F3
  8
0
 10
201.7459845525654032
 20
114.0
 30
-0.0000000000000253
 11
313.7459845525655169
 21
114.0
 31
-0.0000000000000253
210
0.0
220
1.0
230
-0.0000000000000002
  0
LINE
  5
22F4
  8
0
 10
201.7459845525654032
 20
114.0
 30
-0.0000000000000253
 11
193.7459845525654032
 21
143.0
 31
-0.0000000000000318
210
0.0
220
1.0
230
-0.0000000000000002
  0
LINE
  5
22F5
  8
0
 10
313.7459845525655169
 20
114.0
 30
-0.0000000000000253
 11
321.7459845525655169
 21
143.0
 31
-0.0000000000000318
210
0.0
220
1.0
230
-0.0000000000000002
  0
LINE
  5
22F6
  8
0
 10
362.7459845525655169
 20
145.0
 30
-0.0000000000000322
 11
152.7459845525654032
 21
145.0
 31
-0.0000000000000322
210
0.0
220
1.0
230
-0.0000000000000002
  0
LINE
  5
22F7
  8
0
 10
152.7459845525654032
 20
143.0
 30
-0.0000000000000318
 11
362.7459845525655169
 21
143.0
 31
-0.0000000000000318
210
0.0
220
1.0
230
-0.0000000000000002
  0
LINE
  5
22F8
  8
0
 10
362.7459845525655169
 20
145.0
 30
-0.0000000000000322
 11
362.7459845525655169
 21
143.0
 31
-0.0000000000000318
210
0.0
220
1.0
230
-0.0000000000000002
  0
LINE
  5
22F9
  8
0
 10
152.7459845525654032
 20
145.0
 30
-0.0000000000000322
 11
152.7459845525654032
 21
143.0
 31
-0.0000000000000318
210
0.0
220
1.0
230
-0.0000000000000002
  0
LINE
  5
22FA
  8
0
 10
203.2459845525654885
 20
-133.0
 30
0.0000000000000295
 11
312.2459845525654032
 21
-133.0
 31
0.0000000000000295
210
0.0
220
1.0
230
-0.0000000000000002
  0
LINE
  5
22FB
  8
0
 10
203.2459845525654885
 20
32.0000000000000071
 30
-0.0000000000000071
 11
312.2459845525654032
 21
32.0000000000000071
 31
-0.0000000000000071
210
0.0
220
1.0
230
-0.0000000000000002
  0
ARC
  5
22FC
  8
0
 10
-203.2459845525654885
 20
-128.5
 30
0.0
 40
1.5
210
0.0
220
-0.0000000000000002
230
-1.0
 50
90.0
 51
270.0
  0
ARC
  5
22FD
  8
0
 10
-312.2459845525654032
 20
-128.5
 30
0.0
 40
1.5
210
0.0
220
-0.0000000000000002
230
-1.0
 50
270.0
 51
90.0
  0
ARC
  5
22FE
  8
0
 10
-203.2459845525654885
 20
-131.5
 30
0.0
 40
1.4999999999999709
210
0.0
220
-0.0000000000000002
230
-1.0
 50
270.0
 51
90.0
  0
ARC
  5
22FF
  8
0
 10
-312.2459845525654032
 20
-131.5
 30
0.0
 40
1.4999999999999709
210
0.0
220
-0.0000000000000002
230
-1.0
 50
90.0
 51
270.0
  0
ARC
  5
2300
  8
0
 10
-203.2459845525654885
 20
30.5000000000000107
 30
0.0
 40
1.5
210
0.0
220
-0.0000000000000002
230
-1.0
 50
270.0
 51
90.0
  0
ARC
  5
2301
  8
0
 10
-312.2459845525654032
 20
30.5000000000000107
 30
0.0
 40
1.5
210
0.0
220
-0.0000000000000002
230
-1.0
 50
90.0
 51
270.0
  0
ARC
  5
2302
  8
0
 10
-203.2459845525654885
 20
27.5000000000000107
 30
0.0
 40
1.5
210
0.0
220
-0.0000000000000002
230
-1.0
 50
90.0
 51
270.0
  0
ARC
  5
2303
  8
0
 10
-312.2459845525654032
 20
27.5000000000000107
 30
0.0
 40
1.5
210
0.0
220
-0.0000000000000002
230
-1.0
 50
270.0
 51
90.0
  0
ARC
  5
2304
  8
0
 10
-203.2459845525654885
 20
24.5000000000000107
 30
0.0
 40
1.5
210
0.0
220
-0.0000000000000002
230
-1.0
 50
270.0
 51
90.0
  0
ARC
  5
2305
  8
0
 10
-312.2459845525654032
 20
24.5000000000000107
 30
0.0
 40
1.5
210
0.0
220
-0.0000000000000002
230
-1.0
 50
90.0
 51
270.0
  0
ARC
  5
2306
  8
0
 10
-203.2459845525654885
 20
21.5
 30
0.0
 40
1.5
210
0.0
220
-0.0000000000000002
230
-1.0
 50
90.0
 51
270.0
  0
ARC
  5
2307
  8
0
 10
-312.2459845525654032
 20
21.5
 30
0.0
 40
1.5
210
0.0
220
-0.0000000000000002
230
-1.0
 50
270.0
 51
90.0
  0
ARC
  5
2308
  8
0
 10
-203.2459845525654885
 20
18.5
 30
0.0
 40
1.5
210
0.0
220
-0.0000000000000002
230
-1.0
 50
270.0
 51
90.0
  0
ARC
  5
2309
  8
0
 10
-312.2459845525654032
 20
18.5
 30
0.0
 40
1.5
210
0.0
220
-0.0000000000000002
230
-1.0
 50
90.0
 51
270.0
  0
ARC
  5
230A
  8
0
 10
-203.2459845525654885
 20
15.5
 30
0.0
 40
1.5
210
0.0
220
-0.0000000000000002
230
-1.0
 50
90.0
 51
270.0
  0
ARC
  5
230B
  8
0
 10
-312.2459845525654032
 20
15.5
 30
0.0
 40
1.5
210
0.0
220
-0.0000000000000002
230
-1.0
 50
270.0
 51
90.0
  0
ARC
  5
230C
  8
0
 10
-203.2459845525654885
 20
12.5
 30
0.0
 40
1.5
210
0.0
220
-0.0000000000000002
230
-1.0
 50
270.0
 51
90.0
  0
ARC
  5
230D
  8
0
 10
-312.2459845525654032
 20
12.5
 30
0.0
 40
1.5
210
0.0
220
-0.0000000000000002
230
-1.0
 50
90.0
 51
270.0
  0
ARC
  5
230E
  8
0
 10
-203.2459845525654885
 20
9.5000000000000018
 30
0.0
 40
1.5
210
0.0
220
-0.0000000000000002
230
-1.0
 50
90.0
 51
270.0
  0
ARC
  5
230F
  8
0
 10
-312.2459845525654032
 20
9.5000000000000018
 30
0.0
 40
1.5
210
0.0
220
-0.0000000000000002
230
-1.0
 50
270.0
 51
90.0
  0
ARC
  5
2310
  8
0
 10
-203.2459845525654885
 20
6.5000000000000009
 30
0.0
 40
1.5
210
0.0
220
-0.0000000000000002
230
-1.0
 50
270.0
 51
90.0
  0
ARC
  5
2311
  8
0
 10
-312.2459845525654032
 20
6.5000000000000009
 30
0.0
 40
1.5
210
0.0
220
-0.0000000000000002
230
-1.0
 50
90.0
 51
270.0
  0
ARC
  5
2312
  8
0
 10
-203.2459845525654885
 20
3.5
 30
0.0
 40
1.5
210
0.0
220
-0.0000000000000002
230
-1.0
 50
90.0
 51
270.0
  0
ARC
  5
2313
  8
0
 10
-312.2459845525654032
 20
3.5
 30
0.0
 40
1.5
210
0.0
220
-0.0000000000000002
230
-1.0
 50
270.0
 51
90.0
  0
ARC
  5
2314
  8
0
 10
-203.2459845525654885
 20
0.5000000000000001
 30
0.0
 40
1.5
210
0.0
220
-0.0000000000000002
230
-1.0
 50
270.0
 51
90.0
  0
ARC
  5
2315
  8
0
 10
-312.2459845525654032
 20
0.5000000000000002
 30
0.0
 40
1.5
210
0.0
220
-0.0000000000000002
230
-1.0
 50
90.0
 51
270.0
  0
ARC
  5
2316
  8
0
 10
-203.2459845525654885
 20
-2.5
 30
0.0
 40
1.5
210
0.0
220
-0.0000000000000002
230
-1.0
 50
90.0
 51
270.0
  0
ARC
  5
2317
  8
0
 10
-312.2459845525654032
 20
-2.5
 30
0.0
 40
1.5
210
0.0
220
-0.0000000000000002
230
-1.0
 50
270.0
 51
90.0
  0
ARC
  5
2318
  8
0
 10
-203.2459845525654885
 20
-5.5
 30
0.0
 40
1.5
210
0.0
220
-0.0000000000000002
230
-1.0
 50
270.0
 51
90.0
  0
ARC
  5
2319
  8
0
 10
-312.2459845525654032
 20
-5.5
 30
0.0
 40
1.5
210
0.0
220
-0.0000000000000002
230
-1.0
 50
90.0
 51
270.0
  0
ARC
  5
231A
  8
0
 10
-203.2459845525654885
 20
-8.5000000000000018
 30
0.0
 40
1.5
210
0.0
220
-0.0000000000000002
230
-1.0
 50
90.0
 51
270.0
  0
ARC
  5
231B
  8
0
 10
-312.2459845525654032
 20
-8.5000000000000018
 30
0.0
 40
1.5
210
0.0
220
-0.0000000000000002
230
-1.0
 50
270.0
 51
90.0
  0
ARC
  5
231C
  8
0
 10
-203.2459845525654885
 20
-11.5
 30
0.0
 40
1.5
210
0.0
220
-0.0000000000000002
230
-1.0
 50
270.0
 51
90.0
  0
ARC
  5
231D
  8
0
 10
-312.2459845525654032
 20
-11.5
 30
0.0
 40
1.5
210
0.0
220
-0.0000000000000002
230
-1.0
 50
90.0
 51
270.0
  0
ARC
  5
231E
  8
0
 10
-203.2459845525654885
 20
-14.5
 30
0.0
 40
1.5
210
0.0
220
-0.0000000000000002
230
-1.0
 50
90.0
 51
270.0
  0
ARC
  5
231F
  8
0
 10
-312.2459845525654032
 20
-14.5
 30
0.0
 40
1.5
210
0.0
220
-0.0000000000000002
230
-1.0
 50
270.0
 51
90.0
  0
ARC
  5
2320
  8
0
 10
-203.2459845525654885
 20
-17.5
 30
0.0
 40
1.5
210
0.0
220
-0.0000000000000002
230
-1.0
 50
270.0
 51
90.0
  0
ARC
  5
2321
  8
0
 10
-312.2459845525654032
 20
-17.5
 30
0.0
 40
1.5
210
0.0
220
-0.0000000000000002
230
-1.0
 50
90.0
 51
270.0
  0
ARC
  5
2322
  8
0
 10
-203.2459845525654885
 20
-20.5
 30
0.0
 40
1.5
210
0.0
220
-0.0000000000000002
230
-1.0
 50
90.0
 51
270.0
  0
ARC
  5
2323
  8
0
 10
-312.2459845525654032
 20
-20.5
 30
0.0
 40
1.5
210
0.0
220
-0.0000000000000002
230
-1.0
 50
270.0
 51
90.0
  0
ARC
  5
2324
  8
0
 10
-203.2459845525654885
 20
-23.5
 30
0.0
 40
1.5
210
0.0
220
-0.0000000000000002
230
-1.0
 50
270.0
 51
90.0
  0
ARC
  5
2325
  8
0
 10
-312.2459845525654032
 20
-23.5
 30
0.0
 40
1.5
210
0.0
220
-0.0000000000000002
230
-1.0
 50
90.0
 51
270.0
  0
ARC
  5
2326
  8
0
 10
-203.2459845525654885
 20
-26.5000000000000107
 30
0.0
 40
1.5
210
0.0
220
-0.0000000000000002
230
-1.0
 50
90.0
 51
270.0
  0
ARC
  5
2327
  8
0
 10
-312.2459845525654032
 20
-26.5000000000000107
 30
0.0
 40
1.5
210
0.0
220
-0.0000000000000002
230
-1.0
 50
270.0
 51
90.0
  0
ARC
  5
2328
  8
0
 10
-203.2459845525654885
 20
-29.5000000000000107
 30
0.0
 40
1.5
210
0.0
220
-0.0000000000000002
230
-1.0
 50
270.0
 51
90.0
  0
ARC
  5
2329
  8
0
 10
-312.2459845525654032
 20
-29.5000000000000107
 30
0.0
 40
1.5
210
0.0
220
-0.0000000000000002
230
-1.0
 50
90.0
 51
270.0
  0
ARC
  5
232A
  8
0
 10
-203.2459845525654885
 20
-32.5000000000000071
 30
0.0
 40
1.5
210
0.0
220
-0.0000000000000002
230
-1.0
 50
90.0
 51
270.0
  0
ARC
  5
232B
  8
0
 10
-312.2459845525654032
 20
-32.5000000000000071
 30
0.0
 40
1.5
210
0.0
220
-0.0000000000000002
230
-1.0
 50
270.0
 51
90.0
  0
ARC
  5
232C
  8
0
 10
-203.2459845525654885
 20
-35.5000000000000071
 30
0.0
 40
1.5
210
0.0
220
-0.0000000000000002
230
-1.0
 50
270.0
 51
90.0
  0
ARC
  5
232D
  8
0
 10
-312.2459845525654032
 20
-35.5000000000000071
 30
0.0
 40
1.5
210
0.0
220
-0.0000000000000002
230
-1.0
 50
90.0
 51
270.0
  0
ARC
  5
232E
  8
0
 10
-203.2459845525654885
 20
-38.5000000000000071
 30
0.0
 40
1.5
210
0.0
220
-0.0000000000000002
230
-1.0
 50
90.0
 51
270.0
  0
ARC
  5
232F
  8
0
 10
-312.2459845525654032
 20
-38.5000000000000071
 30
0.0
 40
1.5
210
0.0
220
-0.0000000000000002
230
-1.0
 50
270.0
 51
90.0
  0
ARC
  5
2330
  8
0
 10
-203.2459845525654885
 20
-41.5000000000000071
 30
0.0
 40
1.5
210
0.0
220
-0.0000000000000002
230
-1.0
 50
270.0
 51
90.0
  0
ARC
  5
2331
  8
0
 10
-312.2459845525654032
 20
-41.5000000000000071
 30
0.0
 40
1.5
210
0.0
220
-0.0000000000000002
230
-1.0
 50
90.0
 51
270.0
  0
ARC
  5
2332
  8
0
 10
-203.2459845525654885
 20
-44.5000000000000071
 30
0.0
 40
1.5
210
0.0
220
-0.0000000000000002
230
-1.0
 50
90.0
 51
270.0
  0
ARC
  5
2333
  8
0
 10
-312.2459845525654032
 20
-44.5000000000000071
 30
0.0
 40
1.5
210
0.0
220
-0.0000000000000002
230
-1.0
 50
270.0
 51
90.0
  0
ARC
  5
2334
  8
0
 10
-203.2459845525654885
 20
-47.5
 30
0.0
 40
1.5
210
0.0
220
-0.0000000000000002
230
-1.0
 50
270.0
 51
90.0
  0
ARC
  5
2335
  8
0
 10
-312.2459845525654032
 20
-47.5
 30
0.0
 40
1.5
210
0.0
220
-0.0000000000000002
230
-1.0
 50
90.0
 51
270.0
  0
ARC
  5
2336
  8
0
 10
-203.2459845525654885
 20
-50.5000000000000071
 30
0.0
 40
1.5
210
0.0
220
-0.0000000000000002
230
-1.0
 50
90.0
 51
270.0
  0
ARC
  5
2337
  8
0
 10
-312.2459845525654032
 20
-50.5000000000000071
 30
0.0
 40
1.5
210
0.0
220
-0.0000000000000002
230
-1.0
 50
270.0
 51
90.0
  0
ARC
  5
2338
  8
0
 10
-203.2459845525654885
 20
-53.5000000000000071
 30
0.0
 40
1.5
210
0.0
220
-0.0000000000000002
230
-1.0
 50
270.0
 51
90.0
  0
ARC
  5
2339
  8
0
 10
-312.2459845525654032
 20
-53.5000000000000071
 30
0.0
 40
1.5
210
0.0
220
-0.0000000000000002
230
-1.0
 50
90.0
 51
270.0
  0
ARC
  5
233A
  8
0
 10
-203.2459845525654885
 20
-56.5000000000000213
 30
0.0
 40
1.5
210
0.0
220
-0.0000000000000002
230
-1.0
 50
90.0
 51
270.0
  0
ARC
  5
233B
  8
0
 10
-312.2459845525654032
 20
-56.5000000000000213
 30
0.0
 40
1.5
210
0.0
220
-0.0000000000000002
230
-1.0
 50
270.0
 51
90.0
  0
ARC
  5
233C
  8
0
 10
-203.2459845525654885
 20
-59.5000000000000071
 30
0.0
 40
1.5
210
0.0
220
-0.0000000000000002
230
-1.0
 50
270.0
 51
90.0
  0
ARC
  5
233D
  8
0
 10
-312.2459845525654032
 20
-59.5000000000000071
 30
0.0
 40
1.5
210
0.0
220
-0.0000000000000002
230
-1.0
 50
90.0
 51
270.0
  0
ARC
  5
233E
  8
0
 10
-203.2459845525654885
 20
-62.5000000000000071
 30
0.0
 40
1.5
210
0.0
220
-0.0000000000000002
230
-1.0
 50
90.0
 51
270.0
  0
ARC
  5
233F
  8
0
 10
-312.2459845525654032
 20
-62.5000000000000071
 30
0.0
 40
1.5
210
0.0
220
-0.0000000000000002
230
-1.0
 50
270.0
 51
90.0
  0
ARC
  5
2340
  8
0
 10
-203.2459845525654885
 20
-65.5000000000000142
 30
0.0
 40
1.5
210
0.0
220
-0.0000000000000002
230
-1.0
 50
270.0
 51
90.0
  0
ARC
  5
2341
  8
0
 10
-312.2459845525654032
 20
-65.5000000000000142
 30
0.0
 40
1.5
210
0.0
220
-0.0000000000000002
230
-1.0
 50
90.0
 51
270.0
  0
ARC
  5
2342
  8
0
 10
-203.2459845525654885
 20
-68.5000000000000142
 30
0.0
 40
1.5
210
0.0
220
-0.0000000000000002
230
-1.0
 50
90.0
 51
270.0
  0
ARC
  5
2343
  8
0
 10
-312.2459845525654032
 20
-68.5000000000000142
 30
0.0
 40
1.5
210
0.0
220
-0.0000000000000002
230
-1.0
 50
270.0
 51
90.0
  0
ARC
  5
2344
  8
0
 10
-203.2459845525654885
 20
-71.5000000000000142
 30
0.0
 40
1.5
210
0.0
220
-0.0000000000000002
230
-1.0
 50
270.0
 51
90.0
  0
ARC
  5
2345
  8
0
 10
-312.2459845525654032
 20
-71.5000000000000142
 30
0.0
 40
1.5
210
0.0
220
-0.0000000000000002
230
-1.0
 50
90.0
 51
270.0
  0
ARC
  5
2346
  8
0
 10
-203.2459845525654885
 20
-74.5000000000000142
 30
0.0
 40
1.5
210
0.0
220
-0.0000000000000002
230
-1.0
 50
90.0
 51
270.0
  0
ARC
  5
2347
  8
0
 10
-312.2459845525654032
 20
-74.5000000000000142
 30
0.0
 40
1.5
210
0.0
220
-0.0000000000000002
230
-1.0
 50
270.0
 51
90.0
  0
ARC
  5
2348
  8
0
 10
-203.2459845525654885
 20
-77.5000000000000142
 30
0.0
 40
1.5
210
0.0
220
-0.0000000000000002
230
-1.0
 50
270.0
 51
90.0
  0
ARC
  5
2349
  8
0
 10
-312.2459845525654032
 20
-77.5000000000000142
 30
0.0
 40
1.5
210
0.0
220
-0.0000000000000002
230
-1.0
 50
90.0
 51
270.0
  0
ARC
  5
234A
  8
0
 10
-203.2459845525654885
 20
-80.5000000000000142
 30
0.0
 40
1.5
210
0.0
220
-0.0000000000000002
230
-1.0
 50
90.0
 51
270.0
  0
ARC
  5
234B
  8
0
 10
-312.2459845525654032
 20
-80.5000000000000142
 30
0.0
 40
1.5
210
0.0
220
-0.0000000000000002
230
-1.0
 50
270.0
 51
90.0
  0
ARC
  5
234C
  8
0
 10
-203.2459845525654885
 20
-83.5000000000000142
 30
0.0
 40
1.5
210
0.0
220
-0.0000000000000002
230
-1.0
 50
270.0
 51
90.0
  0
ARC
  5
234D
  8
0
 10
-312.2459845525654032
 20
-83.5000000000000142
 30
0.0
 40
1.5
210
0.0
220
-0.0000000000000002
230
-1.0
 50
90.0
 51
270.0
  0
ARC
  5
234E
  8
0
 10
-203.2459845525654885
 20
-86.5000000000000142
 30
0.0
 40
1.5
210
0.0
220
-0.0000000000000002
230
-1.0
 50
90.0
 51
270.0
  0
ARC
  5
234F
  8
0
 10
-312.2459845525654032
 20
-86.5000000000000142
 30
0.0
 40
1.5
210
0.0
220
-0.0000000000000002
230
-1.0
 50
270.0
 51
90.0
  0
ARC
  5
2350
  8
0
 10
-203.2459845525654885
 20
-89.5000000000000142
 30
0.0
 40
1.5
210
0.0
220
-0.0000000000000002
230
-1.0
 50
270.0
 51
90.0
  0
ARC
  5
2351
  8
0
 10
-312.2459845525654032
 20
-89.5000000000000142
 30
0.0
 40
1.5
210
0.0
220
-0.0000000000000002
230
-1.0
 50
90.0
 51
270.0
  0
ARC
  5
2352
  8
0
 10
-203.2459845525654885
 20
-92.5000000000000142
 30
0.0
 40
1.5
210
0.0
220
-0.0000000000000002
230
-1.0
 50
90.0
 51
270.0
  0
ARC
  5
2353
  8
0
 10
-312.2459845525654032
 20
-92.5000000000000142
 30
0.0
 40
1.5
210
0.0
220
-0.0000000000000002
230
-1.0
 50
270.0
 51
90.0
  0
ARC
  5
2354
  8
0
 10
-203.2459845525654885
 20
-95.5000000000000142
 30
0.0
 40
1.5
210
0.0
220
-0.0000000000000002
230
-1.0
 50
270.0
 51
90.0
  0
ARC
  5
2355
  8
0
 10
-312.2459845525654032
 20
-95.5000000000000142
 30
0.0
 40
1.5
210
0.0
220
-0.0000000000000002
230
-1.0
 50
90.0
 51
270.0
  0
ARC
  5
2356
  8
0
 10
-203.2459845525654885
 20
-98.5000000000000284
 30
0.0
 40
1.5
210
0.0
220
-0.0000000000000002
230
-1.0
 50
90.0
 51
270.0
  0
ARC
  5
2357
  8
0
 10
-312.2459845525654032
 20
-98.5000000000000284
 30
0.0
 40
1.5
210
0.0
220
-0.0000000000000002
230
-1.0
 50
270.0
 51
90.0
  0
ARC
  5
2358
  8
0
 10
-203.2459845525654885
 20
-101.5
 30
0.0
 40
1.5
210
0.0
220
-0.0000000000000002
230
-1.0
 50
270.0
 51
90.0
  0
ARC
  5
2359
  8
0
 10
-312.2459845525654032
 20
-101.5
 30
0.0
 40
1.5
210
0.0
220
-0.0000000000000002
230
-1.0
 50
90.0
 51
270.0
  0
ARC
  5
235A
  8
0
 10
-203.2459845525654885
 20
-104.5
 30
0.0
 40
1.5
210
0.0
220
-0.0000000000000002
230
-1.0
 50
90.0
 51
270.0
  0
ARC
  5
235B
  8
0
 10
-312.2459845525654032
 20
-104.5
 30
0.0
 40
1.5
210
0.0
220
-0.0000000000000002
230
-1.0
 50
270.0
 51
90.0
  0
ARC
  5
235C
  8
0
 10
-203.2459845525654885
 20
-107.5
 30
0.0
 40
1.5
210
0.0
220
-0.0000000000000002
230
-1.0
 50
270.0
 51
90.0
  0
ARC
  5
235D
  8
0
 10
-312.2459845525654032
 20
-107.5
 30
0.0
 40
1.5
210
0.0
220
-0.0000000000000002
230
-1.0
 50
90.0
 51
270.0
  0
ARC
  5
235E
  8
0
 10
-203.2459845525654885
 20
-110.5
 30
0.0
 40
1.5
210
0.0
220
-0.0000000000000002
230
-1.0
 50
90.0
 51
270.0
  0
ARC
  5
235F
  8
0
 10
-312.2459845525654032
 20
-110.5
 30
0.0
 40
1.5
210
0.0
220
-0.0000000000000002
230
-1.0
 50
270.0
 51
90.0
  0
ARC
  5
2360
  8
0
 10
-203.2459845525654885
 20
-113.5
 30
0.0
 40
1.5
210
0.0
220
-0.0000000000000002
230
-1.0
 50
270.0
 51
90.0
  0
ARC
  5
2361
  8
0
 10
-312.2459845525654032
 20
-113.5
 30
0.0
 40
1.5
210
0.0
220
-0.0000000000000002
230
-1.0
 50
90.0
 51
270.0
  0
ARC
  5
2362
  8
0
 10
-203.2459845525654885
 20
-116.5
 30
0.0
 40
1.5
210
0.0
220
-0.0000000000000002
230
-1.0
 50
90.0
 51
270.0
  0
ARC
  5
2363
  8
0
 10
-312.2459845525654032
 20
-116.5
 30
0.0
 40
1.5
210
0.0
220
-0.0000000000000002
230
-1.0
 50
270.0
 51
90.0
  0
ARC
  5
2364
  8
0
 10
-203.2459845525654885
 20
-119.5
 30
0.0
 40
1.5
210
0.0
220
-0.0000000000000002
230
-1.0
 50
270.0
 51
90.0
  0
ARC
  5
2365
  8
0
 10
-312.2459845525654032
 20
-119.5
 30
0.0
 40
1.5
210
0.0
220
-0.0000000000000002
230
-1.0
 50
90.0
 51
270.0
  0
ARC
  5
2366
  8
0
 10
-203.2459845525654885
 20
-122.5
 30
0.0
 40
1.5
210
0.0
220
-0.0000000000000002
230
-1.0
 50
90.0
 51
270.0
  0
ARC
  5
2367
  8
0
 10
-312.2459845525654032
 20
-122.5
 30
0.0
 40
1.5
210
0.0
220
-0.0000000000000002
230
-1.0
 50
270.0
 51
90.0
  0
ARC
  5
2368
  8
0
 10
-203.2459845525654885
 20
-125.5
 30
0.0
 40
1.5
210
0.0
220
-0.0000000000000002
230
-1.0
 50
270.0
 51
90.0
  0
ARC
  5
2369
  8
0
 10
-312.2459845525654032
 20
-125.5
 30
0.0
 40
1.5
210
0.0
220
-0.0000000000000002
230
-1.0
 50
90.0
 51
270.0
  0
LINE
  5
236A
  8
0
 10
206.7459845525656021
 20
-155.0
 30
0.0000000000000344
 11
308.7459845525652895
 21
-155.0
 31
0.0000000000000344
210
0.0
220
1.0
230
-0.0000000000000002
  0
LINE
  5
236B
  8
0
 10
308.7459845525652895
 20
114.0
 30
-0.0000000000000253
 11
308.7459845525652895
 21
32.0000000000000071
 31
-0.0000000000000071
210
0.0
220
1.0
230
-0.0000000000000002
  0
LINE
  5
236C
  8
0
 10
308.7459845525652895
 20
-133.0
 30
0.0000000000000295
 11
308.7459845525652895
 21
-155.0
 31
0.0000000000000344
210
0.0
220
1.0
230
-0.0000000000000002
  0
LINE
  5
236D
  8
0
 10
206.7459845525656021
 20
114.0
 30
-0.0000000000000253
 11
206.7459845525656021
 21
32.0000000000000071
 31
-0.0000000000000071
210
0.0
220
1.0
230
-0.0000000000000002
  0
LINE
  5
236E
  8
0
 10
206.7459845525656021
 20
-133.0
 30
0.0000000000000295
 11
206.7459845525656021
 21
-155.0
 31
0.0000000000000344
210
0.0
220
1.0
230
-0.0000000000000002
  0
LINE
  5
236F
  8
0
  6
VERDECKT
 62
     1
 10
308.7459845525655169
 20
143.0
 30
-0.0000000000000318
 11
308.7459845525655169
 21
114.0
 31
-0.0000000000000253
210
0.0
220
1.0
230
-0.0000000000000002
  0
LINE
  5
2370
  8
0
  6
VERDECKT
 62
     1
 10
206.7459845525654885
 20
143.0
 30
-0.0000000000000318
 11
206.7459845525654885
 21
114.0
 31
-0.0000000000000253
210
0.0
220
1.0
230
-0.0000000000000002
  0
LINE
  5
2371
  8
0
  6
VERDECKT
 62
     1
 10
209.7459845525654885
 20
145.0
 30
-0.0000000000000322
 11
209.7459845525654885
 21
143.0
 31
-0.0000000000000318
210
0.0
220
1.0
230
-0.0000000000000002
  0
LINE
  5
2372
  8
0
  6
VERDECKT
 62
     1
 10
305.7459845525654032
 20
145.0
 30
-0.0000000000000322
 11
305.7459845525654032
 21
143.0
 31
-0.0000000000000318
210
0.0
220
1.0
230
-0.0000000000000002
  0
LINE
  5
2373
  8
0
  6
VERDECKT
 62
     1
 10
270.2459845525654032
 20
145.0
 30
-0.0000000000000322
 11
270.2459845525654032
 21
143.0
 31
-0.0000000000000318
210
0.0
220
1.0
230
-0.0000000000000002
  0
LINE
  5
2374
  8
0
  6
VERDECKT
 62
     1
 10
245.2459845525654032
 20
145.0
 30
-0.0000000000000322
 11
245.2459845525654032
 21
143.0
 31
-0.0000000000000318
210
0.0
220
1.0
230
-0.0000000000000002
  0
LINE
  5
2375
  8
0
  6
VERDECKT
 62
     1
 10
296.8084303930793908
 20
145.0
 30
-0.0000000000000322
 11
296.8084303930793908
 21
143.0
 31
-0.0000000000000318
210
0.0
220
1.0
230
-0.0000000000000002
  0
LINE
  5
2376
  8
0
  6
VERDECKT
 62
     1
 10
274.6662947693484966
 20
145.0
 30
-0.0000000000000322
 11
274.6662947693484966
 21
143.0
 31
-0.0000000000000318
210
0.0
220
1.0
230
-0.0000000000000002
  0
LINE
  5
2377
  8
0
  6
VERDECKT
 62
     1
 10
218.6835387120515009
 20
145.0
 30
-0.0000000000000322
 11
218.6835387120515009
 21
143.0
 31
-0.0000000000000318
210
0.0
220
1.0
230
-0.0000000000000002
  0
LINE
  5
2378
  8
0
  6
VERDECKT
 62
     1
 10
240.8256743357825087
 20
145.0
 30
-0.0000000000000322
 11
240.8256743357825087
 21
143.0
 31
-0.0000000000000318
210
0.0
220
1.0
230
-0.0000000000000002
  0
LINE
  5
2379
  8
0
  6
VERDECKT
 62
     1
 10
231.7459845525654032
 20
145.0
 30
-0.0000000000000322
 11
231.7459845525654032
 21
143.0
 31
-0.0000000000000318
210
0.0
220
1.0
230
-0.0000000000000002
  0
LINE
  5
237A
  8
0
  6
VERDECKT
 62
     1
 10
248.7459845525654032
 20
145.0
 30
-0.0000000000000322
 11
248.7459845525654032
 21
143.0
 31
-0.0000000000000318
210
0.0
220
1.0
230
-0.0000000000000002
  0
LINE
  5
237B
  8
0
  6
VERDECKT
 62
     1
 10
266.7459845525655169
 20
145.0
 30
-0.0000000000000322
 11
266.7459845525655169
 21
143.0
 31
-0.0000000000000318
210
0.0
220
1.0
230
-0.0000000000000002
  0
LINE
  5
237C
  8
0
  6
VERDECKT
 62
     1
 10
283.7459845525655169
 20
145.0
 30
-0.0000000000000322
 11
283.7459845525655169
 21
143.0
 31
-0.0000000000000318
210
0.0
220
1.0
230
-0.0000000000000002
  0
LINE
  5
237D
  8
0
  6
VERDECKT
 62
     1
 10
308.7459845525655169
 20
32.0000000000000071
 30
-0.0000000000000071
 11
308.7459845525655169
 21
-133.0
 31
0.0000000000000295
210
0.0
220
1.0
230
-0.0000000000000002
  0
LINE
  5
237E
  8
0
  6
VERDECKT
 62
     1
 10
206.7459845525654885
 20
32.0000000000000071
 30
-0.0000000000000071
 11
206.7459845525654885
 21
-133.0
 31
0.0000000000000295
210
0.0
220
1.0
230
-0.0000000000000002
  0
LINE
  5
237F
  8
0
  6
VERDECKT
 62
     1
 10
308.7459845525652895
 20
143.0
 30
-0.0000000000000318
 11
308.7459845525652895
 21
114.0
 31
-0.0000000000000253
210
0.0
220
1.0
230
-0.0000000000000002
  0
LINE
  5
2380
  8
0
  6
VERDECKT
 62
     1
 10
308.7459845525652895
 20
32.0000000000000071
 30
-0.0000000000000071
 11
308.7459845525652895
 21
-133.0
 31
0.0000000000000295
210
0.0
220
1.0
230
-0.0000000000000002
  0
LINE
  5
2381
  8
0
  6
VERDECKT
 62
     1
 10
206.7459845525656021
 20
143.0
 30
-0.0000000000000318
 11
206.7459845525656021
 21
114.0
 31
-0.0000000000000253
210
0.0
220
1.0
230
-0.0000000000000002
  0
LINE
  5
2382
  8
0
  6
VERDECKT
 62
     1
 10
206.7459845525656021
 20
32.0000000000000071
 30
-0.0000000000000071
 11
206.7459845525656021
 21
-133.0
 31
0.0000000000000295
210
0.0
220
1.0
230
-0.0000000000000002
  0
LINE
  5
2383
  8
0
  6
VERDECKT
 62
     1
 10
306.7459845525655169
 20
143.0
 30
-0.0000000000000318
 11
306.7459845525655169
 21
-155.0
 31
0.0000000000000344
210
0.0
220
1.0
230
-0.0000000000000002
  0
LINE
  5
2384
  8
0
  6
VERDECKT
 62
     1
 10
208.7459845525654885
 20
143.0
 30
-0.0000000000000318
 11
208.7459845525654885
 21
-155.0
 31
0.0000000000000344
210
0.0
220
1.0
230
-0.0000000000000002
  0
ENDBLK
  5
2386
  8
0
  0
ENDSEC
  0
SECTION
  2
ENTITIES
  0
INSERT
  5
1C34
  8
ADSK_ASSOC_ENTITY_BACKUPS
  2
*S3
 10
0.0
 20
0.0
 30
0.0
  0
INSERT
  5
22F0
  8
STEMPEL
  2
A$C3C4488B0
 10
172.6763639535552954
 20
-402.2294684673473171
 30
12.7489937097255108
 50
90.0
  0
INSERT
  5
2387
  8
STEMPEL
  2
A$C5D1B22A4
 10
-195.6149909675017966
 20
188.3492875835941902
 30
12.7489937097255002
  0
VIEWPORT
  5
1B12
 67
     1
  8
0
 10
245.263121700957214
 20
186.8750559376478009
 30
0.0
 40
755.1471947795563437
 41
423.0035756853396833
 68
     1
 69
     1
1001
ACAD
1000
MVIEW
1002
{
1070
    16
1010
0.0
1020
0.0
1030
0.0
1010
0.0
1020
0.0
1030
1.0
1040
0.0
1040
423.0035756853396833
1040
245.263121700957214
1040
186.8750559376478009
1040
50.0
1040
0.0
1040
0.0
1070
     0
1070
  1500
1070
     1
1070
     1
1070
     0
1070
     0
1070
     0
1070
     0
1040
0.0
1040
0.0
1040
0.0
1040
10.0
1040
10.0
1040
10.0
1040
10.0
1070
     0
1002
{
1002
}
1002
}
  0
ENDSEC
  0
EOF
