  0
SECTION
  2
HEADER
  9
$ACADVER
  1
AC1009
  9
$INSBASE
 10
0.0
 20
0.0
 30
0.0
  9
$EXTMIN
 10
-105.0000001628745991
 20
-255.0000001835848877
 30
-0.0000001071022098
  9
$EXTMAX
 10
104.9999998653670019
 20
229.9999997492386967
 30
-0.0000001071022098
  9
$LIMMIN
 10
0.0
 20
0.0
  9
$LIMMAX
 10
420.0
 20
297.0
  9
$ORTHOMODE
 70
     1
  9
$REGENMODE
 70
     1
  9
$FILLMODE
 70
     1
  9
$QTEXTMODE
 70
     0
  9
$MIRRTEXT
 70
     1
  9
$DRAGMODE
 70
     2
  9
$LTSCALE
 40
10.0
  9
$OSMODE
 70
   511
  9
$ATTMODE
 70
     1
  9
$TEXTSIZE
 40
3.5
  9
$TRACEWID
 40
1.0
  9
$TEXTSTYLE
  7
STANDARD
  9
$CLAYER
  8
STEMPEL
  9
$CELTYPE
  6
BYLAYER
  9
$CECOLOR
 62
   256
  9
$DIMSCALE
 40
1.0
  9
$DIMASZ
 40
3.5
  9
$DIMEXO
 40
1.0
  9
$DIMDLI
 40
0.38
  9
$DIMRND
 40
0.0
  9
$DIMDLE
 40
0.0
  9
$DIMEXE
 40
1.0
  9
$DIMTP
 40
0.0
  9
$DIMTM
 40
0.000000001
  9
$DIMTXT
 40
3.5
  9
$DIMCEN
 40
0.09
  9
$DIMTSZ
 40
0.0
  9
$DIMTOL
 70
     0
  9
$DIMLIM
 70
     0
  9
$DIMTIH
 70
     0
  9
$DIMTOH
 70
     0
  9
$DIMSE1
 70
     0
  9
$DIMSE2
 70
     0
  9
$DIMTAD
 70
     1
  9
$DIMZIN
 70
     8
  9
$DIMBLK
  1

  9
$DIMASO
 70
     1
  9
$DIMSHO
 70
     0
  9
$DIMPOST
  1

  9
$DIMAPOST
  1

  9
$DIMALT
 70
     0
  9
$DIMALTD
 70
     2
  9
$DIMALTF
 40
25.3999999999999986
  9
$DIMLFAC
 40
2.0
  9
$DIMTOFL
 70
     1
  9
$DIMTVP
 40
0.0
  9
$DIMTIX
 70
     0
  9
$DIMSOXD
 70
     0
  9
$DIMSAH
 70
     0
  9
$DIMBLK1
  1

  9
$DIMBLK2
  1

  9
$DIMSTYLE
  2
LORO
  9
$DIMCLRD
 70
     0
  9
$DIMCLRE
 70
     0
  9
$DIMCLRT
 70
     1
  9
$DIMTFAC
 40
0.5
  9
$DIMGAP
 40
1.5
  9
$LUNITS
 70
     2
  9
$LUPREC
 70
     2
  9
$SKETCHINC
 40
1.0
  9
$FILLETRAD
 40
0.0
  9
$AUNITS
 70
     0
  9
$AUPREC
 70
     0
  9
$MENU
  1
ACAD
  9
$ELEVATION
 40
0.0
  9
$PELEVATION
 40
0.0
  9
$THICKNESS
 40
0.0
  9
$LIMCHECK
 70
     0
  9
$BLIPMODE
 70
     0
  9
$CHAMFERA
 40
0.0
  9
$CHAMFERB
 40
0.0
  9
$SKPOLY
 70
     0
  9
$TDCREATE
 40
2455397.867048610933125
  9
$TDUPDATE
 40
2460539.5869675930589437
  9
$TDINDWG
 40
2.1824825578999998
  9
$TDUSRTIMER
 40
2.1824825578999998
  9
$USRTIMER
 70
     1
  9
$ANGBASE
 50
0.0
  9
$ANGDIR
 70
     0
  9
$PDMODE
 70
     0
  9
$PDSIZE
 40
0.0
  9
$PLINEWID
 40
0.0
  9
$COORDS
 70
     1
  9
$SPLFRAME
 70
     0
  9
$SPLINETYPE
 70
     6
  9
$SPLINESEGS
 70
     8
  9
$ATTDIA
 70
     1
  9
$ATTREQ
 70
     1
  9
$HANDLING
 70
     1
  9
$HANDSEED
  5
1BE06
  9
$SURFTAB1
 70
     6
  9
$SURFTAB2
 70
     6
  9
$SURFTYPE
 70
     6
  9
$SURFU
 70
     6
  9
$SURFV
 70
     6
  9
$UCSNAME
  2

  9
$UCSORG
 10
0.0
 20
0.0
 30
0.0
  9
$UCSXDIR
 10
1.0
 20
0.0
 30
0.0
  9
$UCSYDIR
 10
0.0
 20
1.0
 30
0.0
  9
$PUCSNAME
  2

  9
$PUCSORG
 10
0.0
 20
0.0
 30
0.0
  9
$PUCSXDIR
 10
1.0
 20
0.0
 30
0.0
  9
$PUCSYDIR
 10
0.0
 20
1.0
 30
0.0
  9
$USERI1
 70
     0
  9
$USERI2
 70
     0
  9
$USERI3
 70
     0
  9
$USERI4
 70
     0
  9
$USERI5
 70
     0
  9
$USERR1
 40
0.0
  9
$USERR2
 40
0.0
  9
$USERR3
 40
0.0
  9
$USERR4
 40
0.0
  9
$USERR5
 40
0.0
  9
$WORLDVIEW
 70
     1
  9
$SHADEDGE
 70
     3
  9
$SHADEDIF
 70
    70
  9
$TILEMODE
 70
     1
  9
$MAXACTVP
 70
    16
  9
$PLIMCHECK
 70
     0
  9
$PEXTMIN
 10
1.0000000000000000E+20
 20
1.0000000000000000E+20
 30
1.0000000000000000E+20
  9
$PEXTMAX
 10
-1.0000000000000000E+20
 20
-1.0000000000000000E+20
 30
-1.0000000000000000E+20
  9
$PLIMMIN
 10
-0.2447491974439799
 20
-0.2501651782987437
  9
$PLIMMAX
 10
296.7552508025560201
 20
419.7498348217011994
  9
$UNITMODE
 70
     0
  9
$VISRETAIN
 70
     0
  9
$PLINEGEN
 70
     0
  9
$PSLTSCALE
 70
     0
  0
ENDSEC
  0
SECTION
  2
TABLES
  0
TABLE
  2
VPORT
 70
     1
  0
VPORT
  2
*ACTIVE
 70
     0
 10
0.0
 20
0.0
 11
1.0
 21
1.0
 12
-0.0000001487537702
 22
-75.0036623265481239
 13
0.0
 23
0.0
 14
1.0
 24
1.0
 15
10.0
 25
10.0
 16
-0.0000000000002397
 26
0.0
 36
1079.2904701259319609
 17
0.0
 27
62.503662109375
 37
-0.0000000000000239
 40
487.4999999324772944
 41
1.8847807394668961
 42
49.9999999999999574
 43
0.0
 44
0.0
 50
0.0
 51
0.0
 71
     0
 72
  1500
 73
     1
 74
     0
 75
     0
 76
     0
 77
     0
 78
     0
  0
ENDTAB
  0
TABLE
  2
LTYPE
 70
     4
  0
LTYPE
  2
CONTINUOUS
 70
     0
  3
Solid line
 72
    65
 73
     0
 40
0.0
  0
LTYPE
  2
STRICHPUNKT
 70
     0
  3
__ . __ . __ . __ . __ . __ . __ . __ . __ . __
 72
    65
 73
     4
 40
1.0
 49
0.5
 49
-0.25
 49
0.0
 49
-0.25
  0
LTYPE
  2
VERDECKT
 70
     0
  3
Verdeckt __ __ __ __ __ __ __ __ __ __ __ __ __
 72
    65
 73
     2
 40
0.375
 49
0.25
 49
-0.125
  0
ENDTAB
  0
TABLE
  2
LAYER
 70
     7
  0
LAYER
  2
0
 70
     0
 62
     7
  6
CONTINUOUS
  0
LAYER
  2
STEMPEL
 70
     0
 62
     3
  6
CONTINUOUS
  0
LAYER
  2
ADSK_ASSOC_ENTITY_BACKUPS
 70
     1
 62
    -7
  6
CONTINUOUS
  0
ENDTAB
  0
TABLE
  2
STYLE
 70
     1
  0
STYLE
  2
STANDARD
 70
     0
 40
0.0
 41
0.8
 50
0.0
 71
     0
 42
3.5
  3
simplex.shx
  4

  0
ENDTAB
  0
TABLE
  2
VIEW
 70
     0
  0
ENDTAB
  0
TABLE
  2
UCS
 70
     0
  0
ENDTAB
  0
TABLE
  2
APPID
 70
    30
  0
APPID
  2
ACAD
 70
     0
  0
APPID
  2
ACAD_NAV_VCDISPLAY
 70
     0
  0
APPID
  2
GRADIENTCOLOR1ACI
 70
     0
  0
APPID
  2
GRADIENTCOLOR2ACI
 70
     0
  0
APPID
  2
ACAD_DSTYLE_DIMRADIAL_EXTENSION
 70
     0
  0
APPID
  2
ACADANNOMONITORALERTICONDI
 70
     0
  0
APPID
  2
ACAD_EXEMPT_FROM_CAD_STANDARDS
 70
     0
  0
APPID
  2
ACAD_MLEADERVER
 70
     0
  0
APPID
  2
ACAD_PSEXT
 70
     0
  0
APPID
  2
ACAECLAYERSTANDARD
 70
     0
  0
APPID
  2
ACAUTHENVIRON
 70
     0
  0
APPID
  2
ACCMTRANSPARENCY
 70
     0
  0
APPID
  2
ACAD_STEPID
 70
     0
  0
APPID
  2
ACSYNERGY
 70
     0
  0
APPID
  2
SYNERGY_BODY_TBR_ID
 70
     0
  0
APPID
  2
ACAD_VIEW_EDGE_ID
 70
     0
  0
APPID
  2
ACAD_MODELDOC_XFORM
 70
     0
  0
APPID
  2
ACAD_DIMASSOC_CALC_DIMLFAC
 70
     0
  0
APPID
  2
ACAD_DIMASSOC_DIMLFAC
 70
     0
  0
APPID
  2
ACAD_DIMASSOC_OVERRIDDEN_D
 70
     0
  0
APPID
  2
ACSYNERGYSKETCH
 70
     0
  0
APPID
  2
ACAD_DSTYLE_DIMJAG
 70
     0
  0
APPID
  2
ACAD_DSTYLE_DIMTALN
 70
     0
  0
APPID
  2
ACDBDYNAMICBLOCKGUID
 70
     0
  0
APPID
  2
ACAD_DSTYLE_DIMBREAK
 70
     0
  0
APPID
  2
PLOTTRANSPARENCY
 70
     0
  0
APPID
  2
ACADANNOPO
 70
     0
  0
APPID
  2
ACADANNOAV
 70
     0
  0
APPID
  2
ACDBDYNAMICBLOCKTRUENAME
 70
     0
  0
APPID
  2
ACADANNOTATIVE
 70
     0
  0
ENDTAB
  0
TABLE
  2
DIMSTYLE
 70
     3
  0
DIMSTYLE
  2
LORO
 70
     0
  3

  4

  5

  6

  7

 40
1.0
 41
3.5
 42
1.0
 43
0.38
 44
1.0
 45
0.0
 46
0.0
 47
0.0
 48
0.000000001
140
3.5
141
0.09
142
0.0
143
25.3999999999999986
144
2.0
145
0.0
146
0.5
147
1.5
 71
     0
 72
     0
 73
     0
 74
     0
 75
     0
 76
     0
 77
     1
 78
     8
170
     0
171
     2
172
     1
173
     0
174
     0
175
     0
176
     0
177
     0
178
     1
  0
ENDTAB
  0
ENDSEC
  0
SECTION
  2
BLOCKS
  0
BLOCK
  8
0
  2
$MODEL_SPACE
 70
     0
 10
0.0
 20
0.0
 30
0.0
  3
$MODEL_SPACE
  1

  0
ENDBLK
  5
38
  8
0
  0
BLOCK
 67
     1
  8
0
  2
$PAPER_SPACE
 70
     0
 10
0.0
 20
0.0
 30
0.0
  3
$PAPER_SPACE
  1

  0
ENDBLK
  5
36
 67
     1
  8
0
  0
BLOCK
  8
0
  2
*S0
 70
     1
 10
0.0
 20
0.0
 30
0.0
  3
*S0
  1

  0
ENDBLK
  5
D6E
  8
0
  0
BLOCK
  8
0
  2
A$C90B9004F
 70
     0
 10
0.0
 20
0.0
 30
0.0
  3
A$C90B9004F
  1

  0
LINE
  5
1BCE0
  8
0
  6
CONTINUOUS
 62
     3
 10
-54.5
 20
22.0000000000000604
 30
-0.0000000000000049
 11
54.5
 21
22.0000000000000604
 31
-0.0000000000000049
210
0.0
220
1.0
230
-0.0000000000000002
  0
LINE
  5
1BCE1
  8
0
  6
CONTINUOUS
 62
     3
 10
-54.5
 20
187.0
 30
-0.0000000000000415
 11
54.5
 21
187.0
 31
-0.0000000000000415
210
0.0
220
1.0
230
-0.0000000000000002
  0
ARC
  5
1BCE2
  8
0
  6
CONTINUOUS
 62
     3
 10
54.5
 20
26.5000000000000107
 30
0.0
 40
1.5
210
0.0
220
-0.0000000000000002
230
-1.0
 50
90.0
 51
270.0
  0
ARC
  5
1BCE3
  8
0
  6
CONTINUOUS
 62
     3
 10
-54.5
 20
26.5000000000000107
 30
0.0
 40
1.5
210
0.0
220
-0.0000000000000002
230
-1.0
 50
270.0
 51
90.0
  0
ARC
  5
1BCE4
  8
0
  6
CONTINUOUS
 62
     3
 10
54.5
 20
23.5
 30
0.0
 40
1.4999999999999709
210
0.0
220
-0.0000000000000002
230
-1.0
 50
270.0
 51
90.0
  0
ARC
  5
1BCE5
  8
0
  6
CONTINUOUS
 62
     3
 10
-54.5
 20
23.5
 30
0.0
 40
1.4999999999999709
210
0.0
220
-0.0000000000000002
230
-1.0
 50
90.0
 51
270.0
  0
ARC
  5
1BCE6
  8
0
  6
CONTINUOUS
 62
     3
 10
54.5
 20
185.5
 30
0.0
 40
1.5
210
0.0
220
-0.0000000000000002
230
-1.0
 50
270.0
 51
90.0
  0
ARC
  5
1BCE7
  8
0
  6
CONTINUOUS
 62
     3
 10
-54.5
 20
185.5
 30
0.0
 40
1.5
210
0.0
220
-0.0000000000000002
230
-1.0
 50
90.0
 51
270.0
  0
ARC
  5
1BCE8
  8
0
  6
CONTINUOUS
 62
     3
 10
54.5
 20
182.5
 30
0.0
 40
1.5
210
0.0
220
-0.0000000000000002
230
-1.0
 50
90.0
 51
270.0
  0
ARC
  5
1BCE9
  8
0
  6
CONTINUOUS
 62
     3
 10
-54.5
 20
182.5
 30
0.0
 40
1.5
210
0.0
220
-0.0000000000000002
230
-1.0
 50
270.0
 51
90.0
  0
ARC
  5
1BCEA
  8
0
  6
CONTINUOUS
 62
     3
 10
54.5
 20
179.5
 30
0.0
 40
1.5
210
0.0
220
-0.0000000000000002
230
-1.0
 50
270.0
 51
90.0
  0
ARC
  5
1BCEB
  8
0
  6
CONTINUOUS
 62
     3
 10
-54.5
 20
179.5
 30
0.0
 40
1.5
210
0.0
220
-0.0000000000000002
230
-1.0
 50
90.0
 51
270.0
  0
ARC
  5
1BCEC
  8
0
  6
CONTINUOUS
 62
     3
 10
54.5
 20
176.5
 30
0.0
 40
1.5
210
0.0
220
-0.0000000000000002
230
-1.0
 50
90.0
 51
270.0
  0
ARC
  5
1BCED
  8
0
  6
CONTINUOUS
 62
     3
 10
-54.5
 20
176.5
 30
0.0
 40
1.5
210
0.0
220
-0.0000000000000002
230
-1.0
 50
270.0
 51
90.0
  0
ARC
  5
1BCEE
  8
0
  6
CONTINUOUS
 62
     3
 10
54.5
 20
173.5
 30
0.0
 40
1.5
210
0.0
220
-0.0000000000000002
230
-1.0
 50
270.0
 51
90.0
  0
ARC
  5
1BCEF
  8
0
  6
CONTINUOUS
 62
     3
 10
-54.5
 20
173.5
 30
0.0
 40
1.5
210
0.0
220
-0.0000000000000002
230
-1.0
 50
90.0
 51
270.0
  0
ARC
  5
1BCF0
  8
0
  6
CONTINUOUS
 62
     3
 10
54.5
 20
170.5
 30
0.0
 40
1.5
210
0.0
220
-0.0000000000000002
230
-1.0
 50
90.0
 51
270.0
  0
ARC
  5
1BCF1
  8
0
  6
CONTINUOUS
 62
     3
 10
-54.5
 20
170.5
 30
0.0
 40
1.5
210
0.0
220
-0.0000000000000002
230
-1.0
 50
270.0
 51
90.0
  0
ARC
  5
1BCF2
  8
0
  6
CONTINUOUS
 62
     3
 10
54.5
 20
167.5
 30
0.0
 40
1.5
210
0.0
220
-0.0000000000000002
230
-1.0
 50
270.0
 51
90.0
  0
ARC
  5
1BCF3
  8
0
  6
CONTINUOUS
 62
     3
 10
-54.5
 20
167.5
 30
0.0
 40
1.5
210
0.0
220
-0.0000000000000002
230
-1.0
 50
90.0
 51
270.0
  0
ARC
  5
1BCF4
  8
0
  6
CONTINUOUS
 62
     3
 10
54.5
 20
164.5
 30
0.0
 40
1.5
210
0.0
220
-0.0000000000000002
230
-1.0
 50
90.0
 51
270.0
  0
ARC
  5
1BCF5
  8
0
  6
CONTINUOUS
 62
     3
 10
-54.5
 20
164.5
 30
0.0
 40
1.5
210
0.0
220
-0.0000000000000002
230
-1.0
 50
270.0
 51
90.0
  0
ARC
  5
1BCF6
  8
0
  6
CONTINUOUS
 62
     3
 10
54.5
 20
161.5
 30
0.0
 40
1.5
210
0.0
220
-0.0000000000000002
230
-1.0
 50
270.0
 51
90.0
  0
ARC
  5
1BCF7
  8
0
  6
CONTINUOUS
 62
     3
 10
-54.5
 20
161.5
 30
0.0
 40
1.5
210
0.0
220
-0.0000000000000002
230
-1.0
 50
90.0
 51
270.0
  0
ARC
  5
1BCF8
  8
0
  6
CONTINUOUS
 62
     3
 10
54.5
 20
158.5
 30
0.0
 40
1.5
210
0.0
220
-0.0000000000000002
230
-1.0
 50
90.0
 51
270.0
  0
ARC
  5
1BCF9
  8
0
  6
CONTINUOUS
 62
     3
 10
-54.5
 20
158.5
 30
0.0
 40
1.5
210
0.0
220
-0.0000000000000002
230
-1.0
 50
270.0
 51
90.0
  0
ARC
  5
1BCFA
  8
0
  6
CONTINUOUS
 62
     3
 10
54.5
 20
155.5
 30
0.0
 40
1.5
210
0.0
220
-0.0000000000000002
230
-1.0
 50
270.0
 51
90.0
  0
ARC
  5
1BCFB
  8
0
  6
CONTINUOUS
 62
     3
 10
-54.5
 20
155.5
 30
0.0
 40
1.5
210
0.0
220
-0.0000000000000002
230
-1.0
 50
90.0
 51
270.0
  0
ARC
  5
1BCFC
  8
0
  6
CONTINUOUS
 62
     3
 10
54.5
 20
152.5
 30
0.0
 40
1.5
210
0.0
220
-0.0000000000000002
230
-1.0
 50
90.0
 51
270.0
  0
ARC
  5
1BCFD
  8
0
  6
CONTINUOUS
 62
     3
 10
-54.5
 20
152.5
 30
0.0
 40
1.5
210
0.0
220
-0.0000000000000002
230
-1.0
 50
270.0
 51
90.0
  0
ARC
  5
1BCFE
  8
0
  6
CONTINUOUS
 62
     3
 10
54.5
 20
149.5
 30
0.0
 40
1.5
210
0.0
220
-0.0000000000000002
230
-1.0
 50
270.0
 51
90.0
  0
ARC
  5
1BCFF
  8
0
  6
CONTINUOUS
 62
     3
 10
-54.5
 20
149.5
 30
0.0
 40
1.5
210
0.0
220
-0.0000000000000002
230
-1.0
 50
90.0
 51
270.0
  0
ARC
  5
1BD00
  8
0
  6
CONTINUOUS
 62
     3
 10
54.5
 20
146.5
 30
0.0
 40
1.5
210
0.0
220
-0.0000000000000002
230
-1.0
 50
90.0
 51
270.0
  0
ARC
  5
1BD01
  8
0
  6
CONTINUOUS
 62
     3
 10
-54.5
 20
146.5
 30
0.0
 40
1.5
210
0.0
220
-0.0000000000000002
230
-1.0
 50
270.0
 51
90.0
  0
ARC
  5
1BD02
  8
0
  6
CONTINUOUS
 62
     3
 10
54.5
 20
143.5
 30
0.0
 40
1.5
210
0.0
220
-0.0000000000000002
230
-1.0
 50
270.0
 51
90.0
  0
ARC
  5
1BD03
  8
0
  6
CONTINUOUS
 62
     3
 10
-54.5
 20
143.5
 30
0.0
 40
1.5
210
0.0
220
-0.0000000000000002
230
-1.0
 50
90.0
 51
270.0
  0
ARC
  5
1BD04
  8
0
  6
CONTINUOUS
 62
     3
 10
54.5
 20
140.5
 30
0.0
 40
1.5
210
0.0
220
-0.0000000000000002
230
-1.0
 50
90.0
 51
270.0
  0
ARC
  5
1BD05
  8
0
  6
CONTINUOUS
 62
     3
 10
-54.5
 20
140.5
 30
0.0
 40
1.5
210
0.0
220
-0.0000000000000002
230
-1.0
 50
270.0
 51
90.0
  0
ARC
  5
1BD06
  8
0
  6
CONTINUOUS
 62
     3
 10
54.5
 20
137.5
 30
0.0
 40
1.5
210
0.0
220
-0.0000000000000002
230
-1.0
 50
270.0
 51
90.0
  0
ARC
  5
1BD07
  8
0
  6
CONTINUOUS
 62
     3
 10
-54.5
 20
137.5
 30
0.0
 40
1.5
210
0.0
220
-0.0000000000000002
230
-1.0
 50
90.0
 51
270.0
  0
ARC
  5
1BD08
  8
0
  6
CONTINUOUS
 62
     3
 10
54.5
 20
134.5
 30
0.0
 40
1.5
210
0.0
220
-0.0000000000000002
230
-1.0
 50
90.0
 51
270.0
  0
ARC
  5
1BD09
  8
0
  6
CONTINUOUS
 62
     3
 10
-54.5
 20
134.5
 30
0.0
 40
1.5
210
0.0
220
-0.0000000000000002
230
-1.0
 50
270.0
 51
90.0
  0
ARC
  5
1BD0A
  8
0
  6
CONTINUOUS
 62
     3
 10
54.5
 20
131.5
 30
0.0
 40
1.5
210
0.0
220
-0.0000000000000002
230
-1.0
 50
270.0
 51
90.0
  0
ARC
  5
1BD0B
  8
0
  6
CONTINUOUS
 62
     3
 10
-54.5
 20
131.5
 30
0.0
 40
1.5
210
0.0
220
-0.0000000000000002
230
-1.0
 50
90.0
 51
270.0
  0
ARC
  5
1BD0C
  8
0
  6
CONTINUOUS
 62
     3
 10
54.5
 20
128.5
 30
0.0
 40
1.5
210
0.0
220
-0.0000000000000002
230
-1.0
 50
90.0
 51
270.0
  0
ARC
  5
1BD0D
  8
0
  6
CONTINUOUS
 62
     3
 10
-54.5
 20
128.5
 30
0.0
 40
1.5
210
0.0
220
-0.0000000000000002
230
-1.0
 50
270.0
 51
90.0
  0
ARC
  5
1BD0E
  8
0
  6
CONTINUOUS
 62
     3
 10
54.5
 20
125.5
 30
0.0
 40
1.5
210
0.0
220
-0.0000000000000002
230
-1.0
 50
270.0
 51
90.0
  0
ARC
  5
1BD0F
  8
0
  6
CONTINUOUS
 62
     3
 10
-54.5
 20
125.5
 30
0.0
 40
1.5
210
0.0
220
-0.0000000000000002
230
-1.0
 50
90.0
 51
270.0
  0
ARC
  5
1BD10
  8
0
  6
CONTINUOUS
 62
     3
 10
54.5
 20
122.5
 30
0.0
 40
1.5
210
0.0
220
-0.0000000000000002
230
-1.0
 50
90.0
 51
270.0
  0
ARC
  5
1BD11
  8
0
  6
CONTINUOUS
 62
     3
 10
-54.5
 20
122.5
 30
0.0
 40
1.5
210
0.0
220
-0.0000000000000002
230
-1.0
 50
270.0
 51
90.0
  0
ARC
  5
1BD12
  8
0
  6
CONTINUOUS
 62
     3
 10
54.5
 20
119.5
 30
0.0
 40
1.5
210
0.0
220
-0.0000000000000002
230
-1.0
 50
270.0
 51
90.0
  0
ARC
  5
1BD13
  8
0
  6
CONTINUOUS
 62
     3
 10
-54.5
 20
119.5
 30
0.0
 40
1.5
210
0.0
220
-0.0000000000000002
230
-1.0
 50
90.0
 51
270.0
  0
ARC
  5
1BD14
  8
0
  6
CONTINUOUS
 62
     3
 10
54.5
 20
116.5
 30
0.0
 40
1.5
210
0.0
220
-0.0000000000000002
230
-1.0
 50
90.0
 51
270.0
  0
ARC
  5
1BD15
  8
0
  6
CONTINUOUS
 62
     3
 10
-54.5
 20
116.5
 30
0.0
 40
1.5
210
0.0
220
-0.0000000000000002
230
-1.0
 50
270.0
 51
90.0
  0
ARC
  5
1BD16
  8
0
  6
CONTINUOUS
 62
     3
 10
54.5
 20
113.5
 30
0.0
 40
1.5
210
0.0
220
-0.0000000000000002
230
-1.0
 50
270.0
 51
90.0
  0
ARC
  5
1BD17
  8
0
  6
CONTINUOUS
 62
     3
 10
-54.5
 20
113.5
 30
0.0
 40
1.5
210
0.0
220
-0.0000000000000002
230
-1.0
 50
90.0
 51
270.0
  0
ARC
  5
1BD18
  8
0
  6
CONTINUOUS
 62
     3
 10
54.5
 20
110.5
 30
0.0
 40
1.5
210
0.0
220
-0.0000000000000002
230
-1.0
 50
90.0
 51
270.0
  0
ARC
  5
1BD19
  8
0
  6
CONTINUOUS
 62
     3
 10
-54.5
 20
110.5
 30
0.0
 40
1.5
210
0.0
220
-0.0000000000000002
230
-1.0
 50
270.0
 51
90.0
  0
ARC
  5
1BD1A
  8
0
  6
CONTINUOUS
 62
     3
 10
54.5
 20
107.5
 30
0.0
 40
1.5
210
0.0
220
-0.0000000000000002
230
-1.0
 50
270.0
 51
90.0
  0
ARC
  5
1BD1B
  8
0
  6
CONTINUOUS
 62
     3
 10
-54.5
 20
107.5
 30
0.0
 40
1.5
210
0.0
220
-0.0000000000000002
230
-1.0
 50
90.0
 51
270.0
  0
ARC
  5
1BD1C
  8
0
  6
CONTINUOUS
 62
     3
 10
54.5
 20
104.5
 30
0.0
 40
1.5
210
0.0
220
-0.0000000000000002
230
-1.0
 50
90.0
 51
270.0
  0
ARC
  5
1BD1D
  8
0
  6
CONTINUOUS
 62
     3
 10
-54.5
 20
104.5
 30
0.0
 40
1.5
210
0.0
220
-0.0000000000000002
230
-1.0
 50
270.0
 51
90.0
  0
ARC
  5
1BD1E
  8
0
  6
CONTINUOUS
 62
     3
 10
54.5
 20
101.5
 30
0.0
 40
1.5
210
0.0
220
-0.0000000000000002
230
-1.0
 50
270.0
 51
90.0
  0
ARC
  5
1BD1F
  8
0
  6
CONTINUOUS
 62
     3
 10
-54.5
 20
101.5
 30
0.0
 40
1.5
210
0.0
220
-0.0000000000000002
230
-1.0
 50
90.0
 51
270.0
  0
ARC
  5
1BD20
  8
0
  6
CONTINUOUS
 62
     3
 10
54.5
 20
98.5000000000000284
 30
0.0
 40
1.5
210
0.0
220
-0.0000000000000002
230
-1.0
 50
90.0
 51
270.0
  0
ARC
  5
1BD21
  8
0
  6
CONTINUOUS
 62
     3
 10
-54.5
 20
98.5000000000000284
 30
0.0
 40
1.5
210
0.0
220
-0.0000000000000002
230
-1.0
 50
270.0
 51
90.0
  0
ARC
  5
1BD22
  8
0
  6
CONTINUOUS
 62
     3
 10
54.5
 20
95.5000000000000142
 30
0.0
 40
1.5
210
0.0
220
-0.0000000000000002
230
-1.0
 50
270.0
 51
90.0
  0
ARC
  5
1BD23
  8
0
  6
CONTINUOUS
 62
     3
 10
-54.5
 20
95.5000000000000142
 30
0.0
 40
1.5
210
0.0
220
-0.0000000000000002
230
-1.0
 50
90.0
 51
270.0
  0
ARC
  5
1BD24
  8
0
  6
CONTINUOUS
 62
     3
 10
54.5
 20
92.5000000000000142
 30
0.0
 40
1.5
210
0.0
220
-0.0000000000000002
230
-1.0
 50
90.0
 51
270.0
  0
ARC
  5
1BD25
  8
0
  6
CONTINUOUS
 62
     3
 10
-54.5
 20
92.5000000000000142
 30
0.0
 40
1.5
210
0.0
220
-0.0000000000000002
230
-1.0
 50
270.0
 51
90.0
  0
ARC
  5
1BD26
  8
0
  6
CONTINUOUS
 62
     3
 10
54.5
 20
89.5000000000000142
 30
0.0
 40
1.5
210
0.0
220
-0.0000000000000002
230
-1.0
 50
270.0
 51
90.0
  0
ARC
  5
1BD27
  8
0
  6
CONTINUOUS
 62
     3
 10
-54.5
 20
89.5000000000000142
 30
0.0
 40
1.5
210
0.0
220
-0.0000000000000002
230
-1.0
 50
90.0
 51
270.0
  0
ARC
  5
1BD28
  8
0
  6
CONTINUOUS
 62
     3
 10
54.5
 20
86.5000000000000142
 30
0.0
 40
1.5
210
0.0
220
-0.0000000000000002
230
-1.0
 50
90.0
 51
270.0
  0
ARC
  5
1BD29
  8
0
  6
CONTINUOUS
 62
     3
 10
-54.5
 20
86.5000000000000142
 30
0.0
 40
1.5
210
0.0
220
-0.0000000000000002
230
-1.0
 50
270.0
 51
90.0
  0
ARC
  5
1BD2A
  8
0
  6
CONTINUOUS
 62
     3
 10
54.5
 20
83.5000000000000142
 30
0.0
 40
1.5
210
0.0
220
-0.0000000000000002
230
-1.0
 50
270.0
 51
90.0
  0
ARC
  5
1BD2B
  8
0
  6
CONTINUOUS
 62
     3
 10
-54.5
 20
83.5000000000000142
 30
0.0
 40
1.5
210
0.0
220
-0.0000000000000002
230
-1.0
 50
90.0
 51
270.0
  0
ARC
  5
1BD2C
  8
0
  6
CONTINUOUS
 62
     3
 10
54.5
 20
80.5000000000000142
 30
0.0
 40
1.5
210
0.0
220
-0.0000000000000002
230
-1.0
 50
90.0
 51
270.0
  0
ARC
  5
1BD2D
  8
0
  6
CONTINUOUS
 62
     3
 10
-54.5
 20
80.5000000000000142
 30
0.0
 40
1.5
210
0.0
220
-0.0000000000000002
230
-1.0
 50
270.0
 51
90.0
  0
ARC
  5
1BD2E
  8
0
  6
CONTINUOUS
 62
     3
 10
54.5
 20
77.5000000000000142
 30
0.0
 40
1.5
210
0.0
220
-0.0000000000000002
230
-1.0
 50
270.0
 51
90.0
  0
ARC
  5
1BD2F
  8
0
  6
CONTINUOUS
 62
     3
 10
-54.5
 20
77.5000000000000142
 30
0.0
 40
1.5
210
0.0
220
-0.0000000000000002
230
-1.0
 50
90.0
 51
270.0
  0
ARC
  5
1BD30
  8
0
  6
CONTINUOUS
 62
     3
 10
54.5
 20
74.5000000000000142
 30
0.0
 40
1.5
210
0.0
220
-0.0000000000000002
230
-1.0
 50
90.0
 51
270.0
  0
ARC
  5
1BD31
  8
0
  6
CONTINUOUS
 62
     3
 10
-54.5
 20
74.5000000000000142
 30
0.0
 40
1.5
210
0.0
220
-0.0000000000000002
230
-1.0
 50
270.0
 51
90.0
  0
ARC
  5
1BD32
  8
0
  6
CONTINUOUS
 62
     3
 10
54.5
 20
71.5000000000000142
 30
0.0
 40
1.5
210
0.0
220
-0.0000000000000002
230
-1.0
 50
270.0
 51
90.0
  0
ARC
  5
1BD33
  8
0
  6
CONTINUOUS
 62
     3
 10
-54.5
 20
71.5000000000000142
 30
0.0
 40
1.5
210
0.0
220
-0.0000000000000002
230
-1.0
 50
90.0
 51
270.0
  0
ARC
  5
1BD34
  8
0
  6
CONTINUOUS
 62
     3
 10
54.5
 20
68.5000000000000142
 30
0.0
 40
1.5
210
0.0
220
-0.0000000000000002
230
-1.0
 50
90.0
 51
270.0
  0
ARC
  5
1BD35
  8
0
  6
CONTINUOUS
 62
     3
 10
-54.5
 20
68.5000000000000142
 30
0.0
 40
1.5
210
0.0
220
-0.0000000000000002
230
-1.0
 50
270.0
 51
90.0
  0
ARC
  5
1BD36
  8
0
  6
CONTINUOUS
 62
     3
 10
54.5
 20
65.5000000000000142
 30
0.0
 40
1.5
210
0.0
220
-0.0000000000000002
230
-1.0
 50
270.0
 51
90.0
  0
ARC
  5
1BD37
  8
0
  6
CONTINUOUS
 62
     3
 10
-54.5
 20
65.5000000000000142
 30
0.0
 40
1.5
210
0.0
220
-0.0000000000000002
230
-1.0
 50
90.0
 51
270.0
  0
ARC
  5
1BD38
  8
0
  6
CONTINUOUS
 62
     3
 10
54.5
 20
62.5000000000000071
 30
0.0
 40
1.5
210
0.0
220
-0.0000000000000002
230
-1.0
 50
90.0
 51
270.0
  0
ARC
  5
1BD39
  8
0
  6
CONTINUOUS
 62
     3
 10
-54.5
 20
62.5000000000000071
 30
0.0
 40
1.5
210
0.0
220
-0.0000000000000002
230
-1.0
 50
270.0
 51
90.0
  0
ARC
  5
1BD3A
  8
0
  6
CONTINUOUS
 62
     3
 10
54.5
 20
59.5000000000000071
 30
0.0
 40
1.5
210
0.0
220
-0.0000000000000002
230
-1.0
 50
270.0
 51
90.0
  0
ARC
  5
1BD3B
  8
0
  6
CONTINUOUS
 62
     3
 10
-54.5
 20
59.5000000000000071
 30
0.0
 40
1.5
210
0.0
220
-0.0000000000000002
230
-1.0
 50
90.0
 51
270.0
  0
ARC
  5
1BD3C
  8
0
  6
CONTINUOUS
 62
     3
 10
54.5
 20
56.5000000000000213
 30
0.0
 40
1.5
210
0.0
220
-0.0000000000000002
230
-1.0
 50
90.0
 51
270.0
  0
ARC
  5
1BD3D
  8
0
  6
CONTINUOUS
 62
     3
 10
-54.5
 20
56.5000000000000213
 30
0.0
 40
1.5
210
0.0
220
-0.0000000000000002
230
-1.0
 50
270.0
 51
90.0
  0
ARC
  5
1BD3E
  8
0
  6
CONTINUOUS
 62
     3
 10
54.5
 20
53.5000000000000071
 30
0.0
 40
1.5
210
0.0
220
-0.0000000000000002
230
-1.0
 50
270.0
 51
90.0
  0
ARC
  5
1BD3F
  8
0
  6
CONTINUOUS
 62
     3
 10
-54.5
 20
53.5000000000000071
 30
0.0
 40
1.5
210
0.0
220
-0.0000000000000002
230
-1.0
 50
90.0
 51
270.0
  0
ARC
  5
1BD40
  8
0
  6
CONTINUOUS
 62
     3
 10
54.5
 20
50.5000000000000071
 30
0.0
 40
1.5
210
0.0
220
-0.0000000000000002
230
-1.0
 50
90.0
 51
270.0
  0
ARC
  5
1BD41
  8
0
  6
CONTINUOUS
 62
     3
 10
-54.5
 20
50.5000000000000071
 30
0.0
 40
1.5
210
0.0
220
-0.0000000000000002
230
-1.0
 50
270.0
 51
90.0
  0
ARC
  5
1BD42
  8
0
  6
CONTINUOUS
 62
     3
 10
54.5
 20
47.5
 30
0.0
 40
1.5
210
0.0
220
-0.0000000000000002
230
-1.0
 50
270.0
 51
90.0
  0
ARC
  5
1BD43
  8
0
  6
CONTINUOUS
 62
     3
 10
-54.5
 20
47.5
 30
0.0
 40
1.5
210
0.0
220
-0.0000000000000002
230
-1.0
 50
90.0
 51
270.0
  0
ARC
  5
1BD44
  8
0
  6
CONTINUOUS
 62
     3
 10
54.5
 20
44.5000000000000071
 30
0.0
 40
1.5
210
0.0
220
-0.0000000000000002
230
-1.0
 50
90.0
 51
270.0
  0
ARC
  5
1BD45
  8
0
  6
CONTINUOUS
 62
     3
 10
-54.5
 20
44.5000000000000071
 30
0.0
 40
1.5
210
0.0
220
-0.0000000000000002
230
-1.0
 50
270.0
 51
90.0
  0
ARC
  5
1BD46
  8
0
  6
CONTINUOUS
 62
     3
 10
54.5
 20
41.5000000000000071
 30
0.0
 40
1.5
210
0.0
220
-0.0000000000000002
230
-1.0
 50
270.0
 51
90.0
  0
ARC
  5
1BD47
  8
0
  6
CONTINUOUS
 62
     3
 10
-54.5
 20
41.5000000000000071
 30
0.0
 40
1.5
210
0.0
220
-0.0000000000000002
230
-1.0
 50
90.0
 51
270.0
  0
ARC
  5
1BD48
  8
0
  6
CONTINUOUS
 62
     3
 10
54.5
 20
38.5000000000000071
 30
0.0
 40
1.5
210
0.0
220
-0.0000000000000002
230
-1.0
 50
90.0
 51
270.0
  0
ARC
  5
1BD49
  8
0
  6
CONTINUOUS
 62
     3
 10
-54.5
 20
38.5000000000000071
 30
0.0
 40
1.5
210
0.0
220
-0.0000000000000002
230
-1.0
 50
270.0
 51
90.0
  0
ARC
  5
1BD4A
  8
0
  6
CONTINUOUS
 62
     3
 10
54.5
 20
35.5000000000000071
 30
0.0
 40
1.5
210
0.0
220
-0.0000000000000002
230
-1.0
 50
270.0
 51
90.0
  0
ARC
  5
1BD4B
  8
0
  6
CONTINUOUS
 62
     3
 10
-54.5
 20
35.5000000000000071
 30
0.0
 40
1.5
210
0.0
220
-0.0000000000000002
230
-1.0
 50
90.0
 51
270.0
  0
ARC
  5
1BD4C
  8
0
  6
CONTINUOUS
 62
     3
 10
54.5
 20
32.5000000000000071
 30
0.0
 40
1.5
210
0.0
220
-0.0000000000000002
230
-1.0
 50
90.0
 51
270.0
  0
ARC
  5
1BD4D
  8
0
  6
CONTINUOUS
 62
     3
 10
-54.5
 20
32.5000000000000071
 30
0.0
 40
1.5
210
0.0
220
-0.0000000000000002
230
-1.0
 50
270.0
 51
90.0
  0
ARC
  5
1BD4E
  8
0
  6
CONTINUOUS
 62
     3
 10
54.5
 20
29.5000000000000107
 30
0.0
 40
1.5
210
0.0
220
-0.0000000000000002
230
-1.0
 50
270.0
 51
90.0
  0
ARC
  5
1BD4F
  8
0
  6
CONTINUOUS
 62
     3
 10
-54.5
 20
29.5000000000000107
 30
0.0
 40
1.5
210
0.0
220
-0.0000000000000002
230
-1.0
 50
90.0
 51
270.0
  0
LINE
  5
1BD50
  8
0
  6
CONTINUOUS
 62
     3
 10
-50.9999999999999503
 20
0.0
 30
0.0
 11
0.0
 21
0.0000000000000031
 31
0.0
210
0.0
220
1.0
230
-0.0000000000000002
  0
LINE
  5
1BD51
  8
0
  6
CONTINUOUS
 62
     3
 10
0.0000000000000026
 20
0.0000000000000031
 30
0.0
 11
51.0
 21
0.0
 31
0.0
210
0.0
220
1.0
230
-0.0000000000000002
  0
LINE
  5
1BD52
  8
0
  6
CONTINUOUS
 62
     3
 10
51.0
 20
199.0
 30
-0.0000000000000442
 11
51.0
 21
187.0
 31
-0.0000000000000415
210
0.0
220
1.0
230
-0.0000000000000002
  0
LINE
  5
1BD53
  8
0
  6
CONTINUOUS
 62
     3
 10
51.0
 20
22.0000000000000604
 30
-0.0000000000000049
 11
51.0
 21
0.0
 31
0.0
210
0.0
220
1.0
230
-0.0000000000000002
  0
LINE
  5
1BD54
  8
0
  6
CONTINUOUS
 62
     3
 10
-51.0
 20
199.0
 30
-0.0000000000000442
 11
-51.0
 21
187.0
 31
-0.0000000000000415
210
0.0
220
1.0
230
-0.0000000000000002
  0
LINE
  5
1BD55
  8
0
  6
CONTINUOUS
 62
     3
 10
-51.0
 20
22.0000000000000604
 30
-0.0000000000000049
 11
-51.0
 21
0.0
 31
0.0
210
0.0
220
1.0
230
-0.0000000000000002
  0
LINE
  5
1BD56
  8
0
  6
CONTINUOUS
 62
     3
 10
105.0
 20
230.0000000000001137
 30
-0.0000000000000511
 11
-105.0
 21
230.0000000000001137
 31
-0.0000000000000511
210
0.0
220
1.0
230
-0.0000000000000002
  0
LINE
  5
1BD57
  8
0
  6
CONTINUOUS
 62
     3
 10
105.0
 20
228.0000000000001137
 30
-0.0000000000000506
 11
-105.0
 21
228.0000000000001137
 31
-0.0000000000000506
210
0.0
220
1.0
230
-0.0000000000000002
  0
LINE
  5
1BD58
  8
0
  6
CONTINUOUS
 62
     3
 10
-105.0
 20
228.0000000000001137
 30
-0.0000000000000506
 11
-105.0
 21
230.0000000000001137
 31
-0.0000000000000511
210
0.0
220
1.0
230
-0.0000000000000002
  0
LINE
  5
1BD59
  8
0
  6
CONTINUOUS
 62
     3
 10
105.0
 20
228.0000000000001137
 30
-0.0000000000000506
 11
105.0
 21
230.0000000000001137
 31
-0.0000000000000511
210
0.0
220
1.0
230
-0.0000000000000002
  0
LINE
  5
1BD5A
  8
0
  6
CONTINUOUS
 62
     3
 10
-56.0
 20
199.0
 30
-0.0000000000000442
 11
56.0
 21
199.0
 31
-0.0000000000000442
210
0.0
220
1.0
230
-0.0000000000000002
  0
LINE
  5
1BD5B
  8
0
  6
CONTINUOUS
 62
     3
 10
-56.0
 20
199.0
 30
-0.0000000000000442
 11
-64.0
 21
228.0000000000001137
 31
-0.0000000000000506
210
0.0
220
1.0
230
-0.0000000000000002
  0
LINE
  5
1BD5C
  8
0
  6
CONTINUOUS
 62
     3
 10
56.0
 20
199.0
 30
-0.0000000000000442
 11
64.0
 21
228.0000000000001137
 31
-0.0000000000000506
210
0.0
220
1.0
230
-0.0000000000000002
  0
LINE
  5
1BD5D
  8
0
  6
VERDECKT
 62
     1
 10
51.0
 20
187.0
 30
-0.0000000000000415
 11
51.0
 21
22.0000000000000604
 31
-0.0000000000000049
210
0.0
220
1.0
230
-0.0000000000000002
  0
LINE
  5
1BD5E
  8
0
  6
VERDECKT
 62
     1
 10
-51.0
 20
187.0
 30
-0.0000000000000415
 11
-51.0
 21
22.0000000000000604
 31
-0.0000000000000049
210
0.0
220
1.0
230
-0.0000000000000002
  0
LINE
  5
1BD5F
  8
0
  6
VERDECKT
 62
     1
 10
51.0
 20
228.0000000000001137
 30
-0.0000000000000506
 11
51.0
 21
199.0
 31
-0.0000000000000442
210
0.0
220
1.0
230
-0.0000000000000002
  0
LINE
  5
1BD60
  8
0
  6
VERDECKT
 62
     1
 10
51.0
 20
187.0
 30
-0.0000000000000415
 11
51.0
 21
22.0000000000000604
 31
-0.0000000000000049
210
0.0
220
1.0
230
-0.0000000000000002
  0
LINE
  5
1BD61
  8
0
  6
VERDECKT
 62
     1
 10
-51.0
 20
228.0000000000001137
 30
-0.0000000000000506
 11
-51.0
 21
199.0
 31
-0.0000000000000442
210
0.0
220
1.0
230
-0.0000000000000002
  0
LINE
  5
1BD62
  8
0
  6
VERDECKT
 62
     1
 10
-51.0
 20
187.0
 30
-0.0000000000000415
 11
-51.0
 21
22.0000000000000604
 31
-0.0000000000000049
210
0.0
220
1.0
230
-0.0000000000000002
  0
LINE
  5
1BD63
  8
0
  6
VERDECKT
 62
     1
 10
49.0
 20
228.0000000000001137
 30
-0.0000000000000506
 11
49.0
 21
0.0
 31
0.0
210
0.0
220
1.0
230
-0.0000000000000002
  0
LINE
  5
1BD64
  8
0
  6
VERDECKT
 62
     1
 10
-49.0
 20
228.0000000000001137
 30
-0.0000000000000506
 11
-49.0
 21
0.0
 31
0.0
210
0.0
220
1.0
230
-0.0000000000000002
  0
LINE
  5
1BD65
  8
0
  6
VERDECKT
 62
     1
 10
-47.9999999999999574
 20
228.0000000000001137
 30
-0.0000000000000506
 11
-47.9999999999999574
 21
230.0000000000001137
 31
-0.0000000000000511
210
0.0
220
1.0
230
-0.0000000000000002
  0
LINE
  5
1BD66
  8
0
  6
VERDECKT
 62
     1
 10
47.9999999999999432
 20
228.0000000000001137
 30
-0.0000000000000506
 11
47.9999999999999432
 21
230.0000000000001137
 31
-0.0000000000000511
210
0.0
220
1.0
230
-0.0000000000000002
  0
LINE
  5
1BD67
  8
0
  6
VERDECKT
 62
     1
 10
-26.0000000000000995
 20
228.0000000000001137
 30
-0.0000000000000506
 11
-26.0000000000000995
 21
230.0000000000001137
 31
-0.0000000000000511
210
0.0
220
1.0
230
-0.0000000000000002
  0
LINE
  5
1BD68
  8
0
  6
VERDECKT
 62
     1
 10
-16.9203102167828305
 20
228.0000000000001137
 30
-0.0000000000000506
 11
-16.9203102167828305
 21
230.0000000000001137
 31
-0.0000000000000511
210
0.0
220
1.0
230
-0.0000000000000002
  0
LINE
  5
1BD69
  8
0
  6
VERDECKT
 62
     1
 10
-38.9364684422735223
 20
228.0000000000001137
 30
-0.0000000000000506
 11
-38.9364684422735223
 21
230.0000000000001137
 31
-0.0000000000000511
210
0.0
220
1.0
230
-0.0000000000000002
  0
LINE
  5
1BD6A
  8
0
  6
VERDECKT
 62
     1
 10
-8.8218410548559181
 20
228.0000000000001137
 30
-0.0000000000000506
 11
-8.8218410548559181
 21
230.0000000000001137
 31
-0.0000000000000511
210
0.0
220
1.0
230
-0.0000000000000002
  0
LINE
  5
1BD6B
  8
0
  6
VERDECKT
 62
     1
 10
8.8218410548558523
 20
228.0000000000001137
 30
-0.0000000000000506
 11
8.8218410548558523
 21
230.0000000000001137
 31
-0.0000000000000511
210
0.0
220
1.0
230
-0.0000000000000002
  0
LINE
  5
1BD6C
  8
0
  6
VERDECKT
 62
     1
 10
26.0000000000000107
 20
228.0000000000001137
 30
-0.0000000000000506
 11
26.0000000000000107
 21
230.0000000000001137
 31
-0.0000000000000511
210
0.0
220
1.0
230
-0.0000000000000002
  0
LINE
  5
1BD6D
  8
0
  6
VERDECKT
 62
     1
 10
38.9364684422735081
 20
228.0000000000001137
 30
-0.0000000000000506
 11
38.9364684422735081
 21
230.0000000000001137
 31
-0.0000000000000511
210
0.0
220
1.0
230
-0.0000000000000002
  0
LINE
  5
1BD6E
  8
0
  6
VERDECKT
 62
     1
 10
16.920310216782859
 20
228.0000000000001137
 30
-0.0000000000000506
 11
16.920310216782859
 21
230.0000000000001137
 31
-0.0000000000000511
210
0.0
220
1.0
230
-0.0000000000000002
  0
LINE
  5
1BD6F
  8
0
  6
VERDECKT
 62
     1
 10
-12.5
 20
228.0000000000001137
 30
-0.0000000000000506
 11
-12.5
 21
230.0000000000001137
 31
-0.0000000000000511
210
0.0
220
1.0
230
-0.0000000000000002
  0
LINE
  5
1BD70
  8
0
  6
VERDECKT
 62
     1
 10
12.5
 20
228.0000000000001137
 30
-0.0000000000000506
 11
12.5
 21
230.0000000000001137
 31
-0.0000000000000511
210
0.0
220
1.0
230
-0.0000000000000002
  0
LINE
  5
1BD71
  8
0
  6
VERDECKT
 62
     1
 10
51.0
 20
228.0000000000001137
 30
-0.0000000000000506
 11
51.0
 21
199.0
 31
-0.0000000000000442
210
0.0
220
1.0
230
-0.0000000000000002
  0
LINE
  5
1BD72
  8
0
  6
VERDECKT
 62
     1
 10
-51.0
 20
228.0000000000001137
 30
-0.0000000000000506
 11
-51.0
 21
199.0
 31
-0.0000000000000442
210
0.0
220
1.0
230
-0.0000000000000002
  0
ENDBLK
  5
1BD74
  8
0
  0
BLOCK
  8
0
  2
A$CE314831D
 70
     0
 10
0.0
 20
0.0
 30
0.0
  3
A$CE314831D
  1

  0
ARC
  5
1BD78
  8
0
  6
CONTINUOUS
 62
     3
 10
-31.0000000000000497
 20
0.0000000000000231
 30
0.0
 40
4.9999999999999956
 50
285.0000000000010232
 51
75.0000000000003411
  0
LINE
  5
1BD79
  8
0
  6
CONTINUOUS
 62
     3
 10
-44.2235428646923197
 20
8.7196185337231
 30
0.0
 11
-29.7059047744874682
 21
4.8296291314453681
 31
0.0000000000000032
  0
ARC
  5
1BD7A
  8
0
  6
CONTINUOUS
 62
     3
 10
-44.9999999999999005
 20
5.8218410548558976
 30
0.0
 40
2.999999999999992
 50
74.9999999999997584
 51
180.0
  0
LINE
  5
1BD7B
  8
0
  6
CONTINUOUS
 62
     3
 10
-47.9999999999998934
 20
-5.8218410548558426
 30
0.0
 11
-47.9999999999998934
 21
5.8218410548558941
 31
0.0
  0
ARC
  5
1BD7C
  8
0
  6
CONTINUOUS
 62
     3
 10
-44.9999999999999076
 20
-5.8218410548558541
 30
0.0
 40
2.9999999999999938
 50
179.999999999999801
 51
285.0000000000003979
  0
LINE
  5
1BD7D
  8
0
  6
CONTINUOUS
 62
     3
 10
-29.7059047744873617
 20
-4.8296291314452944
 30
0.0
 11
-44.2235428646923197
 21
-8.7196185337230467
 31
-0.0000000000000032
  0
ARC
  5
1BD7E
  8
0
  6
CONTINUOUS
 62
     3
 10
-21.9203102167827808
 20
-21.920310216782859
 30
0.0
 40
4.9999999999999982
 50
329.9999999999993747
 51
119.9999999999997016
  0
LINE
  5
1BD7F
  8
0
  6
CONTINUOUS
 62
     3
 10
-37.4364684422734584
 20
-25.1050656531624909
 30
0.0
 11
-24.4203102167827595
 21
-17.5901831978606609
 31
0.0000000000000029
  0
ARC
  5
1BD80
  8
0
  6
CONTINUOUS
 62
     3
 10
-35.9364684422734726
 20
-27.7031418645158212
 30
0.0
 40
2.9999999999999991
 50
119.9999999999997016
 51
224.9999999999998863
  0
LINE
  5
1BD81
  8
0
  6
CONTINUOUS
 62
     3
 10
-29.8244622080753814
 20
-38.057788785833111
 30
0.0
 11
-38.0577887858331181
 21
-29.8244622080754489
 31
-0.0000000000000018
  0
ARC
  5
1BD82
  8
0
  6
CONTINUOUS
 62
     3
 10
-27.7031418645157608
 20
-35.9364684422734797
 30
0.0
 40
2.99999999999998
 50
225.0000000000001137
 51
329.9999999999998863
  0
LINE
  5
1BD83
  8
0
  6
CONTINUOUS
 62
     3
 10
-17.5901831978606005
 20
-24.4203102167829087
 30
0.0
 11
-25.1050656531624696
 21
-37.4364684422734797
 31
-0.0000000000000017
  0
LINE
  5
1BD84
  8
0
  6
CONTINUOUS
 62
     3
 10
4.829629131445409
 20
-29.705904774487351
 30
0.0
 11
8.7196185337231142
 21
-44.2235428646924476
 31
0.0000000000000009
  0
ARC
  5
1BD85
  8
0
  6
CONTINUOUS
 62
     3
 10
0.0000000000000471
 20
-30.9999999999999396
 30
0.0
 40
5.0000000000000133
 50
14.9999999999997797
 51
165.0
  0
LINE
  5
1BD86
  8
0
  6
CONTINUOUS
 62
     3
 10
-8.7196185337230698
 20
-44.2235428646923907
 30
0.0
 11
-4.8296291314453059
 21
-29.7059047744873297
 31
0.0000000000000009
  0
ARC
  5
1BD87
  8
0
  6
CONTINUOUS
 62
     3
 10
-5.8218410548558497
 20
-44.9999999999999503
 30
0.0
 40
3.0000000000000142
 50
165.0000000000001137
 51
270.0000000000001137
  0
LINE
  5
1BD88
  8
0
  6
CONTINUOUS
 62
     3
 10
5.8218410548559438
 20
-47.9999999999999716
 30
0.0
 11
-5.8218410548558452
 21
-47.9999999999999716
 31
-0.0000000000000026
  0
ARC
  5
1BD89
  8
0
  6
CONTINUOUS
 62
     3
 10
5.8218410548559261
 20
-44.9999999999999929
 30
0.0
 40
2.999999999999976
 50
270.0000000000002842
 51
14.9999999999995204
  0
ARC
  5
1BD8A
  8
0
  6
CONTINUOUS
 62
     3
 10
35.9364684422735721
 20
27.7031418645158496
 30
0.0
 40
2.9999999999999991
 50
300.0000000000022737
 51
44.9999999999996803
  0
LINE
  5
1BD8B
  8
0
  6
CONTINUOUS
 62
     3
 10
29.8244622080755413
 20
38.0577887858331394
 30
0.0
 11
38.0577887858332176
 21
29.8244622080754809
 31
0.0000000000000018
  0
ARC
  5
1BD8C
  8
0
  6
CONTINUOUS
 62
     3
 10
27.7031418645158816
 20
35.9364684422735294
 30
0.0
 40
2.9999999999999929
 50
44.9999999999993392
 51
150.000000000000199
  0
LINE
  5
1BD8D
  8
0
  6
CONTINUOUS
 62
     3
 10
17.5901831978608101
 20
24.4203102167830011
 30
0.0
 11
25.1050656531625584
 21
37.4364684422735081
 31
0.0000000000000017
  0
ARC
  5
1BD8E
  8
0
  6
CONTINUOUS
 62
     3
 10
21.9203102167830117
 20
21.9203102167829904
 30
0.0
 40
5.0000000000000107
 50
149.999999999999801
 51
300.0000000000002274
  0
LINE
  5
1BD8F
  8
0
  6
CONTINUOUS
 62
     3
 10
37.4364684422736715
 20
25.1050656531626011
 30
0.0
 11
24.4203102167830295
 21
17.5901831978607888
 31
-0.0000000000000029
  0
ARC
  5
1BD90
  8
0
  6
CONTINUOUS
 62
     3
 10
45.0
 20
-5.821841054855855
 30
0.0
 40
2.999999999999992
 50
254.999999999999801
 51
0.0000000000001018
  0
LINE
  5
1BD91
  8
0
  6
CONTINUOUS
 62
     3
 10
47.9999999999999929
 20
5.8218410548558976
 30
0.0
 11
47.9999999999999929
 21
-5.8218410548558523
 31
0.0
  0
ARC
  5
1BD92
  8
0
  6
CONTINUOUS
 62
     3
 10
45.0
 20
5.8218410548559074
 30
0.0
 40
2.999999999999996
 50
359.9999999999997726
 51
105.000000000000199
  0
LINE
  5
1BD93
  8
0
  6
CONTINUOUS
 62
     3
 10
29.7059047744874505
 20
4.8296291314453601
 30
0.0
 11
44.2235428646924191
 21
8.7196185337231054
 31
0.0000000000000032
  0
ARC
  5
1BD94
  8
0
  6
CONTINUOUS
 62
     3
 10
31.0000000000000711
 20
0.0000000000000231
 30
0.0
 40
5.0
 50
105.0000000000000995
 51
255.0
  0
LINE
  5
1BD95
  8
0
  6
CONTINUOUS
 62
     3
 10
44.2235428646924191
 20
-8.7196185337230574
 30
0.0
 11
29.7059047744874611
 21
-4.8296291314453166
 31
-0.0000000000000032
  0
ARC
  5
1BD96
  8
0
  6
CONTINUOUS
 62
     3
 10
35.9364684422735721
 20
-27.7031418645157714
 30
0.0
 40
2.9999999999999991
 50
315.0000000000002842
 51
60.0000000000001634
  0
LINE
  5
1BD97
  8
0
  6
CONTINUOUS
 62
     3
 10
24.4203102167829691
 20
-17.5901831978606893
 30
0.0
 11
37.4364684422735579
 21
-25.1050656531624483
 31
0.0000000000000029
  0
ARC
  5
1BD98
  8
0
  6
CONTINUOUS
 62
     3
 10
21.9203102167829016
 20
-21.9203102167828412
 30
0.0
 40
4.9999999999999938
 50
59.9999999999990123
 51
210.0000000000011084
  0
LINE
  5
1BD99
  8
0
  6
CONTINUOUS
 62
     3
 10
25.1050656531625584
 20
-37.4364684422734797
 30
0.0
 11
17.5901831978607603
 21
-24.4203102167829194
 31
-0.0000000000000017
  0
ARC
  5
1BD9A
  8
0
  6
CONTINUOUS
 62
     3
 10
27.7031418645158602
 20
-35.9364684422734868
 30
0.0
 40
2.999999999999976
 50
210.0000000000001137
 51
315.0000000000001137
  0
LINE
  5
1BD9B
  8
0
  6
CONTINUOUS
 62
     3
 10
38.0577887858332176
 20
-29.8244622080753992
 30
0.0
 11
29.8244622080754809
 21
-38.057788785833111
 31
-0.0000000000000018
  0
CIRCLE
  5
1BD9C
  8
0
  6
CONTINUOUS
 62
     3
 10
0.0000000000000513
 20
0.000000000000032
 30
0.0
 40
12.5
  0
ARC
  5
1BD9D
  8
0
  6
CONTINUOUS
 62
     3
 10
0.000000000000048
 20
31.0000000000000497
 30
0.0
 40
5.0000000000000178
 50
195.0
 51
345.0000000000001137
  0
LINE
  5
1BD9E
  8
0
  6
CONTINUOUS
 62
     3
 10
8.719618533723116
 20
44.2235428646925186
 30
0.0
 11
4.8296291314454098
 21
29.7059047744874611
 31
-0.0000000000000009
  0
ARC
  5
1BD9F
  8
0
  6
CONTINUOUS
 62
     3
 10
5.8218410548559438
 20
45.0000000000000711
 30
0.0
 40
2.999999999999964
 50
345.0
 51
89.9999999999999858
  0
LINE
  5
1BDA0
  8
0
  6
CONTINUOUS
 62
     3
 10
-5.8218410548558426
 20
48.0000000000000284
 30
0.0
 11
5.8218410548559456
 21
48.0000000000000426
 31
0.0000000000000026
  0
ARC
  5
1BDA1
  8
0
  6
CONTINUOUS
 62
     3
 10
-5.8218410548558177
 20
45.0000000000000497
 30
0.0
 40
2.9999999999999809
 50
90.000000000000469
 51
194.9999999999994031
  0
LINE
  5
1BDA2
  8
0
  6
CONTINUOUS
 62
     3
 10
-4.8296291314453059
 20
29.7059047744874398
 30
0.0
 11
-8.7196185337230112
 21
44.2235428646925186
 31
-0.0000000000000009
  0
ARC
  5
1BDA3
  8
0
  6
CONTINUOUS
 62
     3
 10
-21.9203102167828412
 20
21.9203102167829798
 30
0.0
 40
5.0000000000000009
 50
239.9999999999994884
 51
30.0000000000003197
  0
LINE
  5
1BDA4
  8
0
  6
CONTINUOUS
 62
     3
 10
-25.1050656531624696
 20
37.4364684422735223
 30
0.0
 11
-17.5901831978606609
 21
24.4203102167830011
 31
0.0000000000000017
  0
ARC
  5
1BDA5
  8
0
  6
CONTINUOUS
 62
     3
 10
-27.7031418645157501
 20
35.9364684422735365
 30
0.0
 40
2.9999999999999791
 50
29.9999999999999609
 51
135.0000000000001137
  0
LINE
  5
1BDA6
  8
0
  6
CONTINUOUS
 62
     3
 10
-38.0577887858331181
 20
29.8244622080754702
 30
0.0
 11
-29.8244622080753814
 21
38.0577887858331607
 31
0.0000000000000018
  0
ARC
  5
1BDA7
  8
0
  6
CONTINUOUS
 62
     3
 10
-35.9364684422734868
 20
27.7031418645158389
 30
0.0
 40
2.9999999999999849
 50
135.0
 51
240.0000000000003979
  0
LINE
  5
1BDA8
  8
0
  6
CONTINUOUS
 62
     3
 10
-24.4203102167828803
 20
17.5901831978607994
 30
0.0
 11
-37.4364684422734584
 21
25.1050656531625194
 31
-0.0000000000000029
  0
CIRCLE
  5
1BDA9
  8
0
  6
CONTINUOUS
 62
     3
 10
0.0000000000000454
 20
0.0000000000000142
 30
0.0
 40
105.0
  0
CIRCLE
  5
1BDAA
  8
0
  6
VERDECKT
 62
     1
 10
0.0000000000000405
 20
0.0000000000000174
 30
0.0
 40
53.0
  0
CIRCLE
  5
1BDAB
  8
0
  6
VERDECKT
 62
     1
 10
0.0000000000000506
 20
0.0000000000000196
 30
0.0
 40
51.0
  0
CIRCLE
  5
1BDAC
  8
0
  6
VERDECKT
 62
     1
 10
0.0000000000000506
 20
0.0000000000000196
 30
0.0
 40
49.0
  0
CIRCLE
  5
1BDAD
  8
0
  6
VERDECKT
 62
     1
 10
0.0000000000000442
 20
0.0000000000000178
 30
0.0
 40
56.0
  0
CIRCLE
  5
1BDAE
  8
0
  6
VERDECKT
 62
     1
 10
0.0000000000000506
 20
0.0000000000000196
 30
0.0
 40
64.0
  0
CIRCLE
  5
1BDAF
  8
0
  6
VERDECKT
 62
     1
 10
0.0000000000000506
 20
0.0000000000000196
 30
0.0
 40
51.0
  0
ENDBLK
  5
1BDB1
  8
0
  0
ENDSEC
  0
SECTION
  2
ENTITIES
  0
INSERT
  5
D70
  8
ADSK_ASSOC_ENTITY_BACKUPS
  2
*S0
 10
0.0
 20
0.0
 30
0.0
  0
INSERT
  5
1BD75
  8
STEMPEL
  2
A$C90B9004F
 10
0.0
 20
0.0
 30
0.0
  0
INSERT
  5
1BDB2
  8
STEMPEL
  2
A$CE314831D
 10
0.0
 20
-150.0
 30
0.0
  0
VIEWPORT
  5
D51
 67
     1
  8
0
 10
148.2552508025559916
 20
209.7498348217013131
 30
0.0
 40
795.6883637233959234
 41
422.1649484536083037
 68
     1
 69
     1
1001
ACAD
1000
MVIEW
1002
{
1070
    16
1010
0.0
1020
0.0
1030
0.0
1010
0.0
1020
0.0
1030
1.0
1040
0.0
1040
422.1649484536083037
1040
148.2552508025559916
1040
209.7498348217013131
1040
50.0
1040
0.0
1040
0.0
1070
     0
1070
  1500
1070
     1
1070
     1
1070
     0
1070
     0
1070
     0
1070
     1
1040
0.0
1040
0.0
1040
0.0
1040
10.0
1040
10.0
1040
10.0
1040
10.0
1070
     0
1002
{
1002
}
1002
}
  0
ENDSEC
  0
EOF
