  0
SECTION
  2
HEADER
  9
$ACADVER
  1
AC1009
  9
$INSBASE
 10
0.0
 20
0.0
 30
0.0
  9
$EXTMIN
 10
-0.4527957452332885
 20
-0.012816404938576
 30
-0.0079376789180969
  9
$EXTMAX
 10
145.0296210772607992
 20
437.0919809782552079
 30
0.0254074402105289
  9
$LIMMIN
 10
0.0
 20
0.0
  9
$LIMMAX
 10
296.9999999999998863
 20
420.0000000000001137
  9
$ORTHOMODE
 70
     1
  9
$REGENMODE
 70
     1
  9
$FILLMODE
 70
     1
  9
$QTEXTMODE
 70
     0
  9
$MIRRTEXT
 70
     1
  9
$DRAGMODE
 70
     2
  9
$LTSCALE
 40
20.0
  9
$OSMODE
 70
    39
  9
$ATTMODE
 70
     1
  9
$TEXTSIZE
 40
3.5
  9
$TRACEWID
 40
0.5
  9
$TEXTSTYLE
  7
STANDARD
  9
$CLAYER
  8
BEM
  9
$CELTYPE
  6
BYLAYER
  9
$CECOLOR
 62
   256
  9
$DIMSCALE
 40
2.0
  9
$DIMASZ
 40
3.5
  9
$DIMEXO
 40
1.0
  9
$DIMDLI
 40
7.0
  9
$DIMRND
 40
0.0
  9
$DIMDLE
 40
0.0
  9
$DIMEXE
 40
1.0
  9
$DIMTP
 40
0.5
  9
$DIMTM
 40
0.5
  9
$DIMTXT
 40
3.5
  9
$DIMCEN
 40
1.5
  9
$DIMTSZ
 40
0.0
  9
$DIMTOL
 70
     0
  9
$DIMLIM
 70
     0
  9
$DIMTIH
 70
     0
  9
$DIMTOH
 70
     0
  9
$DIMSE1
 70
     0
  9
$DIMSE2
 70
     0
  9
$DIMTAD
 70
     1
  9
$DIMZIN
 70
     8
  9
$DIMBLK
  1

  9
$DIMASO
 70
     1
  9
$DIMSHO
 70
     0
  9
$DIMPOST
  1

  9
$DIMAPOST
  1

  9
$DIMALT
 70
     0
  9
$DIMALTD
 70
     2
  9
$DIMALTF
 40
25.3999999999999986
  9
$DIMLFAC
 40
1.0
  9
$DIMTOFL
 70
     1
  9
$DIMTVP
 40
0.0
  9
$DIMTIX
 70
     0
  9
$DIMSOXD
 70
     0
  9
$DIMSAH
 70
     0
  9
$DIMBLK1
  1

  9
$DIMBLK2
  1

  9
$DIMSTYLE
  2
STANDARD
  9
$DIMCLRD
 70
     0
  9
$DIMCLRE
 70
     0
  9
$DIMCLRT
 70
     1
  9
$DIMTFAC
 40
1.0
  9
$DIMGAP
 40
1.5
  9
$LUNITS
 70
     2
  9
$LUPREC
 70
     2
  9
$SKETCHINC
 40
1.0
  9
$FILLETRAD
 40
0.0
  9
$AUNITS
 70
     0
  9
$AUPREC
 70
     0
  9
$MENU
  1
ACAD
  9
$ELEVATION
 40
0.0
  9
$PELEVATION
 40
0.0
  9
$THICKNESS
 40
0.0
  9
$LIMCHECK
 70
     0
  9
$BLIPMODE
 70
     0
  9
$CHAMFERA
 40
0.0
  9
$CHAMFERB
 40
0.0
  9
$SKPOLY
 70
     0
  9
$TDCREATE
 40
2451337.6017592591233552
  9
$TDUPDATE
 40
2458418.2837731479667127
  9
$TDINDWG
 40
0.2309360995
  9
$TDUSRTIMER
 40
0.2309360995
  9
$USRTIMER
 70
     1
  9
$ANGBASE
 50
0.0
  9
$ANGDIR
 70
     0
  9
$PDMODE
 70
     0
  9
$PDSIZE
 40
0.0
  9
$PLINEWID
 40
0.0
  9
$COORDS
 70
     1
  9
$SPLFRAME
 70
     0
  9
$SPLINETYPE
 70
     6
  9
$SPLINESEGS
 70
     8
  9
$ATTDIA
 70
     1
  9
$ATTREQ
 70
     1
  9
$HANDLING
 70
     1
  9
$HANDSEED
  5
4874
  9
$SURFTAB1
 70
     6
  9
$SURFTAB2
 70
     6
  9
$SURFTYPE
 70
     6
  9
$SURFU
 70
     6
  9
$SURFV
 70
     6
  9
$UCSNAME
  2

  9
$UCSORG
 10
0.0
 20
0.0
 30
0.0
  9
$UCSXDIR
 10
1.0
 20
0.0
 30
0.0
  9
$UCSYDIR
 10
0.0
 20
1.0
 30
0.0
  9
$PUCSNAME
  2

  9
$PUCSORG
 10
0.0
 20
0.0
 30
0.0
  9
$PUCSXDIR
 10
1.0
 20
0.0
 30
0.0
  9
$PUCSYDIR
 10
0.0
 20
1.0
 30
0.0
  9
$USERI1
 70
     0
  9
$USERI2
 70
     0
  9
$USERI3
 70
     0
  9
$USERI4
 70
     0
  9
$USERI5
 70
     0
  9
$USERR1
 40
0.0
  9
$USERR2
 40
0.0
  9
$USERR3
 40
0.0
  9
$USERR4
 40
0.0
  9
$USERR5
 40
0.0
  9
$WORLDVIEW
 70
     1
  9
$SHADEDGE
 70
     3
  9
$SHADEDIF
 70
    70
  9
$TILEMODE
 70
     1
  9
$MAXACTVP
 70
    16
  9
$PLIMCHECK
 70
     0
  9
$PEXTMIN
 10
-169.6916849771652096
 20
-209.332578476053186
 30
-0.0000000000000053
  9
$PEXTMAX
 10
250.333946365625593
 20
384.7036715658941262
 30
0.0000000000000099
  9
$PLIMMIN
 10
-0.2500002402958907
 20
-0.2499999962453767
  9
$PLIMMAX
 10
10.7499995194082203
 20
8.2499997634587334
  9
$UNITMODE
 70
     0
  9
$VISRETAIN
 70
     0
  9
$PLINEGEN
 70
     0
  9
$PSLTSCALE
 70
     0
  0
ENDSEC
  0
SECTION
  2
TABLES
  0
TABLE
  2
VPORT
 70
     1
  0
VPORT
  2
*ACTIVE
 70
     0
 10
0.0
 20
0.0
 11
1.0
 21
1.0
 12
72.2884126660136985
 22
218.5395822866582876
 13
0.0
 23
0.0
 14
1.0
 24
1.0
 15
10.0
 25
10.0
 16
-0.0000000000000012
 26
0.0
 36
5.5852494427615742
 17
0.0
 27
0.0
 37
0.0
 40
440.596979519411093
 41
2.0800000000000001
 42
50.0
 43
0.0
 44
0.0
 50
0.0
 51
0.0
 71
     0
 72
  1500
 73
     1
 74
     0
 75
     0
 76
     0
 77
     0
 78
     0
  0
ENDTAB
  0
TABLE
  2
LTYPE
 70
     2
  0
LTYPE
  2
CONTINUOUS
 70
     0
  3
Solid line
 72
    65
 73
     0
 40
0.0
  0
LTYPE
  2
VERDECKT2
 70
     0
  3
Verdeckt (.5x) _ _ _ _ _ _ _ _ _ _ _ _ _ _ _ _ 
 72
    65
 73
     2
 40
0.1875
 49
0.125
 49
-0.0625
  0
ENDTAB
  0
TABLE
  2
LAYER
 70
     5
  0
LAYER
  2
0
 70
     0
 62
     7
  6
CONTINUOUS
  0
LAYER
  2
BEM
 70
     0
 62
     7
  6
CONTINUOUS
  0
LAYER
  2
VOLL
 70
     0
 62
     1
  6
CONTINUOUS
  0
LAYER
  2
DEFPOINTS
 70
     0
 62
     7
  6
CONTINUOUS
  0
LAYER
  2
ADSK_ASSOC_ENTITY_BACKUPS
 70
     1
 62
    -7
  6
CONTINUOUS
  0
ENDTAB
  0
TABLE
  2
STYLE
 70
     3
  0
STYLE
  2
STANDARD
 70
     0
 40
0.0
 41
0.8
 50
0.0
 71
     0
 42
3.5
  3
simplex.shx
  4

  0
STYLE
  2
ANNOTATIVE
 70
     0
 40
0.0
 41
1.0
 50
0.0
 71
     0
 42
0.2
  3
txt
  4

  0
STYLE
  2
GREEKS
 70
     0
 40
0.0
 41
0.8
 50
0.0
 71
     0
 42
2.5
  3
SIMPLEX.shx
  4

  0
ENDTAB
  0
TABLE
  2
VIEW
 70
     0
  0
ENDTAB
  0
TABLE
  2
UCS
 70
     0
  0
ENDTAB
  0
TABLE
  2
APPID
 70
    18
  0
APPID
  2
ACAD
 70
     0
  0
APPID
  2
ACADANNOTATIVE
 70
     0
  0
APPID
  2
ACAD_NAV_VCDISPLAY
 70
     0
  0
APPID
  2
ACAECLAYERSTANDARD
 70
     0
  0
APPID
  2
ACCMTRANSPARENCY
 70
     0
  0
APPID
  2
ACAD_PSEXT
 70
     0
  0
APPID
  2
ACAD_EXEMPT_FROM_CAD_STANDARDS
 70
     0
  0
APPID
  2
ACAD_MLEADERVER
 70
     0
  0
APPID
  2
ACAD_OBJECT_CHANGE_GUID
 70
     0
  0
APPID
  2
ACAD_DSTYLE_DIMJAG
 70
     0
  0
APPID
  2
ACAD_DSTYLE_DIMTALN
 70
     0
  0
APPID
  2
ACSYNERGY
 70
     0
  0
APPID
  2
SYNERGY_BODY_TBR_ID
 70
     0
  0
APPID
  2
ACAD_VIEW_EDGE_ID
 70
     0
  0
APPID
  2
ACSYNERGYSKETCH
 70
     0
  0
APPID
  2
ACAD_STEPID
 70
     0
  0
APPID
  2
ACAD_MODELDOC_XFORM
 70
     0
  0
APPID
  2
ACADANNOMONITORALERTICONDI
 70
     0
  0
ENDTAB
  0
TABLE
  2
DIMSTYLE
 70
     2
  0
DIMSTYLE
  2
STANDARD
 70
     0
  3

  4

  5

  6

  7

 40
1.0
 41
0.18
 42
0.0625
 43
0.38
 44
0.18
 45
0.0
 46
0.0
 47
0.0
 48
0.0
140
0.18
141
0.09
142
0.0
143
25.3999999999999986
144
1.0
145
0.0
146
1.0
147
0.09
 71
     0
 72
     0
 73
     1
 74
     1
 75
     0
 76
     0
 77
     0
 78
     0
170
     0
171
     2
172
     0
173
     0
174
     0
175
     0
176
     0
177
     0
178
     0
  0
DIMSTYLE
  2
ANNOTATIVE
 70
     0
  3

  4

  5

  6

  7

 40
1.0
 41
0.18
 42
0.0625
 43
0.38
 44
0.18
 45
0.0
 46
0.0
 47
0.0
 48
0.0
140
0.18
141
0.09
142
0.0
143
25.3999999999999986
144
1.0
145
0.0
146
1.0
147
0.09
 71
     0
 72
     0
 73
     1
 74
     1
 75
     0
 76
     0
 77
     0
 78
     0
170
     0
171
     2
172
     0
173
     0
174
     0
175
     0
176
     0
177
     0
178
     0
  0
ENDTAB
  0
ENDSEC
  0
SECTION
  2
BLOCKS
  0
BLOCK
  8
0
  2
$MODEL_SPACE
 70
     0
 10
0.0
 20
0.0
 30
0.0
  3
$MODEL_SPACE
  1

  0
ENDBLK
  5
47DD
  8
0
  0
BLOCK
 67
     1
  8
0
  2
$PAPER_SPACE
 70
     0
 10
0.0
 20
0.0
 30
0.0
  3
$PAPER_SPACE
  1

  0
ENDBLK
  5
47D9
 67
     1
  8
0
  0
BLOCK
  8
0
  2
*U2
 70
     1
 10
0.0
 20
0.0
 30
0.0
  3
*U2
  1

  0
ENDBLK
  5
3C07
  8
0
  0
BLOCK
  8
0
  2
A$C78CF4C3E
 70
     0
 10
0.0
 20
0.0
 30
0.0
  3
A$C78CF4C3E
  1

  0
LINE
  5
4634
  8
0
  6
CONTINUOUS
 62
     3
 10
534.9650639711004487
 20
56.4318380645140323
 30
0.0
 11
652.1986223706348937
 21
56.4318380645139328
 31
0.0
210
0.0
220
1.0
230
0.0
  0
LINE
  5
4635
  8
0
  6
CONTINUOUS
 62
     3
 10
541.6049606221375825
 20
36.3445929391707168
 30
0.0
 11
534.9650639711004487
 21
56.4318380645140323
 31
0.0
210
0.0
220
1.0
230
0.0
  0
LINE
  5
4636
  8
0
  6
CONTINUOUS
 62
     3
 10
645.5587257195976463
 20
36.3445929391706173
 30
0.0
 11
652.1986223706348937
 21
56.4318380645139186
 31
0.0
210
0.0
220
1.0
230
0.0
  0
LINE
  5
4637
  8
0
  6
CONTINUOUS
 62
     3
 10
539.8617319552006393
 20
36.344592939170731
 30
0.0
 11
647.3019543865343621
 21
36.3445929391706102
 31
0.0
210
0.0
220
1.0
230
0.0
  0
LINE
  5
4638
  8
0
  6
CONTINUOUS
 62
     3
 10
528.5117050773734491
 20
16.8835192951272717
 30
0.0
 11
658.6519812643615523
 21
16.8835192951270585
 31
0.0
210
0.0
220
1.0
230
0.0
  0
LINE
  5
4639
  8
0
  6
CONTINUOUS
 62
     3
 10
527.0818431708676144
 20
11.5936615498803803
 30
0.0
 11
660.0818431708676144
 21
11.5936615498803199
 31
0.0
210
0.0
220
1.0
230
0.0
  0
LINE
  5
463A
  8
0
  6
CONTINUOUS
 62
     3
 10
527.0818431708676144
 20
-91.5681619354859322
 30
0.0
 11
660.0818431708676144
 21
-91.5681619354859464
 31
0.0
210
0.0
220
1.0
230
0.0
  0
LINE
  5
463B
  8
0
  6
CONTINUOUS
 62
     3
 10
647.3019543865343621
 20
36.3445929391706315
 30
0.0
 11
658.6519812643615523
 21
16.8835192951270692
 31
0.0
210
0.0
220
1.0
230
0.0
  0
LINE
  5
463C
  8
0
  6
CONTINUOUS
 62
     3
 10
539.861731955200753
 20
36.3445929391707523
 30
0.0
 11
528.5117050773734491
 21
16.8835192951271615
 31
0.0
210
0.0
220
1.0
230
0.0
  0
ARC
  5
463D
  8
0
  6
CONTINUOUS
 62
     3
 10
-537.5818431708672733
 20
11.5936615498806006
 30
0.0
 40
10.4999999999995399
210
0.0
220
0.0
230
-1.0
 50
359.9999999999989768
 51
30.2514591222212417
  0
ARC
  5
463E
  8
0
  6
CONTINUOUS
 62
     3
 10
-649.5818431708680691
 20
11.59366154988051
 30
0.0
 40
10.4999999999995399
210
0.0
220
0.0
230
-1.0
 50
149.7485408777785949
 51
180.0000000000009948
  0
LINE
  5
463F
  8
0
  6
CONTINUOUS
 62
     3
 10
660.0818431708676144
 20
11.5936615498803004
 30
0.0
 11
660.0818431708676144
 21
-91.5681619354859464
 31
0.0
210
0.0
220
1.0
230
0.0
  0
LINE
  5
4640
  8
0
  6
CONTINUOUS
 62
     3
 10
527.0818431708676144
 20
11.5936615498804105
 30
0.0
 11
527.0818431708676144
 21
-91.5681619354859322
 31
0.0
210
0.0
220
1.0
230
0.0
  0
LINE
  5
4641
  8
0
  6
CONTINUOUS
 62
     3
 10
534.9650639711004487
 20
56.4318380645140323
 30
0.0
 11
652.1986223706348937
 21
56.4318380645140323
 31
0.0
210
0.0
220
1.0
230
0.0
  0
LINE
  5
4642
  8
0
  6
CONTINUOUS
 62
     3
 10
521.0818431708677281
 20
99.8002759825232886
 30
0.0
 11
666.0818431708677281
 21
99.8002759825232886
 31
0.0
210
0.0
220
1.0
230
0.0
  0
LINE
  5
4643
  8
0
  6
CONTINUOUS
 62
     3
 10
521.5113285115036206
 20
97.1325441494883108
 30
0.0
 11
665.6523578302318356
 21
97.1325441494883108
 31
0.0
210
0.0
220
1.0
230
0.0
  0
LINE
  5
4644
  8
0
  6
CONTINUOUS
 62
     3
 10
663.5818431708682965
 20
111.4318380645139968
 30
0.0
 11
663.5818431708682965
 21
118.4318380645139968
 31
0.0
210
0.0
220
1.0
230
0.0
  0
LINE
  5
4645
  8
0
  6
CONTINUOUS
 62
     3
 10
663.5818431708679555
 20
111.4318380645139968
 30
0.0
 11
666.0818431708677281
 21
111.4318380645139968
 31
0.0
210
0.0
220
1.0
230
0.0
  0
LINE
  5
4646
  8
0
  6
CONTINUOUS
 62
     3
 10
666.0818431708677281
 20
118.4318380645139968
 30
0.0
 11
663.5818431708679555
 21
118.4318380645139968
 31
0.0
210
0.0
220
1.0
230
0.0
  0
LINE
  5
4647
  8
0
  6
CONTINUOUS
 62
     3
 10
542.2359721325866531
 20
111.4318380645139968
 30
0.0
 11
542.2359721325866531
 21
118.4318380645139968
 31
0.0
210
0.0
220
1.0
230
0.0
  0
LINE
  5
4648
  8
0
  6
CONTINUOUS
 62
     3
 10
574.9277142091500536
 20
118.4318380645139968
 30
0.0
 11
574.9277142091500536
 21
111.4318380645139968
 31
0.0
210
0.0
220
1.0
230
0.0
  0
LINE
  5
4649
  8
0
  6
CONTINUOUS
 62
     3
 10
542.23597213258995
 20
111.4318380645139968
 30
0.0
 11
574.9277142091456199
 21
111.4318380645139968
 31
0.0
210
0.0
220
1.0
230
0.0
  0
LINE
  5
464A
  8
0
  6
CONTINUOUS
 62
     3
 10
574.9277142091456199
 20
118.4318380645139968
 30
0.0
 11
542.23597213258995
 21
118.4318380645139968
 31
0.0
210
0.0
220
1.0
230
0.0
  0
LINE
  5
464B
  8
0
  6
CONTINUOUS
 62
     3
 10
523.5818431708681828
 20
118.4318380645139968
 30
0.0
 11
523.5818431708681828
 21
111.4318380645139968
 31
0.0
210
0.0
220
1.0
230
0.0
  0
LINE
  5
464C
  8
0
  6
CONTINUOUS
 62
     3
 10
521.0818431708677281
 20
111.4318380645139968
 30
0.0
 11
523.5818431708675007
 21
111.4318380645139968
 31
0.0
210
0.0
220
1.0
230
0.0
  0
LINE
  5
464D
  8
0
  6
CONTINUOUS
 62
     3
 10
523.5818431708675007
 20
118.4318380645139968
 30
0.0
 11
521.0818431708677281
 21
118.4318380645139968
 31
0.0
210
0.0
220
1.0
230
0.0
  0
LINE
  5
464E
  8
0
  6
CONTINUOUS
 62
     3
 10
521.0818431708677281
 20
128.4318380645140962
 30
0.0
 11
666.0818431708677281
 21
128.4318380645140962
 31
0.0
210
0.0
220
1.0
230
0.0
  0
ARC
  5
464F
  8
0
  6
CONTINUOUS
 62
     3
 10
-529.5818431708663638
 20
99.8002759825232744
 30
0.0
 40
8.4999999999987477
210
0.0
220
0.0
230
-1.0
 50
341.7085481866586179
 51
0.0000000000002036
  0
ARC
  5
4650
  8
0
  6
CONTINUOUS
 62
     3
 10
-657.5818431708689786
 20
99.8002759825232744
 30
0.0
 40
8.4999999999987494
210
0.0
220
0.0
230
-1.0
 50
179.999999999999801
 51
198.2914518133412969
  0
LINE
  5
4651
  8
0
  6
CONTINUOUS
 62
     3
 10
534.9650639711004487
 20
56.4318380645140394
 30
0.0
 11
521.5113285115036206
 21
97.1325441494883535
 31
0.0
210
0.0
220
1.0
230
0.0
  0
LINE
  5
4652
  8
0
  6
CONTINUOUS
 62
     3
 10
652.1986223706348937
 20
56.4318380645140394
 30
0.0
 11
665.6523578302318356
 21
97.1325441494883535
 31
0.0
210
0.0
220
1.0
230
0.0
  0
LINE
  5
4653
  8
0
  6
CONTINUOUS
 62
     3
 10
666.0818431708677281
 20
128.4318380645140962
 30
0.0
 11
666.0818431708677281
 21
118.4318380645139968
 31
0.0
210
0.0
220
1.0
230
0.0
  0
LINE
  5
4654
  8
0
  6
CONTINUOUS
 62
     3
 10
666.0818431708677281
 20
111.4318380645139968
 30
0.0
 11
666.0818431708677281
 21
99.8002759825232886
 31
0.0
210
0.0
220
1.0
230
0.0
  0
LINE
  5
4655
  8
0
  6
CONTINUOUS
 62
     3
 10
521.0818431708677281
 20
128.4318380645140962
 30
0.0
 11
521.0818431708677281
 21
118.4318380645139968
 31
0.0
210
0.0
220
1.0
230
0.0
  0
LINE
  5
4656
  8
0
  6
CONTINUOUS
 62
     3
 10
521.0818431708677281
 20
111.4318380645139968
 30
0.0
 11
521.0818431708677281
 21
99.8002759825232886
 31
0.0
210
0.0
220
1.0
230
0.0
  0
LINE
  5
4657
  8
0
  6
VERDECKT2
 62
     1
 10
544.0765662995313505
 20
35.2398605162639313
 30
0.0
 11
643.0871200422041056
 21
35.2398605162638034
 31
0.0
210
0.0
220
1.0
230
0.0
  0
LINE
  5
4658
  8
0
  6
VERDECKT2
 62
     1
 10
536.8640085968331732
 20
57.0595396722870518
 30
0.0
 11
650.2996777449021693
 21
57.0595396722869381
 31
0.0
210
0.0
220
1.0
230
0.0
  0
LINE
  5
4659
  8
0
  6
VERDECKT2
 62
     1
 10
542.1776216737987397
 20
34.6121589084914021
 30
0.0
 11
644.9860646679369438
 21
34.6121589084914021
 31
0.0
210
0.0
220
1.0
230
0.0
  0
LINE
  5
465A
  8
0
  6
VERDECKT2
 62
     1
 10
542.5818431708671596
 20
32.1013524773996721
 30
0.0
 11
644.5818431708678418
 21
32.1013524773995584
 31
0.0
210
0.0
220
1.0
230
0.0
  0
LINE
  5
465B
  8
0
  6
VERDECKT2
 62
     1
 10
543.1942638155491068
 20
-89.5681619354859038
 30
0.0
 11
643.9694225261860083
 21
-89.5681619354860175
 31
0.0
210
0.0
220
1.0
230
0.0
  0
LINE
  5
465C
  8
0
  6
VERDECKT2
 62
     1
 10
542.5818431708676144
 20
-82.5681619354859038
 30
0.0
 11
644.581843170867387
 21
-82.568161935485989
 31
0.0
210
0.0
220
1.0
230
0.0
  0
LINE
  5
465D
  8
0
  6
VERDECKT2
 62
     1
 10
544.5818431708675007
 20
-82.4808400496688705
 30
0.0
 11
642.5818431708676144
 21
-82.4808400496689984
 31
0.0
210
0.0
220
1.0
230
0.0
  0
ARC
  5
465E
  8
0
  6
VERDECKT2
 62
     1
 10
-534.5818431708643175
 20
32.1013524773986916
 30
0.0
 40
10.0000000000031903
210
0.0
220
0.0
230
-1.0
 50
161.7085481866641885
 51
179.9999999999972999
  0
ARC
  5
465F
  8
0
  6
VERDECKT2
 62
     1
 10
-652.5818431708676144
 20
32.1013524773988834
 30
0.0
 40
9.9999999999998863
210
0.0
220
0.0
230
-1.0
 50
0.0
 51
18.2914518133400392
  0
LINE
  5
4660
  8
0
  6
VERDECKT2
 62
     1
 10
544.0765662995310095
 20
35.2398605162638816
 30
0.0
 11
536.8640085968331732
 21
57.0595396722870518
 31
0.0
210
0.0
220
1.0
230
0.0
  0
LINE
  5
4661
  8
0
  6
VERDECKT2
 62
     1
 10
643.0871200422041056
 20
35.2398605162637892
 30
0.0
 11
650.2996777449021693
 21
57.059539672286931
 31
0.0
210
0.0
220
1.0
230
0.0
  0
LINE
  5
4662
  8
0
  6
VERDECKT2
 62
     1
 10
650.2996777449021693
 20
57.059539672286931
 30
0.0
 11
652.1986223706348937
 21
56.4318380645138902
 31
0.0
210
0.0
220
1.0
230
0.0
  0
LINE
  5
4663
  8
0
  6
VERDECKT2
 62
     1
 10
536.8640085968331732
 20
57.0595396722870518
 30
0.0
 11
534.9650639711004487
 21
56.4318380645140323
 31
0.0
210
0.0
220
1.0
230
0.0
  0
LINE
  5
4664
  8
0
  6
VERDECKT2
 62
     1
 10
542.1776216737983987
 20
34.6121589084915229
 30
0.0
 11
541.6049606221375825
 21
36.3445929391707168
 31
0.0
210
0.0
220
1.0
230
0.0
  0
LINE
  5
4665
  8
0
  6
VERDECKT2
 62
     1
 10
644.9860646679369438
 20
34.6121589084914305
 30
0.0
 11
645.5587257195976463
 21
36.3445929391706173
 31
0.0
210
0.0
220
1.0
230
0.0
  0
ARC
  5
4666
  8
0
  6
VERDECKT2
 62
     1
 10
-534.5818431708695471
 20
32.1013524774005674
 30
0.0
 40
7.9999999999977263
210
0.0
220
0.0
230
-1.0
 50
161.7085481866618863
 51
180.0000000000063096
  0
ARC
  5
4667
  8
0
  6
VERDECKT2
 62
     1
 10
-652.5818431708704566
 20
32.1013524773994021
 30
0.0
 40
8.0000000000027285
210
0.0
220
0.0
230
-1.0
 50
0.0000000000012213
 51
18.2914518133348913
  0
LINE
  5
4668
  8
0
  6
VERDECKT2
 62
     1
 10
543.1942638155491068
 20
-89.5681619354859038
 30
0.0
 11
542.5818431708676144
 21
-82.5681619354859038
 31
0.0
210
0.0
220
1.0
230
0.0
  0
LINE
  5
4669
  8
0
  6
VERDECKT2
 62
     1
 10
643.9694225261860083
 20
-89.5681619354860175
 30
0.0
 11
644.581843170867387
 21
-82.568161935485989
 31
0.0
210
0.0
220
1.0
230
0.0
  0
LINE
  5
466A
  8
0
  6
VERDECKT2
 62
     1
 10
545.2019034906359138
 20
-89.5681619354859038
 30
0.0
 11
544.5818431708675007
 21
-82.4808400496688705
 31
0.0
210
0.0
220
1.0
230
0.0
  0
LINE
  5
466B
  8
0
  6
VERDECKT2
 62
     1
 10
641.9617828510990876
 20
-89.5681619354860032
 30
0.0
 11
642.5818431708676144
 21
-82.4808400496689984
 31
0.0
210
0.0
220
1.0
230
0.0
  0
LINE
  5
466C
  8
0
  6
VERDECKT2
 62
     1
 10
644.5818431708678418
 20
32.1013524773995584
 30
0.0
 11
644.5818431708677281
 21
-82.568161935485989
 31
0.0
210
0.0
220
1.0
230
0.0
  0
LINE
  5
466D
  8
0
  6
VERDECKT2
 62
     1
 10
542.5818431708676144
 20
32.1013524773996721
 30
0.0
 11
542.5818431708675007
 21
-82.5681619354859038
 31
0.0
210
0.0
220
1.0
230
0.0
  0
LINE
  5
466E
  8
0
  6
VERDECKT2
 62
     1
 10
642.5818431708677281
 20
32.10135247739899
 30
0.0
 11
642.5818431708676144
 21
-82.4808400496689984
 31
0.0
210
0.0
220
1.0
230
0.0
  0
LINE
  5
466F
  8
0
  6
VERDECKT2
 62
     1
 10
544.5818431708677281
 20
32.1013524773991605
 30
0.0
 11
544.5818431708675007
 21
-82.4808400496688705
 31
0.0
210
0.0
220
1.0
230
0.0
  0
LINE
  5
4670
  8
0
  6
VERDECKT2
 62
     1
 10
530.6712617663006313
 20
15.6240293557825893
 30
0.0
 11
656.4924245754345975
 21
15.6240293557823708
 31
0.0
210
0.0
220
1.0
230
0.0
  0
LINE
  5
4671
  8
0
  6
VERDECKT2
 62
     1
 10
542.0212886441275941
 20
35.0851029998261481
 30
0.0
 11
645.142397697607521
 21
35.0851029998260273
 31
0.0
210
0.0
220
1.0
230
0.0
  0
ARC
  5
4672
  8
0
  6
VERDECKT2
 62
     1
 10
-537.5818431708672733
 20
11.5936615498799505
 30
0.0
 40
7.9999999999998863
210
0.0
220
0.0
230
-1.0
 50
0.0000000000010178
 51
30.2514591222242792
  0
ARC
  5
4673
  8
0
  6
VERDECKT2
 62
     1
 10
-649.5818431708665912
 20
11.5936615498797
 30
0.0
 40
8.0000000000010267
210
0.0
220
0.0
230
-1.0
 50
149.7485408777795044
 51
179.9999999999974136
  0
LINE
  5
4674
  8
0
  6
VERDECKT2
 62
     1
 10
645.142397697607521
 20
35.0851029998261197
 30
0.0
 11
656.4924245754345975
 21
15.6240293557824401
 31
0.0
210
0.0
220
1.0
230
0.0
  0
LINE
  5
4675
  8
0
  6
VERDECKT2
 62
     1
 10
542.0212886441275941
 20
35.0851029998262121
 30
0.0
 11
530.6712617663006313
 21
15.6240293557825307
 31
0.0
210
0.0
220
1.0
230
0.0
  0
LINE
  5
4676
  8
0
  6
VERDECKT2
 62
     1
 10
542.0212886441275941
 20
35.085102999826141
 30
0.0
 11
539.861731955200753
 21
36.3445929391707168
 31
0.0
210
0.0
220
1.0
230
0.0
  0
LINE
  5
4677
  8
0
  6
VERDECKT2
 62
     1
 10
645.142397697607521
 20
35.0851029998260628
 30
0.0
 11
647.3019543865343621
 21
36.3445929391706812
 31
0.0
210
0.0
220
1.0
230
0.0
  0
LINE
  5
4678
  8
0
  6
VERDECKT2
 62
     1
 10
657.581843170867387
 20
11.5936615498800197
 30
0.0
 11
657.581843170867387
 21
-91.5681619354860032
 31
0.0
210
0.0
220
1.0
230
0.0
  0
LINE
  5
4679
  8
0
  6
VERDECKT2
 62
     1
 10
529.5818431708676144
 20
11.5936615498800908
 30
0.0
 11
529.5818431708676144
 21
-91.5681619354859038
 31
0.0
210
0.0
220
1.0
230
0.0
  0
LINE
  5
467A
  8
0
  6
VERDECKT2
 62
     1
 10
537.3387447532664964
 20
57.2164650742302712
 30
0.0
 11
649.8249415884687323
 21
57.2164650742302712
 31
0.0
210
0.0
220
1.0
230
0.0
  0
LINE
  5
467B
  8
0
  6
VERDECKT2
 62
     1
 10
523.8850092936694409
 20
97.9171711592047558
 30
0.0
 11
663.2786770480660152
 21
97.9171711592047558
 31
0.0
210
0.0
220
1.0
230
0.0
  0
LINE
  5
467C
  8
0
  6
VERDECKT2
 62
     1
 10
526.0818431708676144
 20
111.4318380645141957
 30
0.0
 11
526.0818431708676144
 21
118.4318380645142952
 31
0.0
210
0.0
220
1.0
230
0.0
  0
LINE
  5
467D
  8
0
  6
VERDECKT2
 62
     1
 10
526.0818431708678418
 20
111.4318380645141957
 30
0.0
 11
523.5818431708677281
 21
111.4318380645141957
 31
0.0
210
0.0
220
1.0
230
0.0
  0
LINE
  5
467E
  8
0
  6
VERDECKT2
 62
     1
 10
523.5818431708677281
 20
118.4318380645141957
 30
0.0
 11
526.0818431708678418
 21
118.4318380645141957
 31
0.0
210
0.0
220
1.0
230
0.0
  0
LINE
  5
467F
  8
0
  6
VERDECKT2
 62
     1
 10
575.8883838941983413
 20
111.4318380645141957
 30
0.0
 11
575.8883838941983413
 21
118.4318380645141957
 31
0.0
210
0.0
220
1.0
230
0.0
  0
LINE
  5
4680
  8
0
  6
VERDECKT2
 62
     1
 10
543.7753024475370012
 20
118.4318380645141957
 30
0.0
 11
543.7753024475370012
 21
111.4318380645141957
 31
0.0
210
0.0
220
1.0
230
0.0
  0
LINE
  5
4681
  8
0
  6
VERDECKT2
 62
     1
 10
575.8883838941992508
 20
111.4318380645141957
 30
0.0
 11
574.9277142091458472
 21
111.4318380645141957
 31
0.0
210
0.0
220
1.0
230
0.0
  0
LINE
  5
4682
  8
0
  6
VERDECKT2
 62
     1
 10
574.9277142091458472
 20
118.4318380645141957
 30
0.0
 11
575.8883838941992508
 21
118.4318380645141957
 31
0.0
210
0.0
220
1.0
230
0.0
  0
LINE
  5
4683
  8
0
  6
VERDECKT2
 62
     1
 10
661.0818431708677281
 20
118.4318380645142952
 30
0.0
 11
661.0818431708677281
 21
111.4318380645141957
 31
0.0
210
0.0
220
1.0
230
0.0
  0
LINE
  5
4684
  8
0
  6
VERDECKT2
 62
     1
 10
663.5818431708677281
 20
111.4318380645141957
 30
0.0
 11
661.0818431708678418
 21
111.4318380645141957
 31
0.0
210
0.0
220
1.0
230
0.0
  0
LINE
  5
4685
  8
0
  6
VERDECKT2
 62
     1
 10
661.0818431708678418
 20
118.4318380645141957
 30
0.0
 11
663.5818431708677281
 21
118.4318380645141957
 31
0.0
210
0.0
220
1.0
230
0.0
  0
LINE
  5
4686
  8
0
  6
VERDECKT2
 62
     1
 10
649.8249415884687323
 20
57.2164650742302712
 30
0.0
 11
652.1986223706348937
 21
56.4318380645140323
 31
0.0
210
0.0
220
1.0
230
0.0
  0
LINE
  5
4687
  8
0
  6
VERDECKT2
 62
     1
 10
537.3387447532664964
 20
57.2164650742302712
 30
0.0
 11
534.9650639711004487
 21
56.4318380645140323
 31
0.0
210
0.0
220
1.0
230
0.0
  0
LINE
  5
4688
  8
0
  6
VERDECKT2
 62
     1
 10
537.3387447532664964
 20
57.2164650742302712
 30
0.0
 11
523.8850092936694409
 21
97.9171711592047558
 31
0.0
210
0.0
220
1.0
230
0.0
  0
LINE
  5
4689
  8
0
  6
VERDECKT2
 62
     1
 10
649.8249415884687323
 20
57.2164650742302712
 30
0.0
 11
663.2786770480660152
 21
97.9171711592047558
 31
0.0
210
0.0
220
1.0
230
0.0
  0
ARC
  5
468A
  8
0
  6
VERDECKT2
 62
     1
 10
-529.5818431708720482
 20
99.8002759825244112
 30
0.0
 40
6.0000000000044276
210
0.0
220
0.0
230
-1.0
 50
341.7085481866664054
 51
359.999999999991303
  0
ARC
  5
468B
  8
0
  6
VERDECKT2
 62
     1
 10
-657.5818431708632943
 20
99.8002759825244112
 30
0.0
 40
6.000000000004432
210
0.0
220
0.0
230
-1.0
 50
180.0000000000084128
 51
198.2914518133335946
  0
LINE
  5
468C
  8
0
  6
VERDECKT2
 62
     1
 10
663.5818431708678418
 20
128.4318380645142099
 30
0.0
 11
663.5818431708678418
 21
118.4318380645141957
 31
0.0
210
0.0
220
1.0
230
0.0
  0
LINE
  5
468D
  8
0
  6
VERDECKT2
 62
     1
 10
663.5818431708678418
 20
111.4318380645141957
 30
0.0
 11
663.5818431708678418
 21
99.8002759825235159
 31
0.0
210
0.0
220
1.0
230
0.0
  0
LINE
  5
468E
  8
0
  6
VERDECKT2
 62
     1
 10
523.5818431708676144
 20
128.4318380645142099
 30
0.0
 11
523.5818431708676144
 21
118.4318380645141957
 31
0.0
210
0.0
220
1.0
230
0.0
  0
LINE
  5
468F
  8
0
  6
VERDECKT2
 62
     1
 10
523.5818431708676144
 20
111.4318380645141957
 30
0.0
 11
523.5818431708676144
 21
99.8002759825235159
 31
0.0
210
0.0
220
1.0
230
0.0
  0
LINE
  5
4690
  8
0
  6
VERDECKT2
 62
     1
 10
623.782805065191269
 20
118.4318380645141957
 30
0.0
 11
616.7828050651911553
 21
113.4318380645141957
 31
0.0
210
0.0
220
1.0
230
0.0
  0
LINE
  5
4691
  8
0
  6
VERDECKT2
 62
     1
 10
619.3808812765445282
 20
113.4318380645141957
 30
0.0
 11
626.3808812765445282
 21
118.4318380645141957
 31
0.0
210
0.0
220
1.0
230
0.0
  0
LINE
  5
4692
  8
0
  6
VERDECKT2
 62
     1
 10
619.3808812765445282
 20
113.4318380645141957
 30
0.0
 11
616.7828050651911553
 21
113.4318380645141957
 31
0.0
210
0.0
220
1.0
230
0.0
  0
LINE
  5
4693
  8
0
  6
VERDECKT2
 62
     1
 10
616.7828050651911553
 20
113.4318380645141957
 30
0.0
 11
613.2828050651911553
 21
113.4318380645143947
 31
0.0
210
0.0
220
1.0
230
0.0
  0
LINE
  5
4694
  8
0
  6
VERDECKT2
 62
     1
 10
613.2828050651904732
 20
113.4318380645143947
 30
0.0
 11
613.2828050651904732
 21
106.231838064514406
 31
0.0
210
0.0
220
1.0
230
0.0
  0
LINE
  5
4695
  8
0
  6
VERDECKT2
 62
     1
 10
615.8808812765441871
 20
106.231838064514406
 30
0.0
 11
615.8808812765441871
 21
113.4318380645143947
 31
0.0
210
0.0
220
1.0
230
0.0
  0
LINE
  5
4696
  8
0
  6
VERDECKT2
 62
     1
 10
613.2828050651910416
 20
106.231838064514406
 30
0.0
 11
616.7828050651911553
 21
106.231838064514406
 31
0.0
210
0.0
220
1.0
230
0.0
  0
LINE
  5
4697
  8
0
  6
VERDECKT2
 62
     1
 10
619.3808812765445282
 20
106.231838064514406
 30
0.0
 11
616.7828050651911553
 21
106.231838064514406
 31
0.0
210
0.0
220
1.0
230
0.0
  0
LINE
  5
4698
  8
0
  6
VERDECKT2
 62
     1
 10
616.782805065190928
 20
106.231838064514406
 30
0.0
 11
623.782805065190928
 21
101.231838064514406
 31
0.0
210
0.0
220
1.0
230
0.0
  0
LINE
  5
4699
  8
0
  6
VERDECKT2
 62
     1
 10
626.3808812765440734
 20
101.231838064514406
 30
0.0
 11
619.3808812765441871
 21
106.231838064514406
 31
0.0
210
0.0
220
1.0
230
0.0
  0
LINE
  5
469A
  8
0
  6
VERDECKT2
 62
     1
 10
623.7828050651905869
 20
101.231838064514406
 30
0.0
 11
627.2828050651905869
 21
101.2318380645143066
 31
0.0
210
0.0
220
1.0
230
0.0
  0
LINE
  5
469B
  8
0
  6
VERDECKT2
 62
     1
 10
629.8808812765447556
 20
101.2318380645143066
 30
0.0
 11
627.2828050651913827
 21
101.2318380645143066
 31
0.0
210
0.0
220
1.0
230
0.0
  0
LINE
  5
469C
  8
0
  6
VERDECKT2
 62
     1
 10
627.2828050651905869
 20
101.2318380645143066
 30
0.0
 11
627.2828050651905869
 21
103.7318380645143066
 31
0.0
210
0.0
220
1.0
230
0.0
  0
LINE
  5
469D
  8
0
  6
VERDECKT2
 62
     1
 10
629.8808812765447556
 20
103.7318380645143066
 30
0.0
 11
629.8808812765447556
 21
101.2318380645143066
 31
0.0
210
0.0
220
1.0
230
0.0
  0
LINE
  5
469E
  8
0
  6
VERDECKT2
 62
     1
 10
629.8808812765447556
 20
103.7318380645143066
 30
0.0
 11
627.2828050651913827
 21
103.7318380645143066
 31
0.0
210
0.0
220
1.0
230
0.0
  0
LINE
  5
469F
  8
0
  6
VERDECKT2
 62
     1
 10
627.2828050651905869
 20
103.7318380645143066
 30
0.0
 11
626.2828050651904732
 21
104.8865386028935944
 31
0.0
210
0.0
220
1.0
230
0.0
  0
LINE
  5
46A0
  8
0
  6
VERDECKT2
 62
     1
 10
628.8808812765440734
 20
104.8865386028935944
 30
0.0
 11
629.8808812765440734
 21
103.7318380645143066
 31
0.0
210
0.0
220
1.0
230
0.0
  0
LINE
  5
46A1
  8
0
  6
VERDECKT2
 62
     1
 10
628.8808812765440734
 20
104.8865386028935944
 30
0.0
 11
626.2828050651910416
 21
104.8865386028935944
 31
0.0
210
0.0
220
1.0
230
0.0
  0
LINE
  5
46A2
  8
0
  6
VERDECKT2
 62
     1
 10
626.2828050651904732
 20
104.8865386028935944
 30
0.0
 11
626.2828050651904732
 21
114.7771375261349931
 31
0.0
210
0.0
220
1.0
230
0.0
  0
LINE
  5
46A3
  8
0
  6
VERDECKT2
 62
     1
 10
628.8808812765440734
 20
114.7771375261349931
 30
0.0
 11
628.8808812765440734
 21
104.8865386028935944
 31
0.0
210
0.0
220
1.0
230
0.0
  0
LINE
  5
46A4
  8
0
  6
VERDECKT2
 62
     1
 10
628.8808812765440734
 20
114.7771375261349931
 30
0.0
 11
626.2828050651910416
 21
114.7771375261349931
 31
0.0
210
0.0
220
1.0
230
0.0
  0
LINE
  5
46A5
  8
0
  6
VERDECKT2
 62
     1
 10
626.2828050651904732
 20
114.7771375261349931
 30
0.0
 11
627.2828050651905869
 21
115.9318380645143947
 31
0.0
210
0.0
220
1.0
230
0.0
  0
LINE
  5
46A6
  8
0
  6
VERDECKT2
 62
     1
 10
629.8808812765447556
 20
115.9318380645143947
 30
0.0
 11
628.8808812765448693
 21
114.7771375261349931
 31
0.0
210
0.0
220
1.0
230
0.0
  0
LINE
  5
46A7
  8
0
  6
VERDECKT2
 62
     1
 10
629.8808812765447556
 20
115.9318380645143947
 30
0.0
 11
627.2828050651913827
 21
115.9318380645143947
 31
0.0
210
0.0
220
1.0
230
0.0
  0
LINE
  5
46A8
  8
0
  6
VERDECKT2
 62
     1
 10
627.2828050651905869
 20
115.9318380645143947
 30
0.0
 11
627.2828050651905869
 21
118.4318380645143947
 31
0.0
210
0.0
220
1.0
230
0.0
  0
LINE
  5
46A9
  8
0
  6
VERDECKT2
 62
     1
 10
629.8808812765447556
 20
118.4318380645143947
 30
0.0
 11
629.8808812765447556
 21
115.9318380645143947
 31
0.0
210
0.0
220
1.0
230
0.0
  0
LINE
  5
46AA
  8
0
  6
VERDECKT2
 62
     1
 10
629.8808812765447556
 20
118.4318380645143947
 30
0.0
 11
627.2828050651913827
 21
118.4318380645143947
 31
0.0
210
0.0
220
1.0
230
0.0
  0
LINE
  5
46AB
  8
0
  6
VERDECKT2
 62
     1
 10
627.282805065190928
 20
118.4318380645143947
 30
0.0
 11
623.782805065190928
 21
118.4318380645141957
 31
0.0
210
0.0
220
1.0
230
0.0
  0
ENDBLK
  5
46AD
  8
0
  0
BLOCK
  8
0
  2
A$C6B8D0E9D
 70
     0
 10
0.0
 20
0.0
 30
0.0
  3
A$C6B8D0E9D
  1

  0
ARC
  5
46B1
  8
0
  6
CONTINUOUS
 62
     3
 10
430.035614423153902
 20
373.1446743845962146
 30
0.0
 40
49.0000000000000995
 50
61.7542264905848128
 51
180.0
  0
ARC
  5
46B2
  8
0
  6
CONTINUOUS
 62
     3
 10
430.035614423153902
 20
373.1446743845962146
 30
0.0
 40
49.0000000000001634
 50
301.7542264905849834
 51
58.2457735094150308
  0
ARC
  5
46B3
  8
0
  6
CONTINUOUS
 62
     3
 10
430.035614423153902
 20
373.1446743845962146
 30
0.0
 40
49.0000000000000284
 50
180.0
 51
298.2457735094151872
  0
ARC
  5
46B4
  8
0
  6
CONTINUOUS
 62
     3
 10
430.035614423153902
 20
373.1446743845963852
 30
0.0
 40
49.5052768713363776
 50
61.7363164219053928
 51
180.0
  0
ARC
  5
46B5
  8
0
  6
CONTINUOUS
 62
     3
 10
430.035614423153902
 20
373.1446743845962146
 30
0.0
 40
49.5052768713364131
 50
301.7363164219054283
 51
58.2636835780945788
  0
ARC
  5
46B6
  8
0
  6
CONTINUOUS
 62
     3
 10
430.035614423153902
 20
373.1446743845962146
 30
0.0
 40
49.5052768713363776
 50
180.0
 51
298.2636835780945717
  0
ARC
  5
46B7
  8
0
  6
CONTINUOUS
 62
     3
 10
430.035614423153902
 20
373.1446743845962146
 30
0.0
 40
48.3799396802317005
 50
61.7767166553235114
 51
180.0
  0
ARC
  5
46B8
  8
0
  6
CONTINUOUS
 62
     3
 10
430.035614423153902
 20
373.1446743845962146
 30
0.0
 40
48.3799396802317219
 50
301.7767166553246057
 51
58.2232833446753801
  0
ARC
  5
46B9
  8
0
  6
CONTINUOUS
 62
     3
 10
430.035614423153902
 20
373.1446743845962146
 30
0.0
 40
48.3799396802317219
 50
180.0
 51
298.2232833446764744
  0
LINE
  5
46BA
  8
0
  6
CONTINUOUS
 62
     3
 10
460.2365763174772724
 20
428.4542748230156803
 30
0.0
 11
453.2365763174772724
 21
416.3299191700335768
 31
0.0
  0
LINE
  5
46BB
  8
0
  6
CONTINUOUS
 62
     3
 10
455.8346525288307021
 20
414.8299191700336905
 30
0.0
 11
453.2365763174774997
 21
416.3299191700335768
 31
0.0
  0
LINE
  5
46BC
  8
0
  6
CONTINUOUS
 62
     3
 10
455.8346525288307021
 20
414.8299191700336905
 30
0.0
 11
462.8346525288307021
 21
426.9542748230159077
 31
0.0
  0
LINE
  5
46BD
  8
0
  6
CONTINUOUS
 62
     3
 10
462.8346525288304179
 20
426.9542748230156803
 30
0.0
 11
460.2365763174772155
 21
428.4542748230156803
 31
0.0
  0
LINE
  5
46BE
  8
0
  6
CONTINUOUS
 62
     3
 10
453.2365763174772724
 20
416.3299191700335768
 30
0.0
 11
449.7365763174773861
 21
410.2677413435428093
 31
0.0
  0
LINE
  5
46BF
  8
0
  6
CONTINUOUS
 62
     3
 10
452.3346525288305884
 20
408.7677413435426956
 30
0.0
 11
449.7365763174772155
 21
410.2677413435428093
 31
0.0
  0
LINE
  5
46C0
  8
0
  6
CONTINUOUS
 62
     3
 10
452.3346525288305884
 20
408.7677413435426956
 30
0.0
 11
455.8346525288305884
 21
414.8299191700336905
 31
0.0
  0
LINE
  5
46C1
  8
0
  6
CONTINUOUS
 62
     3
 10
463.7285396805124833
 20
434.5025327859619892
 30
0.0
 11
460.2365763174772155
 21
428.4542748230156803
 31
0.0
  0
LINE
  5
46C2
  8
0
  6
CONTINUOUS
 62
     3
 10
462.8346525288304179
 20
426.9542748230156803
 30
0.0
 11
466.3266158918656856
 21
433.0025327859619892
 31
0.0
  0
ARC
  5
46C3
  8
0
  6
CONTINUOUS
 62
     3
 10
430.035614423153902
 20
373.1446743845962146
 30
0.0
 40
56.2430984176012316
 50
61.5282561481628676
 51
180.0
  0
ARC
  5
46C4
  8
0
  6
CONTINUOUS
 62
     3
 10
430.035614423153902
 20
373.1446743845962146
 30
0.0
 40
56.2430984176012174
 50
301.5282561481629955
 51
58.4717438518370329
  0
ARC
  5
46C5
  8
0
  6
CONTINUOUS
 62
     3
 10
430.035614423153902
 20
373.1446743845962146
 30
0.0
 40
56.2430984176012174
 50
180.0
 51
298.4717438518371182
  0
ARC
  5
46C6
  8
0
  6
CONTINUOUS
 62
     3
 10
430.0356144231527082
 20
373.1446743845968967
 30
0.0
 40
69.6968338771970366
 50
134.423714092201493
 51
165.5762859077995017
  0
ARC
  5
46C7
  8
0
  6
CONTINUOUS
 62
     3
 10
430.035614423153902
 20
373.1446743845959872
 30
0.0
 40
69.6968338771985287
 50
61.2332024360002904
 51
105.5762859077980949
  0
ARC
  5
46C8
  8
0
  6
CONTINUOUS
 62
     3
 10
430.0356144231542999
 20
373.1446743845966125
 30
0.0
 40
69.6968338771977898
 50
14.4237140922012195
 51
58.7667975639998232
  0
ARC
  5
46C9
  8
0
  6
CONTINUOUS
 62
     3
 10
430.0356144231544135
 20
373.1446743845958736
 30
0.0
 40
69.6968338771976477
 50
301.2332024359999991
 51
345.5762859077988196
  0
ARC
  5
46CA
  8
0
  6
CONTINUOUS
 62
     3
 10
430.035614423153902
 20
373.1446743845963852
 30
0.0
 40
69.6968338771983866
 50
254.4237140922001004
 51
298.7667975639997167
  0
ARC
  5
46CB
  8
0
  6
CONTINUOUS
 62
     3
 10
430.035614423153504
 20
373.1446743845959872
 30
0.0
 40
69.6968338771976903
 50
194.4237140922012088
 51
225.5762859078002123
  0
LINE
  5
46CC
  8
0
  6
CONTINUOUS
 62
     3
 10
362.535614423153902
 20
391.6851706023351767
 30
0.0
 11
362.535614423153902
 21
354.6041781668567978
 31
0.0
  0
LINE
  5
46CD
  8
0
  6
CONTINUOUS
 62
     3
 10
380.2290736998224929
 20
323.9582077380159717
 30
0.0
 11
412.3421551464854247
 21
305.4177115202767823
 31
0.0
  0
LINE
  5
46CE
  8
0
  6
CONTINUOUS
 62
     3
 10
497.535614423153902
 20
354.6041781668574799
 30
0.0
 11
497.535614423153902
 21
391.6851706023348925
 31
0.0
  0
LINE
  5
46CF
  8
0
  6
CONTINUOUS
 62
     3
 10
412.3421551464855952
 20
440.8716372489150785
 30
0.0
 11
380.2290736998224929
 21
422.3311410311760028
 31
0.0
  0
CIRCLE
  5
46D0
  8
0
  6
CONTINUOUS
 62
     3
 10
430.035614423153902
 20
373.1446743845962146
 30
0.0
 40
72.5
  0
CIRCLE
  5
46D1
  8
0
  6
CONTINUOUS
 62
     3
 10
430.035614423153902
 20
373.1446743845962146
 30
0.0
 40
70.0
  0
LINE
  5
46D2
  8
0
  6
CONTINUOUS
 62
     3
 10
460.2365763174772724
 20
317.8350739461765784
 30
0.0
 11
453.2365763174772724
 21
329.959429599158625
 31
0.0
  0
LINE
  5
46D3
  8
0
  6
CONTINUOUS
 62
     3
 10
462.8346525288304179
 20
319.3350739461766921
 30
0.0
 11
460.2365763174772155
 21
317.8350739461766921
 31
0.0
  0
LINE
  5
46D4
  8
0
  6
CONTINUOUS
 62
     3
 10
455.8346525288307021
 20
331.459429599158625
 30
0.0
 11
462.8346525288307021
 21
319.3350739461766921
 31
0.0
  0
LINE
  5
46D5
  8
0
  6
CONTINUOUS
 62
     3
 10
455.8346525288307021
 20
331.459429599158625
 30
0.0
 11
453.2365763174774997
 21
329.959429599158625
 31
0.0
  0
LINE
  5
46D6
  8
0
  6
CONTINUOUS
 62
     3
 10
453.2365763174772724
 20
329.959429599158625
 30
0.0
 11
449.7365763174773861
 21
336.0216074256496768
 31
0.0
  0
LINE
  5
46D7
  8
0
  6
CONTINUOUS
 62
     3
 10
452.3346525288305884
 20
337.5216074256496768
 30
0.0
 11
455.8346525288305884
 21
331.459429599158625
 31
0.0
  0
LINE
  5
46D8
  8
0
  6
CONTINUOUS
 62
     3
 10
452.3346525288305884
 20
337.5216074256496768
 30
0.0
 11
449.7365763174772155
 21
336.0216074256496768
 31
0.0
  0
LINE
  5
46D9
  8
0
  6
CONTINUOUS
 62
     3
 10
463.7285396805124833
 20
311.7868159832303832
 30
0.0
 11
460.2365763174772155
 21
317.8350739461766921
 31
0.0
  0
LINE
  5
46DA
  8
0
  6
CONTINUOUS
 62
     3
 10
462.8346525288304179
 20
319.3350739461766921
 30
0.0
 11
466.3266158918656856
 21
313.2868159832303832
 31
0.0
  0
ARC
  5
46DB
  8
0
  6
VERDECKT2
 62
     1
 10
430.0356144231428743
 20
373.1446743845772858
 30
0.0
 40
49.0000000000221121
 50
58.2457735094154785
 51
61.7542264905844505
  0
ARC
  5
46DC
  8
0
  6
VERDECKT2
 62
     1
 10
430.0356144231395206
 20
373.1446743846209984
 30
0.0
 40
49.0000000000286917
 50
298.2457735094170062
 51
301.7542264905831075
  0
ARC
  5
46DD
  8
0
  6
VERDECKT2
 62
     1
 10
430.0356144231726034
 20
373.1446743846286154
 30
0.0
 40
49.5052768712989675
 50
58.2636835780927527
 51
61.7363164219071976
  0
ARC
  5
46DE
  8
0
  6
VERDECKT2
 62
     1
 10
430.0356144231759004
 20
373.1446743845580727
 30
0.0
 40
49.5052768712924518
 50
298.2636835780928095
 51
301.7363164219073042
  0
CIRCLE
  5
46DF
  8
0
  6
VERDECKT2
 62
     1
 10
430.035614423153902
 20
373.1446743845962146
 30
0.0
 40
56.7178345740344199
  0
CIRCLE
  5
46E0
  8
0
  6
VERDECKT2
 62
     1
 10
430.035614423153902
 20
373.1446743845962146
 30
0.0
 40
58.6167791997671586
  0
CIRCLE
  5
46E1
  8
0
  6
VERDECKT2
 62
     1
 10
430.035614423153902
 20
373.1446743845962146
 30
0.0
 40
51.4042214970691802
  0
CIRCLE
  5
46E2
  8
0
  6
VERDECKT2
 62
     1
 10
430.035614423153902
 20
373.1446743845962146
 30
0.0
 40
51.000000000000199
  0
CIRCLE
  5
46E3
  8
0
  6
VERDECKT2
 62
     1
 10
430.035614423153902
 20
373.1446743845962146
 30
0.0
 40
50.3875793553183868
  0
ARC
  5
46E4
  8
0
  6
VERDECKT2
 62
     1
 10
430.0356144231286066
 20
373.1446743845526726
 30
0.0
 40
48.379939680282007
 50
58.2232833446771991
 51
61.7767166553213016
  0
ARC
  5
46E5
  8
0
  6
VERDECKT2
 62
     1
 10
430.0356144231287772
 20
373.1446743846395862
 30
0.0
 40
48.3799396802818222
 50
298.2232833446782934
 51
301.7767166553229004
  0
CIRCLE
  5
46E6
  8
0
  6
VERDECKT2
 62
     1
 10
430.035614423153902
 20
373.1446743845962146
 30
0.0
 40
64.0000000000000995
  0
CIRCLE
  5
46E7
  8
0
  6
VERDECKT2
 62
     1
 10
430.035614423153902
 20
373.1446743845962146
 30
0.0
 40
62.9105814045669121
  0
CIRCLE
  5
46E8
  8
0
  6
VERDECKT2
 62
     1
 10
430.035614423153902
 20
373.1446743845962146
 30
0.0
 40
51.5605545267398426
  0
CIRCLE
  5
46E9
  8
0
  6
VERDECKT2
 62
     1
 10
430.035614423153902
 20
373.1446743845962146
 30
0.0
 40
53.7201112156669183
  0
CIRCLE
  5
46EA
  8
0
  6
VERDECKT2
 62
     1
 10
430.035614423153902
 20
373.1446743845962146
 30
0.0
 40
65.0701380934940374
  0
CIRCLE
  5
46EB
  8
0
  6
VERDECKT2
 62
     1
 10
430.035614423153902
 20
373.1446743845962146
 30
0.0
 40
66.4999999999999289
  0
LINE
  5
46EC
  8
0
  6
VERDECKT2
 62
     1
 10
465.3346525288305884
 20
431.2844018419378926
 30
0.0
 11
462.7365763174772155
 21
432.7844018419376084
 31
0.0
  0
LINE
  5
46ED
  8
0
  6
VERDECKT2
 62
     1
 10
466.3346525288309863
 20
433.0164526495066184
 30
0.0
 11
463.7365763174776134
 21
434.5164526495066184
 31
0.0
  0
LINE
  5
46EE
  8
0
  6
VERDECKT2
 62
     1
 10
463.7365763174771018
 20
434.5164526495066184
 30
0.0
 11
463.7285396805124833
 21
434.5025327859619892
 31
0.0
  0
LINE
  5
46EF
  8
0
  6
VERDECKT2
 62
     1
 10
466.3266158918656856
 20
433.0025327859619892
 30
0.0
 11
466.3346525288304747
 21
433.0164526495066184
 31
0.0
  0
CIRCLE
  5
46F0
  8
0
  6
VERDECKT2
 62
     1
 10
430.035614423153902
 20
373.1446743845962146
 30
0.0
 40
58.6167791997671728
  0
ARC
  5
46F1
  8
0
  6
VERDECKT2
 62
     1
 10
430.0356144231666917
 20
373.1446743846186109
 30
0.0
 40
56.2430984175755029
 50
58.4717438518356403
 51
61.5282561481632513
  0
ARC
  5
46F2
  8
0
  6
VERDECKT2
 62
     1
 10
430.0356144231623716
 20
373.144674384581208
 30
0.0
 40
56.243098417584001
 50
298.4717438518371182
 51
301.5282561481629955
  0
ARC
  5
46F3
  8
0
  6
VERDECKT2
 62
     1
 10
430.0356144231589042
 20
373.1446743845954757
 30
0.0
 40
69.6968338772031757
 50
165.5762859077995017
 51
179.9999999999992042
  0
ARC
  5
46F4
  8
0
  6
VERDECKT2
 62
     1
 10
430.0356144231541862
 20
373.1446743845958736
 30
0.0
 40
69.6968338771986566
 50
105.5762859077980949
 51
134.423714092201493
  0
ARC
  5
46F5
  8
0
  6
VERDECKT2
 62
     1
 10
430.0356144231367921
 20
373.1446743845659171
 30
0.0
 40
69.6968338772331037
 50
58.7667975640016422
 51
61.2332024360002904
  0
ARC
  5
46F6
  8
0
  6
VERDECKT2
 62
     1
 10
430.035614423153902
 20
373.1446743845962146
 30
0.0
 40
69.6968338771982872
 50
345.5762859077988196
 51
14.4237140922012195
  0
ARC
  5
46F7
  8
0
  6
VERDECKT2
 62
     1
 10
430.0356144231496955
 20
373.144674384603718
 30
0.0
 40
69.6968338772068137
 50
298.7667975639997167
 51
301.2332024359999991
  0
ARC
  5
46F8
  8
0
  6
VERDECKT2
 62
     1
 10
430.0356144231536177
 20
373.1446743845958736
 30
0.0
 40
69.6968338771979319
 50
225.5762859078002123
 51
254.4237140922001004
  0
ARC
  5
46F9
  8
0
  6
VERDECKT2
 62
     1
 10
430.0356144231589042
 20
373.1446743845967831
 30
0.0
 40
69.6968338772031757
 50
180.0000000000007958
 51
194.423714092200413
  0
CIRCLE
  5
46FA
  8
0
  6
VERDECKT2
 62
     1
 10
430.035614423153902
 20
373.1446743845962146
 30
0.0
 40
72.0705146593640933
  0
LINE
  5
46FB
  8
0
  6
VERDECKT2
 62
     1
 10
411.3814854614320211
 20
443.2037456935963178
 30
0.0
 11
395.0356144231536746
 21
433.7664526495073005
 31
0.0
  0
LINE
  5
46FC
  8
0
  6
VERDECKT2
 62
     1
 10
395.0356144231536746
 20
433.7664526495073005
 30
0.0
 11
378.6897433848773176
 21
424.3291596054195907
 31
0.0
  0
LINE
  5
46FD
  8
0
  6
VERDECKT2
 62
     1
 10
500.0356144231545272
 20
354.2700882964201128
 30
0.0
 11
500.0356144231545272
 21
373.1446743845962146
 31
0.0
  0
LINE
  5
46FE
  8
0
  6
VERDECKT2
 62
     1
 10
500.0356144231545272
 20
373.1446743845962146
 30
0.0
 11
500.0356144231545272
 21
392.0192604727744765
 31
0.0
  0
LINE
  5
46FF
  8
0
  6
VERDECKT2
 62
     1
 10
378.6897433848773176
 20
321.9601891637749986
 30
0.0
 11
395.0356144231545841
 21
312.5228961196866067
 31
0.0
  0
LINE
  5
4700
  8
0
  6
VERDECKT2
 62
     1
 10
395.0356144231545841
 20
312.5228961196866067
 30
0.0
 11
411.3814854614321916
 21
303.0856030755979873
 31
0.0
  0
LINE
  5
4701
  8
0
  6
VERDECKT2
 62
     1
 10
360.0356144231546978
 20
392.0192604727740218
 30
0.0
 11
360.0356144231546978
 21
373.1446743845962146
 31
0.0
  0
LINE
  5
4702
  8
0
  6
VERDECKT2
 62
     1
 10
360.0356144231546978
 20
373.1446743845962146
 30
0.0
 11
360.0356144231546978
 21
354.2700882964206244
 31
0.0
  0
LINE
  5
4703
  8
0
  6
VERDECKT2
 62
     1
 10
465.3346525288305884
 20
315.0049469272544798
 30
0.0
 11
462.7365763174772155
 21
313.5049469272544798
 31
0.0
  0
LINE
  5
4704
  8
0
  6
VERDECKT2
 62
     1
 10
466.3346525288309863
 20
313.2728961196856972
 30
0.0
 11
463.7365763174776134
 21
311.7728961196856972
 31
0.0
  0
LINE
  5
4705
  8
0
  6
VERDECKT2
 62
     1
 10
463.7365763174771018
 20
311.7728961196856972
 30
0.0
 11
463.7285396805124833
 21
311.7868159832303832
 31
0.0
  0
LINE
  5
4706
  8
0
  6
VERDECKT2
 62
     1
 10
466.3266158918656856
 20
313.2868159832303832
 30
0.0
 11
466.3346525288304747
 21
313.2728961196856972
 31
0.0
  0
ENDBLK
  5
4708
  8
0
  0
ENDSEC
  0
SECTION
  2
ENTITIES
  0
TEXT
  5
8E
  8
VOLL
 10
78.076754716981128
 20
31.025947764705851
 30
0.0
 40
1.8
  1

  7
GREEKS
  0
INSERT
  5
3C09
  8
ADSK_ASSOC_ENTITY_BACKUPS
  2
*U2
 10
0.0
 20
0.0
 30
0.0
  0
INSERT
  5
4817
  8
BEM
  2
A$C78CF4C3E
 10
-521.0818440426795632
 20
308.6359767393572042
 30
0.0
  0
INSERT
  5
4818
  8
BEM
  2
A$C6B8D0E9D
 10
-357.5356152949661919
 20
-300.6446736406867899
 30
0.0
  0
VIEWPORT
  5
39D0
 67
     1
  8
0
 10
251.0798538633958117
 20
79.2536858117927068
 30
0.0
 40
2449.5426652039809596
 41
957.6078792504087005
 68
     1
 69
     1
1001
ACAD
1000
MVIEW
1002
{
1070
    16
1010
0.0
1020
0.0
1030
0.0
1010
0.0
1020
0.0
1030
1.0
1040
0.0
1040
957.6078792504087005
1040
251.0798538633958117
1040
79.2536858117927068
1040
50.0
1040
0.0
1040
0.0
1070
     0
1070
  1500
1070
     1
1070
     1
1070
     0
1070
     0
1070
     0
1070
     0
1040
0.0
1040
0.0
1040
0.0
1040
10.0
1040
10.0
1040
10.0
1040
10.0
1070
     0
1002
{
1002
}
1002
}
  0
ENDSEC
  0
EOF
