  0
SECTION
  2
HEADER
  9
$ACADVER
  1
AC1009
  9
$INSBASE
 10
0.0
 20
0.0
 30
0.0
  9
$EXTMIN
 10
-1.104651733293621
 20
-0.012816404938576
 30
-0.0289213881967498
  9
$EXTMAX
 10
122.0182491342757061
 20
393.352662079679817
 30
0.0010863245968267
  9
$LIMMIN
 10
0.0
 20
0.0
  9
$LIMMAX
 10
296.9999999999998863
 20
420.0000000000001137
  9
$ORTHOMODE
 70
     1
  9
$REGENMODE
 70
     1
  9
$FILLMODE
 70
     1
  9
$QTEXTMODE
 70
     0
  9
$MIRRTEXT
 70
     1
  9
$DRAGMODE
 70
     2
  9
$LTSCALE
 40
20.0
  9
$OSMODE
 70
    39
  9
$ATTMODE
 70
     1
  9
$TEXTSIZE
 40
3.5
  9
$TRACEWID
 40
0.5
  9
$TEXTSTYLE
  7
STANDARD
  9
$CLAYER
  8
BEM
  9
$CELTYPE
  6
BYLAYER
  9
$CECOLOR
 62
   256
  9
$DIMSCALE
 40
2.0
  9
$DIMASZ
 40
3.5
  9
$DIMEXO
 40
1.0
  9
$DIMDLI
 40
7.0
  9
$DIMRND
 40
0.0
  9
$DIMDLE
 40
0.0
  9
$DIMEXE
 40
1.0
  9
$DIMTP
 40
0.5
  9
$DIMTM
 40
0.0
  9
$DIMTXT
 40
3.5
  9
$DIMCEN
 40
1.5
  9
$DIMTSZ
 40
0.0
  9
$DIMTOL
 70
     0
  9
$DIMLIM
 70
     0
  9
$DIMTIH
 70
     0
  9
$DIMTOH
 70
     0
  9
$DIMSE1
 70
     0
  9
$DIMSE2
 70
     0
  9
$DIMTAD
 70
     1
  9
$DIMZIN
 70
     8
  9
$DIMBLK
  1

  9
$DIMASO
 70
     1
  9
$DIMSHO
 70
     0
  9
$DIMPOST
  1

  9
$DIMAPOST
  1

  9
$DIMALT
 70
     0
  9
$DIMALTD
 70
     2
  9
$DIMALTF
 40
25.3999999999999986
  9
$DIMLFAC
 40
1.0
  9
$DIMTOFL
 70
     1
  9
$DIMTVP
 40
0.0
  9
$DIMTIX
 70
     0
  9
$DIMSOXD
 70
     0
  9
$DIMSAH
 70
     0
  9
$DIMBLK1
  1

  9
$DIMBLK2
  1

  9
$DIMSTYLE
  2
STANDARD
  9
$DIMCLRD
 70
     0
  9
$DIMCLRE
 70
     0
  9
$DIMCLRT
 70
     1
  9
$DIMTFAC
 40
0.5
  9
$DIMGAP
 40
1.5
  9
$LUNITS
 70
     2
  9
$LUPREC
 70
     2
  9
$SKETCHINC
 40
1.0
  9
$FILLETRAD
 40
0.0
  9
$AUNITS
 70
     0
  9
$AUPREC
 70
     0
  9
$MENU
  1
ACAD
  9
$ELEVATION
 40
0.0
  9
$PELEVATION
 40
0.0
  9
$THICKNESS
 40
0.0
  9
$LIMCHECK
 70
     0
  9
$BLIPMODE
 70
     0
  9
$CHAMFERA
 40
0.0
  9
$CHAMFERB
 40
0.0
  9
$SKPOLY
 70
     0
  9
$TDCREATE
 40
2451337.6017592591233552
  9
$TDUPDATE
 40
2458418.2832407411187887
  9
$TDINDWG
 40
0.1582816204
  9
$TDUSRTIMER
 40
0.1582816204
  9
$USRTIMER
 70
     1
  9
$ANGBASE
 50
0.0
  9
$ANGDIR
 70
     0
  9
$PDMODE
 70
     0
  9
$PDSIZE
 40
0.0
  9
$PLINEWID
 40
0.0
  9
$COORDS
 70
     1
  9
$SPLFRAME
 70
     0
  9
$SPLINETYPE
 70
     6
  9
$SPLINESEGS
 70
     8
  9
$ATTDIA
 70
     1
  9
$ATTREQ
 70
     1
  9
$HANDLING
 70
     1
  9
$HANDSEED
  5
2F5C
  9
$SURFTAB1
 70
     6
  9
$SURFTAB2
 70
     6
  9
$SURFTYPE
 70
     6
  9
$SURFU
 70
     6
  9
$SURFV
 70
     6
  9
$UCSNAME
  2

  9
$UCSORG
 10
0.0
 20
0.0
 30
0.0
  9
$UCSXDIR
 10
1.0
 20
0.0
 30
0.0
  9
$UCSYDIR
 10
0.0
 20
1.0
 30
0.0
  9
$PUCSNAME
  2

  9
$PUCSORG
 10
0.0
 20
0.0
 30
0.0
  9
$PUCSXDIR
 10
1.0
 20
0.0
 30
0.0
  9
$PUCSYDIR
 10
0.0
 20
1.0
 30
0.0
  9
$USERI1
 70
     0
  9
$USERI2
 70
     0
  9
$USERI3
 70
     0
  9
$USERI4
 70
     0
  9
$USERI5
 70
     0
  9
$USERR1
 40
0.0
  9
$USERR2
 40
0.0
  9
$USERR3
 40
0.0
  9
$USERR4
 40
0.0
  9
$USERR5
 40
0.0
  9
$WORLDVIEW
 70
     1
  9
$SHADEDGE
 70
     3
  9
$SHADEDIF
 70
    70
  9
$TILEMODE
 70
     1
  9
$MAXACTVP
 70
    16
  9
$PLIMCHECK
 70
     0
  9
$PEXTMIN
 10
-184.2455365431987104
 20
-186.3155425972138062
 30
-0.0000000349181948
  9
$PEXTMAX
 10
235.8057345527329005
 20
407.7569693813184131
 30
0.0000000814935746
  9
$PLIMMIN
 10
-0.2500002402958907
 20
-0.2499999962453767
  9
$PLIMMAX
 10
10.7499995194082203
 20
8.2499997634587334
  9
$UNITMODE
 70
     0
  9
$VISRETAIN
 70
     0
  9
$PLINEGEN
 70
     0
  9
$PSLTSCALE
 70
     0
  0
ENDSEC
  0
SECTION
  2
TABLES
  0
TABLE
  2
VPORT
 70
     1
  0
VPORT
  2
*ACTIVE
 70
     0
 10
0.0
 20
0.0
 11
1.0
 21
1.0
 12
60.4567987004909924
 22
196.6699228373705921
 13
0.0
 23
0.0
 14
1.0
 24
1.0
 15
10.0
 25
10.0
 16
-0.0000000000000012
 26
0.0
 36
5.5852494427615742
 17
0.0
 27
0.0
 37
0.0
 40
396.5082120011400093
 41
2.0800000000000001
 42
50.0
 43
0.0
 44
0.0
 50
0.0
 51
0.0
 71
     0
 72
  1500
 73
     1
 74
     0
 75
     0
 76
     0
 77
     0
 78
     0
  0
ENDTAB
  0
TABLE
  2
LTYPE
 70
     2
  0
LTYPE
  2
CONTINUOUS
 70
     0
  3
Solid line
 72
    65
 73
     0
 40
0.0
  0
LTYPE
  2
VERDECKT2
 70
     0
  3
Verdeckt (.5x) _ _ _ _ _ _ _ _ _ _ _ _ _ _ _ _ 
 72
    65
 73
     2
 40
0.1875
 49
0.125
 49
-0.0625
  0
ENDTAB
  0
TABLE
  2
LAYER
 70
     5
  0
LAYER
  2
0
 70
     0
 62
     7
  6
CONTINUOUS
  0
LAYER
  2
BEM
 70
     0
 62
     7
  6
CONTINUOUS
  0
LAYER
  2
VOLL
 70
     0
 62
     1
  6
CONTINUOUS
  0
LAYER
  2
DEFPOINTS
 70
     0
 62
     7
  6
CONTINUOUS
  0
LAYER
  2
ADSK_ASSOC_ENTITY_BACKUPS
 70
     1
 62
    -7
  6
CONTINUOUS
  0
ENDTAB
  0
TABLE
  2
STYLE
 70
     3
  0
STYLE
  2
STANDARD
 70
     0
 40
0.0
 41
0.8
 50
0.0
 71
     0
 42
3.5
  3
simplex.shx
  4

  0
STYLE
  2
ANNOTATIVE
 70
     0
 40
0.0
 41
1.0
 50
0.0
 71
     0
 42
0.2
  3
txt
  4

  0
STYLE
  2
GREEKS
 70
     0
 40
0.0
 41
0.8
 50
0.0
 71
     0
 42
2.5
  3
SIMPLEX.shx
  4

  0
ENDTAB
  0
TABLE
  2
VIEW
 70
     0
  0
ENDTAB
  0
TABLE
  2
UCS
 70
     0
  0
ENDTAB
  0
TABLE
  2
APPID
 70
    18
  0
APPID
  2
ACAD
 70
     0
  0
APPID
  2
ACADANNOTATIVE
 70
     0
  0
APPID
  2
ACAD_EXEMPT_FROM_CAD_STANDARDS
 70
     0
  0
APPID
  2
ACAD_NAV_VCDISPLAY
 70
     0
  0
APPID
  2
ACAD_PSEXT
 70
     0
  0
APPID
  2
ACAECLAYERSTANDARD
 70
     0
  0
APPID
  2
ACCMTRANSPARENCY
 70
     0
  0
APPID
  2
ACAD_MLEADERVER
 70
     0
  0
APPID
  2
ACAD_OBJECT_CHANGE_GUID
 70
     0
  0
APPID
  2
ACSYNERGY
 70
     0
  0
APPID
  2
SYNERGY_BODY_TBR_ID
 70
     0
  0
APPID
  2
ACAD_VIEW_EDGE_ID
 70
     0
  0
APPID
  2
ACSYNERGYSKETCH
 70
     0
  0
APPID
  2
ACAD_STEPID
 70
     0
  0
APPID
  2
ACAD_MODELDOC_XFORM
 70
     0
  0
APPID
  2
ACAD_DSTYLE_DIMJAG
 70
     0
  0
APPID
  2
ACAD_DSTYLE_DIMTALN
 70
     0
  0
APPID
  2
ACADANNOMONITORALERTICONDI
 70
     0
  0
ENDTAB
  0
TABLE
  2
DIMSTYLE
 70
     2
  0
DIMSTYLE
  2
STANDARD
 70
     0
  3

  4

  5

  6

  7

 40
1.0
 41
0.18
 42
0.0625
 43
0.38
 44
0.18
 45
0.0
 46
0.0
 47
0.0
 48
0.0
140
0.18
141
0.09
142
0.0
143
25.3999999999999986
144
1.0
145
0.0
146
1.0
147
0.09
 71
     0
 72
     0
 73
     1
 74
     1
 75
     0
 76
     0
 77
     0
 78
     0
170
     0
171
     2
172
     0
173
     0
174
     0
175
     0
176
     0
177
     0
178
     0
  0
DIMSTYLE
  2
ANNOTATIVE
 70
     0
  3

  4

  5

  6

  7

 40
1.0
 41
0.18
 42
0.0625
 43
0.38
 44
0.18
 45
0.0
 46
0.0
 47
0.0
 48
0.0
140
0.18
141
0.09
142
0.0
143
25.3999999999999986
144
1.0
145
0.0
146
1.0
147
0.09
 71
     0
 72
     0
 73
     1
 74
     1
 75
     0
 76
     0
 77
     0
 78
     0
170
     0
171
     2
172
     0
173
     0
174
     0
175
     0
176
     0
177
     0
178
     0
  0
ENDTAB
  0
ENDSEC
  0
SECTION
  2
BLOCKS
  0
BLOCK
  8
0
  2
$MODEL_SPACE
 70
     0
 10
0.0
 20
0.0
 30
0.0
  3
$MODEL_SPACE
  1

  0
ENDBLK
  5
2EC5
  8
0
  0
BLOCK
 67
     1
  8
0
  2
$PAPER_SPACE
 70
     0
 10
0.0
 20
0.0
 30
0.0
  3
$PAPER_SPACE
  1

  0
ENDBLK
  5
2EC1
 67
     1
  8
0
  0
BLOCK
  8
0
  2
*U2
 70
     1
 10
0.0
 20
0.0
 30
0.0
  3
*U2
  1

  0
ENDBLK
  5
247C
  8
0
  0
BLOCK
  8
0
  2
A$C4B931018
 70
     0
 10
0.0
 20
0.0
 30
0.0
  3
A$C4B931018
  1

  0
LINE
  5
2D2D
  8
0
  6
CONTINUOUS
 62
     3
 10
587.5442438231498272
 20
127.402718121040607
 30
0.0
 11
587.5442438231498272
 21
120.402718121040607
 31
0.0
210
0.0
220
1.0
230
0.0
  0
LINE
  5
2D2E
  8
0
  6
CONTINUOUS
 62
     3
 10
585.5442438231491451
 20
120.402718121040607
 30
0.0
 11
587.5442438231495998
 21
120.402718121040607
 31
0.0
210
0.0
220
1.0
230
0.0
  0
LINE
  5
2D2F
  8
0
  6
CONTINUOUS
 62
     3
 10
587.5442438231495998
 20
127.402718121040607
 30
0.0
 11
585.5442438231491451
 21
127.402718121040607
 31
0.0
210
0.0
220
1.0
230
0.0
  0
LINE
  5
2D30
  8
0
  6
CONTINUOUS
 62
     3
 10
705.5442438231494862
 20
120.402718121040607
 30
0.0
 11
705.5442438231494862
 21
127.402718121040607
 31
0.0
210
0.0
220
1.0
230
0.0
  0
LINE
  5
2D31
  8
0
  6
CONTINUOUS
 62
     3
 10
705.5442438231500546
 20
120.402718121040607
 30
0.0
 11
707.5442438231500546
 21
120.402718121040607
 31
0.0
210
0.0
220
1.0
230
0.0
  0
LINE
  5
2D32
  8
0
  6
CONTINUOUS
 62
     3
 10
707.5442438231500546
 20
127.402718121040607
 30
0.0
 11
705.5442438231500546
 21
127.402718121040607
 31
0.0
210
0.0
220
1.0
230
0.0
  0
LINE
  5
2D33
  8
0
  6
CONTINUOUS
 62
     3
 10
603.6278359581492623
 20
120.402718121040607
 30
0.0
 11
603.6278359581492623
 21
127.402718121040607
 31
0.0
210
0.0
220
1.0
230
0.0
  0
LINE
  5
2D34
  8
0
  6
CONTINUOUS
 62
     3
 10
630.4606516881503921
 20
127.402718121040607
 30
0.0
 11
630.4606516881503921
 21
120.402718121040607
 31
0.0
210
0.0
220
1.0
230
0.0
  0
LINE
  5
2D35
  8
0
  6
CONTINUOUS
 62
     3
 10
630.4606516881483458
 20
127.402718121040607
 30
0.0
 11
603.6278359581508539
 21
127.402718121040607
 31
0.0
210
0.0
220
1.0
230
0.0
  0
LINE
  5
2D36
  8
0
  6
CONTINUOUS
 62
     3
 10
603.6278359581506265
 20
120.402718121040607
 30
0.0
 11
630.4606516881483458
 21
120.402718121040607
 31
0.0
210
0.0
220
1.0
230
0.0
  0
LINE
  5
2D37
  8
0
  6
CONTINUOUS
 62
     3
 10
585.5442438231498272
 20
135.402718121040607
 30
0.0
 11
707.5442438231497135
 21
135.402718121040607
 31
0.0
210
0.0
220
1.0
230
0.0
  0
LINE
  5
2D38
  8
0
  6
CONTINUOUS
 62
     3
 10
585.5442438231498272
 20
97.0708346207805448
 30
0.0
 11
707.5442438231497135
 21
97.0708346207805448
 31
0.0
210
0.0
220
1.0
230
0.0
  0
LINE
  5
2D39
  8
0
  6
CONTINUOUS
 62
     3
 10
586.730142113873967
 20
91.4317923807951587
 30
0.0
 11
706.3583455324254601
 21
91.4317923807951587
 31
0.0
210
0.0
220
1.0
230
0.0
  0
LINE
  5
2D3A
  8
0
  6
CONTINUOUS
 62
     3
 10
594.5277595739573826
 20
73.7125664961189102
 30
0.0
 11
698.5607280723420445
 21
73.7125664961189102
 31
0.0
210
0.0
220
1.0
230
0.0
  0
LINE
  5
2D3B
  8
0
  6
CONTINUOUS
 62
     3
 10
595.5442438231498272
 20
68.8791017189886503
 30
0.0
 11
697.5442438231498272
 21
68.8791017189886503
 31
0.0
210
0.0
220
1.0
230
0.0
  0
LINE
  5
2D3C
  8
0
  6
CONTINUOUS
 62
     3
 10
595.5442438231498272
 20
-84.5972818789592225
 30
0.0
 11
697.5442438231498272
 21
-84.5972818789592225
 31
0.0
210
0.0
220
1.0
230
0.0
  0
LINE
  5
2D3D
  8
0
  6
CONTINUOUS
 62
     3
 10
707.5442438231499409
 20
135.402718121040607
 30
0.0
 11
707.5442438231499409
 21
127.402718121040607
 31
0.0
210
0.0
220
1.0
230
0.0
  0
LINE
  5
2D3E
  8
0
  6
CONTINUOUS
 62
     3
 10
707.5442438231499409
 20
120.402718121040607
 30
0.0
 11
707.5442438231499409
 21
97.0708346207805448
 31
0.0
210
0.0
220
1.0
230
0.0
  0
LINE
  5
2D3F
  8
0
  6
CONTINUOUS
 62
     3
 10
585.5442438231497135
 20
135.402718121040607
 30
0.0
 11
585.5442438231497135
 21
127.402718121040607
 31
0.0
210
0.0
220
1.0
230
0.0
  0
LINE
  5
2D40
  8
0
  6
CONTINUOUS
 62
     3
 10
585.5442438231497135
 20
120.402718121040607
 30
0.0
 11
585.5442438231497135
 21
97.0708346207805448
 31
0.0
210
0.0
220
1.0
230
0.0
  0
ARC
  5
2D41
  8
0
  6
CONTINUOUS
 62
     3
 10
-599.5442438231489177
 20
97.0708346207801327
 30
0.0
 40
13.9999999999989804
210
0.0
220
0.0
230
-1.0
 50
336.2473682960903716
 51
0.0000000000016284
  0
ARC
  5
2D42
  8
0
  6
CONTINUOUS
 62
     3
 10
-693.5442438231505093
 20
97.0708346207801327
 30
0.0
 40
13.9999999999992006
210
0.0
220
0.0
230
-1.0
 50
179.9999999999984084
 51
203.7526317039096
  0
LINE
  5
2D43
  8
0
  6
CONTINUOUS
 62
     3
 10
594.5277595739573826
 20
73.7125664961189102
 30
0.0
 11
586.730142113873967
 21
91.4317923807952013
 31
0.0
210
0.0
220
1.0
230
0.0
  0
LINE
  5
2D44
  8
0
  6
CONTINUOUS
 62
     3
 10
698.5607280723420445
 20
73.7125664961189102
 30
0.0
 11
706.3583455324254601
 21
91.4317923807951587
 31
0.0
210
0.0
220
1.0
230
0.0
  0
ARC
  5
2D45
  8
0
  6
CONTINUOUS
 62
     3
 10
-583.5442438231490314
 20
68.8791017189884798
 30
0.0
 40
12.0000000000006803
210
0.0
220
0.0
230
-1.0
 50
156.2473682960904
 51
179.9999999999992042
  0
ARC
  5
2D46
  8
0
  6
CONTINUOUS
 62
     3
 10
-709.5442438231525557
 20
68.8791017189882098
 30
0.0
 40
12.0000000000028404
210
0.0
220
0.0
230
-1.0
 50
0.0000000000020356
 51
23.7526317039059691
  0
LINE
  5
2D47
  8
0
  6
CONTINUOUS
 62
     3
 10
697.5442438231498272
 20
68.8791017189886503
 30
0.0
 11
697.5442438231498272
 21
-84.5972818789592225
 31
0.0
210
0.0
220
1.0
230
0.0
  0
LINE
  5
2D48
  8
0
  6
CONTINUOUS
 62
     3
 10
595.5442438231498272
 20
68.8791017189886503
 30
0.0
 11
595.5442438231498272
 21
-84.5972818789592225
 31
0.0
210
0.0
220
1.0
230
0.0
  0
LINE
  5
2D49
  8
0
  6
VERDECKT2
 62
     1
 10
685.3360398906504543
 20
58.8366496693533421
 30
0.0
 11
607.7524477556488591
 21
58.8366496693533421
 31
0.0
210
0.0
220
1.0
230
0.0
  0
LINE
  5
2D4A
  8
0
  6
VERDECKT2
 62
     1
 10
683.0442438231498272
 20
51.7832266418435623
 30
0.0
 11
610.0442438231498272
 21
51.7832266418435623
 31
0.0
210
0.0
220
1.0
230
0.0
  0
LINE
  5
2D4B
  8
0
  6
VERDECKT2
 62
     1
 10
696.7314166679622076
 20
74.5210402426021119
 30
0.0
 11
596.3570709783373331
 21
74.5210402426021119
 31
0.0
210
0.0
220
1.0
230
0.0
  0
LINE
  5
2D4C
  8
0
  6
VERDECKT2
 62
     1
 10
695.5178911763996439
 20
75.4027181210407633
 30
0.0
 11
597.5705964698995558
 21
75.4027181210407633
 31
0.0
210
0.0
220
1.0
230
0.0
  0
LINE
  5
2D4D
  8
0
  6
VERDECKT2
 62
     1
 10
684.0416126996506136
 20
59.6069759113508297
 30
0.0
 11
609.0468749466489271
 21
59.6069759113508297
 31
0.0
210
0.0
220
1.0
230
0.0
  0
LINE
  5
2D4E
  8
0
  6
VERDECKT2
 62
     1
 10
681.4442438231500319
 20
51.6130964801731693
 30
0.0
 11
611.6442438231496226
 21
51.6130964801731693
 31
0.0
210
0.0
220
1.0
230
0.0
  0
LINE
  5
2D4F
  8
0
  6
VERDECKT2
 62
     1
 10
682.4318231784683348
 20
-82.5972818789592083
 30
0.0
 11
610.6566644678313196
 21
-82.5972818789592083
 31
0.0
210
0.0
220
1.0
230
0.0
  0
LINE
  5
2D50
  8
0
  6
VERDECKT2
 62
     1
 10
681.4442438231500319
 20
-76.6747956948725431
 30
0.0
 11
611.6442438231496226
 21
-76.6747956948725431
 31
0.0
210
0.0
220
1.0
230
0.0
  0
LINE
  5
2D51
  8
0
  6
VERDECKT2
 62
     1
 10
683.0442438231498272
 20
-75.5972818789592225
 30
0.0
 11
610.0442438231498272
 21
-75.5972818789592225
 31
0.0
210
0.0
220
1.0
230
0.0
  0
ARC
  5
2D52
  8
0
  6
VERDECKT2
 62
     1
 10
-695.0442438231510778
 20
51.7832266418430365
 30
0.0
 40
12.0000000000012506
210
0.0
220
0.0
230
-1.0
 50
0.0000000000024427
 51
35.9999999999991829
  0
ARC
  5
2D53
  8
0
  6
VERDECKT2
 62
     1
 10
-598.0442438231483493
 20
51.7832266418430578
 30
0.0
 40
12.0000000000012594
210
0.0
220
0.0
230
-1.0
 50
144.0000000000007958
 51
179.9999999999974136
  0
LINE
  5
2D54
  8
0
  6
VERDECKT2
 62
     1
 10
607.7524477556488591
 20
58.8366496693533207
 30
0.0
 11
596.3570709783373331
 21
74.5210402426021119
 31
0.0
210
0.0
220
1.0
230
0.0
  0
LINE
  5
2D55
  8
0
  6
VERDECKT2
 62
     1
 10
685.3360398906504543
 20
58.8366496693533207
 30
0.0
 11
696.7314166679622076
 21
74.5210402426021119
 31
0.0
210
0.0
220
1.0
230
0.0
  0
LINE
  5
2D56
  8
0
  6
VERDECKT2
 62
     1
 10
695.5178911763996439
 20
75.4027181210407633
 30
0.0
 11
696.7314166679622076
 21
74.5210402426021119
 31
0.0
210
0.0
220
1.0
230
0.0
  0
LINE
  5
2D57
  8
0
  6
VERDECKT2
 62
     1
 10
597.5705964698995558
 20
75.4027181210407633
 30
0.0
 11
596.3570709783373331
 21
74.5210402426021119
 31
0.0
210
0.0
220
1.0
230
0.0
  0
LINE
  5
2D58
  8
0
  6
VERDECKT2
 62
     1
 10
609.0468749466489271
 20
59.6069759113508866
 30
0.0
 11
597.5705964698995558
 21
75.4027181210407633
 31
0.0
210
0.0
220
1.0
230
0.0
  0
LINE
  5
2D59
  8
0
  6
VERDECKT2
 62
     1
 10
684.0416126996506136
 20
59.6069759113508866
 30
0.0
 11
695.5178911763996439
 21
75.4027181210407633
 31
0.0
210
0.0
220
1.0
230
0.0
  0
ARC
  5
2D5A
  8
0
  6
VERDECKT2
 62
     1
 10
-695.0442438231490314
 20
51.6130964801733327
 30
0.0
 40
13.5999999999993406
210
0.0
220
0.0
230
-1.0
 50
359.9999999999992042
 51
36.0000000000017906
  0
ARC
  5
2D5B
  8
0
  6
VERDECKT2
 62
     1
 10
-598.0442438231501683
 20
51.6130964801733327
 30
0.0
 40
13.5999999999993495
210
0.0
220
0.0
230
-1.0
 50
143.9999999999982094
 51
180.0000000000003979
  0
LINE
  5
2D5C
  8
0
  6
VERDECKT2
 62
     1
 10
612.1623942241462828
 20
-82.5972818789592083
 30
0.0
 11
611.6442438231496226
 21
-76.6747956948725431
 31
0.0
210
0.0
220
1.0
230
0.0
  0
LINE
  5
2D5D
  8
0
  6
VERDECKT2
 62
     1
 10
680.9260934221533716
 20
-82.5972818789592083
 30
0.0
 11
681.4442438231500319
 21
-76.6747956948725431
 31
0.0
210
0.0
220
1.0
230
0.0
  0
LINE
  5
2D5E
  8
0
  6
VERDECKT2
 62
     1
 10
610.6566644678313196
 20
-82.5972818789592083
 30
0.0
 11
610.0442438231498272
 21
-75.5972818789592225
 31
0.0
210
0.0
220
1.0
230
0.0
  0
LINE
  5
2D5F
  8
0
  6
VERDECKT2
 62
     1
 10
682.4318231784683348
 20
-82.5972818789592083
 30
0.0
 11
683.0442438231498272
 21
-75.5972818789592225
 31
0.0
210
0.0
220
1.0
230
0.0
  0
LINE
  5
2D60
  8
0
  6
VERDECKT2
 62
     1
 10
611.6442438231496226
 20
-76.6747956948725431
 30
0.0
 11
611.6442438231496226
 21
51.6130964801731693
 31
0.0
210
0.0
220
1.0
230
0.0
  0
LINE
  5
2D61
  8
0
  6
VERDECKT2
 62
     1
 10
681.4442438231500319
 20
-76.6747956948725431
 30
0.0
 11
681.4442438231500319
 21
51.6130964801731693
 31
0.0
210
0.0
220
1.0
230
0.0
  0
LINE
  5
2D62
  8
0
  6
VERDECKT2
 62
     1
 10
610.0442438231498272
 20
-75.5972818789592225
 30
0.0
 11
610.0442438231498272
 21
51.7832266418435623
 31
0.0
210
0.0
220
1.0
230
0.0
  0
LINE
  5
2D63
  8
0
  6
VERDECKT2
 62
     1
 10
683.0442438231498272
 20
-75.5972818789592225
 30
0.0
 11
683.0442438231498272
 21
51.7832266418435623
 31
0.0
210
0.0
220
1.0
230
0.0
  0
LINE
  5
2D64
  8
0
  6
VERDECKT2
 62
     1
 10
589.5442438231498272
 20
120.402718121040607
 30
0.0
 11
589.5442438231498272
 21
127.402718121040607
 31
0.0
210
0.0
220
1.0
230
0.0
  0
LINE
  5
2D65
  8
0
  6
VERDECKT2
 62
     1
 10
589.5442438231497135
 20
120.402718121040607
 30
0.0
 11
587.5442438231495998
 21
120.402718121040607
 31
0.0
210
0.0
220
1.0
230
0.0
  0
LINE
  5
2D66
  8
0
  6
VERDECKT2
 62
     1
 10
587.5442438231495998
 20
127.402718121040607
 30
0.0
 11
589.5442438231497135
 21
127.402718121040607
 31
0.0
210
0.0
220
1.0
230
0.0
  0
LINE
  5
2D67
  8
0
  6
VERDECKT2
 62
     1
 10
703.5442438231498272
 20
127.402718121040607
 30
0.0
 11
703.5442438231498272
 21
120.402718121040607
 31
0.0
210
0.0
220
1.0
230
0.0
  0
LINE
  5
2D68
  8
0
  6
VERDECKT2
 62
     1
 10
705.5442438231498272
 20
120.402718121040607
 30
0.0
 11
703.5442438231498272
 21
120.402718121040607
 31
0.0
210
0.0
220
1.0
230
0.0
  0
LINE
  5
2D69
  8
0
  6
VERDECKT2
 62
     1
 10
703.5442438231498272
 20
127.402718121040607
 30
0.0
 11
705.5442438231498272
 21
127.402718121040607
 31
0.0
210
0.0
220
1.0
230
0.0
  0
LINE
  5
2D6A
  8
0
  6
VERDECKT2
 62
     1
 10
631.2351497814239565
 20
120.402718121040607
 30
0.0
 11
631.2351497814239565
 21
127.402718121040607
 31
0.0
210
0.0
220
1.0
230
0.0
  0
LINE
  5
2D6B
  8
0
  6
VERDECKT2
 62
     1
 10
604.8533378648761527
 20
127.402718121040607
 30
0.0
 11
604.8533378648761527
 21
120.402718121040607
 31
0.0
210
0.0
220
1.0
230
0.0
  0
LINE
  5
2D6C
  8
0
  6
VERDECKT2
 62
     1
 10
630.4606516881484595
 20
127.402718121040607
 30
0.0
 11
631.2351497814224786
 21
127.402718121040607
 31
0.0
210
0.0
220
1.0
230
0.0
  0
LINE
  5
2D6D
  8
0
  6
VERDECKT2
 62
     1
 10
631.2351497814224786
 20
120.402718121040607
 30
0.0
 11
630.4606516881483458
 21
120.402718121040607
 31
0.0
210
0.0
220
1.0
230
0.0
  0
LINE
  5
2D6E
  8
0
  6
VERDECKT2
 62
     1
 10
596.3583455324253464
 20
74.5181439589740648
 30
0.0
 11
696.730142113873967
 21
74.5181439589740648
 31
0.0
210
0.0
220
1.0
230
0.0
  0
LINE
  5
2D6F
  8
0
  6
VERDECKT2
 62
     1
 10
588.5607280723420445
 20
92.2373698436502281
 30
0.0
 11
704.5277595739574963
 21
92.2373698436502281
 31
0.0
210
0.0
220
1.0
230
0.0
  0
ARC
  5
2D70
  8
0
  6
VERDECKT2
 62
     1
 10
-583.5442438231533515
 20
68.8791017189894461
 30
0.0
 40
13.9999999999964704
210
0.0
220
0.0
230
-1.0
 50
156.2473682960869041
 51
180.0000000000028137
  0
ARC
  5
2D71
  8
0
  6
VERDECKT2
 62
     1
 10
-709.5442438231460756
 20
68.8791017189894319
 30
0.0
 40
13.9999999999962501
210
0.0
220
0.0
230
-1.0
 50
359.9999999999972147
 51
23.7526317039130817
  0
LINE
  5
2D72
  8
0
  6
VERDECKT2
 62
     1
 10
596.3583455324252327
 20
74.5181439589740648
 30
0.0
 11
588.5607280723420445
 21
92.2373698436502849
 31
0.0
210
0.0
220
1.0
230
0.0
  0
LINE
  5
2D73
  8
0
  6
VERDECKT2
 62
     1
 10
696.730142113873967
 20
74.5181439589740222
 30
0.0
 11
704.5277595739574963
 21
92.2373698436502281
 31
0.0
210
0.0
220
1.0
230
0.0
  0
ARC
  5
2D74
  8
0
  6
VERDECKT2
 62
     1
 10
-599.544243823152442
 20
97.0708346207809285
 30
0.0
 40
12.0000000000024905
210
0.0
220
0.0
230
-1.0
 50
336.2473682960940096
 51
359.9999999999980105
  0
ARC
  5
2D75
  8
0
  6
VERDECKT2
 62
     1
 10
-693.5442438231468714
 20
97.0708346207809285
 30
0.0
 40
12.0000000000026095
210
0.0
220
0.0
230
-1.0
 50
180.0000000000019895
 51
203.7526317039059904
  0
LINE
  5
2D76
  8
0
  6
VERDECKT2
 62
     1
 10
705.5442438231498272
 20
135.402718121040607
 30
0.0
 11
705.5442438231498272
 21
127.402718121040607
 31
0.0
210
0.0
220
1.0
230
0.0
  0
LINE
  5
2D77
  8
0
  6
VERDECKT2
 62
     1
 10
705.5442438231498272
 20
120.402718121040607
 30
0.0
 11
705.5442438231498272
 21
97.070834620780488
 31
0.0
210
0.0
220
1.0
230
0.0
  0
LINE
  5
2D78
  8
0
  6
VERDECKT2
 62
     1
 10
587.5442438231498272
 20
135.402718121040607
 30
0.0
 11
587.5442438231498272
 21
127.402718121040607
 31
0.0
210
0.0
220
1.0
230
0.0
  0
LINE
  5
2D79
  8
0
  6
VERDECKT2
 62
     1
 10
587.5442438231498272
 20
120.402718121040607
 30
0.0
 11
587.5442438231498272
 21
97.070834620780488
 31
0.0
210
0.0
220
1.0
230
0.0
  0
LINE
  5
2D7A
  8
0
  6
VERDECKT2
 62
     1
 10
695.5442438231498272
 20
68.8791017189887498
 30
0.0
 11
695.5442438231498272
 21
-84.5972818789592225
 31
0.0
210
0.0
220
1.0
230
0.0
  0
LINE
  5
2D7B
  8
0
  6
VERDECKT2
 62
     1
 10
597.5442438231498272
 20
68.8791017189887498
 30
0.0
 11
597.5442438231498272
 21
-84.5972818789592225
 31
0.0
210
0.0
220
1.0
230
0.0
  0
LINE
  5
2D7C
  8
0
  6
VERDECKT2
 62
     1
 10
671.2356702780732576
 20
127.402718121040607
 30
0.0
 11
664.2356702780732576
 21
122.402718121040607
 31
0.0
210
0.0
220
1.0
230
0.0
  0
LINE
  5
2D7D
  8
0
  6
VERDECKT2
 62
     1
 10
666.8337464894264031
 20
122.402718121040607
 30
0.0
 11
673.8337464894262894
 21
127.402718121040607
 31
0.0
210
0.0
220
1.0
230
0.0
  0
LINE
  5
2D7E
  8
0
  6
VERDECKT2
 62
     1
 10
666.8337464894264031
 20
122.402718121040607
 30
0.0
 11
664.2356702780731439
 21
122.402718121040607
 31
0.0
210
0.0
220
1.0
230
0.0
  0
LINE
  5
2D7F
  8
0
  6
VERDECKT2
 62
     1
 10
664.2356702780731439
 20
122.402718121040607
 30
0.0
 11
660.7356702780731439
 21
122.4027181210407065
 31
0.0
210
0.0
220
1.0
230
0.0
  0
LINE
  5
2D80
  8
0
  6
VERDECKT2
 62
     1
 10
660.7356702780733713
 20
122.4027181210407065
 30
0.0
 11
660.7356702780733713
 21
115.2027181210408031
 31
0.0
210
0.0
220
1.0
230
0.0
  0
LINE
  5
2D81
  8
0
  6
VERDECKT2
 62
     1
 10
663.3337464894264031
 20
115.2027181210407036
 30
0.0
 11
663.3337464894264031
 21
122.402718121040607
 31
0.0
210
0.0
220
1.0
230
0.0
  0
LINE
  5
2D82
  8
0
  6
VERDECKT2
 62
     1
 10
660.7356702780731439
 20
115.2027181210408031
 30
0.0
 11
664.2356702780732576
 21
115.2027181210408031
 31
0.0
210
0.0
220
1.0
230
0.0
  0
LINE
  5
2D83
  8
0
  6
VERDECKT2
 62
     1
 10
666.8337464894265167
 20
115.2027181210408031
 30
0.0
 11
664.2356702780732576
 21
115.2027181210408031
 31
0.0
210
0.0
220
1.0
230
0.0
  0
LINE
  5
2D84
  8
0
  6
VERDECKT2
 62
     1
 10
664.2356702780731439
 20
115.2027181210409026
 30
0.0
 11
671.2356702780731439
 21
110.2027181210409026
 31
0.0
210
0.0
220
1.0
230
0.0
  0
LINE
  5
2D85
  8
0
  6
VERDECKT2
 62
     1
 10
673.8337464894262894
 20
110.2027181210407036
 30
0.0
 11
666.8337464894264031
 21
115.2027181210407036
 31
0.0
210
0.0
220
1.0
230
0.0
  0
LINE
  5
2D86
  8
0
  6
VERDECKT2
 62
     1
 10
671.2356702780731439
 20
110.2027181210408031
 30
0.0
 11
674.7356702780731439
 21
110.2027181210407036
 31
0.0
210
0.0
220
1.0
230
0.0
  0
LINE
  5
2D87
  8
0
  6
VERDECKT2
 62
     1
 10
677.3337464894264031
 20
110.2027181210407036
 30
0.0
 11
674.7356702780731439
 21
110.2027181210407036
 31
0.0
210
0.0
220
1.0
230
0.0
  0
LINE
  5
2D88
  8
0
  6
VERDECKT2
 62
     1
 10
674.7356702780731439
 20
110.2027181210406042
 30
0.0
 11
674.7356702780731439
 21
112.7027181210406042
 31
0.0
210
0.0
220
1.0
230
0.0
  0
LINE
  5
2D89
  8
0
  6
VERDECKT2
 62
     1
 10
677.3337464894264031
 20
112.7027181210407036
 30
0.0
 11
677.3337464894264031
 21
110.2027181210407036
 31
0.0
210
0.0
220
1.0
230
0.0
  0
LINE
  5
2D8A
  8
0
  6
VERDECKT2
 62
     1
 10
677.3337464894264031
 20
112.7027181210407036
 30
0.0
 11
674.7356702780731439
 21
112.7027181210407036
 31
0.0
210
0.0
220
1.0
230
0.0
  0
LINE
  5
2D8B
  8
0
  6
VERDECKT2
 62
     1
 10
674.7356702780731439
 20
112.7027181210407036
 30
0.0
 11
673.7356702780731439
 21
113.8574186594200057
 31
0.0
210
0.0
220
1.0
230
0.0
  0
LINE
  5
2D8C
  8
0
  6
VERDECKT2
 62
     1
 10
676.3337464894264031
 20
113.8574186594200057
 30
0.0
 11
677.3337464894264031
 21
112.7027181210407036
 31
0.0
210
0.0
220
1.0
230
0.0
  0
LINE
  5
2D8D
  8
0
  6
VERDECKT2
 62
     1
 10
676.3337464894264031
 20
113.8574186594200057
 30
0.0
 11
673.7356702780731439
 21
113.8574186594200057
 31
0.0
210
0.0
220
1.0
230
0.0
  0
LINE
  5
2D8E
  8
0
  6
VERDECKT2
 62
     1
 10
673.7356702780731439
 20
113.8574186594200057
 30
0.0
 11
673.7356702780731439
 21
123.7480175826614044
 31
0.0
210
0.0
220
1.0
230
0.0
  0
LINE
  5
2D8F
  8
0
  6
VERDECKT2
 62
     1
 10
676.3337464894264031
 20
123.7480175826613049
 30
0.0
 11
676.3337464894264031
 21
113.8574186594199062
 31
0.0
210
0.0
220
1.0
230
0.0
  0
LINE
  5
2D90
  8
0
  6
VERDECKT2
 62
     1
 10
676.3337464894264031
 20
123.7480175826613049
 30
0.0
 11
673.7356702780731439
 21
123.7480175826613049
 31
0.0
210
0.0
220
1.0
230
0.0
  0
LINE
  5
2D91
  8
0
  6
VERDECKT2
 62
     1
 10
673.7356702780731439
 20
123.7480175826614044
 30
0.0
 11
674.7356702780731439
 21
124.902718121040806
 31
0.0
210
0.0
220
1.0
230
0.0
  0
LINE
  5
2D92
  8
0
  6
VERDECKT2
 62
     1
 10
677.3337464894264031
 20
124.902718121040607
 30
0.0
 11
676.3337464894264031
 21
123.7480175826613049
 31
0.0
210
0.0
220
1.0
230
0.0
  0
LINE
  5
2D93
  8
0
  6
VERDECKT2
 62
     1
 10
677.3337464894264031
 20
124.902718121040607
 30
0.0
 11
674.7356702780732576
 21
124.902718121040607
 31
0.0
210
0.0
220
1.0
230
0.0
  0
LINE
  5
2D94
  8
0
  6
VERDECKT2
 62
     1
 10
674.7356702780731439
 20
124.902718121040806
 30
0.0
 11
674.7356702780731439
 21
127.402718121040806
 31
0.0
210
0.0
220
1.0
230
0.0
  0
LINE
  5
2D95
  8
0
  6
VERDECKT2
 62
     1
 10
677.3337464894264031
 20
127.402718121040607
 30
0.0
 11
677.3337464894264031
 21
124.902718121040607
 31
0.0
210
0.0
220
1.0
230
0.0
  0
LINE
  5
2D96
  8
0
  6
VERDECKT2
 62
     1
 10
677.3337464894264031
 20
127.402718121040607
 30
0.0
 11
674.7356702780732576
 21
127.402718121040607
 31
0.0
210
0.0
220
1.0
230
0.0
  0
LINE
  5
2D97
  8
0
  6
VERDECKT2
 62
     1
 10
674.7356702780731439
 20
127.402718121040806
 30
0.0
 11
671.2356702780731439
 21
127.402718121040607
 31
0.0
210
0.0
220
1.0
230
0.0
  0
ENDBLK
  5
2D99
  8
0
  0
BLOCK
  8
0
  2
A$C42EE4028
 70
     0
 10
0.0
 20
0.0
 30
0.0
  3
A$C42EE4028
  1

  0
ARC
  5
2D9D
  8
0
  6
CONTINUOUS
 62
     3
 10
525.4844712966296356
 20
319.5113811752012793
 30
0.0
 40
50.1871728448123875
 50
180.0
 51
298.2872820859324747
  0
ARC
  5
2D9E
  8
0
  6
CONTINUOUS
 62
     3
 10
525.4844712966296356
 20
319.5113811752012793
 30
0.0
 40
50.1871728448123733
 50
301.7127179140675253
 51
58.2872820859324676
  0
ARC
  5
2D9F
  8
0
  6
CONTINUOUS
 62
     3
 10
525.4844712966296356
 20
319.5113811752012793
 30
0.0
 40
50.1871728448123733
 50
61.7127179140677882
 51
180.0
  0
ARC
  5
2DA0
  8
0
  6
CONTINUOUS
 62
     3
 10
525.4844712966296356
 20
319.5113811752012793
 30
0.0
 40
48.9736473532500227
 50
180.0
 51
298.2448292674503136
  0
ARC
  5
2DA1
  8
0
  6
CONTINUOUS
 62
     3
 10
525.4844712966296356
 20
319.5113811752012793
 30
0.0
 40
48.9736473532500511
 50
301.7551707325500274
 51
58.2448292674500081
  0
ARC
  5
2DA2
  8
0
  6
CONTINUOUS
 62
     3
 10
525.4844712966296356
 20
319.5113811752012793
 30
0.0
 40
48.9736473532500511
 50
61.7551707325502974
 51
180.0
  0
ARC
  5
2DA3
  8
0
  6
CONTINUOUS
 62
     3
 10
525.4844712966296356
 20
319.5113811752012793
 30
0.0
 40
37.4973688765008575
 50
180.0
 51
297.7073962815230175
  0
ARC
  5
2DA4
  8
0
  6
CONTINUOUS
 62
     3
 10
525.4844712966296356
 20
319.5113811752012793
 30
0.0
 40
37.4973688765008717
 50
302.2926037184772099
 51
57.7073962815228825
  0
ARC
  5
2DA5
  8
0
  6
CONTINUOUS
 62
     3
 10
525.4844712966296356
 20
319.5113811752012793
 30
0.0
 40
37.4973688765008575
 50
62.2926037184770109
 51
180.0
  0
ARC
  5
2DA6
  8
0
  6
CONTINUOUS
 62
     3
 10
525.4844712966296356
 20
319.5113811752012793
 30
0.0
 40
34.9000000000000483
 50
180.0
 51
297.536671875024922
  0
ARC
  5
2DA7
  8
0
  6
CONTINUOUS
 62
     3
 10
525.4844712966296356
 20
319.5113811752012793
 30
0.0
 40
34.9000000000000625
 50
302.4633281249754191
 51
57.5366718750246022
  0
ARC
  5
2DA8
  8
0
  6
CONTINUOUS
 62
     3
 10
525.4844712966296356
 20
319.5113811752012793
 30
0.0
 40
34.9000000000000483
 50
62.4633281249752486
 51
180.0
  0
ARC
  5
2DA9
  8
0
  6
CONTINUOUS
 62
     3
 10
525.4844712966296356
 20
319.5113811752012793
 30
0.0
 40
34.3818495990034876
 50
180.0
 51
297.4995249682739882
  0
ARC
  5
2DAA
  8
0
  6
CONTINUOUS
 62
     3
 10
525.4844712966296356
 20
319.5113811752012793
 30
0.0
 40
34.3818495990034734
 50
302.500475031726296
 51
57.49952496827391
  0
ARC
  5
2DAB
  8
0
  6
CONTINUOUS
 62
     3
 10
525.4844712966296356
 20
319.5113811752012793
 30
0.0
 40
34.3818495990035018
 50
62.5004750317264879
 51
180.0
  0
LINE
  5
2DAC
  8
0
  6
CONTINUOUS
 62
     3
 10
510.1753772549029122
 20
376.490602296778377
 30
0.0
 11
483.7935653383564159
 21
361.2590560850501902
 31
0.0
  0
LINE
  5
2DAD
  8
0
  6
CONTINUOUS
 62
     3
 10
468.4844712966296925
 20
334.7429273869296935
 30
0.0
 11
468.4844712966295788
 21
304.2798349634733768
 31
0.0
  0
LINE
  5
2DAE
  8
0
  6
CONTINUOUS
 62
     3
 10
582.4844712966296356
 20
304.2798349634733768
 30
0.0
 11
582.4844712966296356
 21
334.7429273869292956
 31
0.0
  0
LINE
  5
2DAF
  8
0
  6
CONTINUOUS
 62
     3
 10
483.7935653383568138
 20
277.7637062653524254
 30
0.0
 11
510.175377254902628
 21
262.5321600536245796
 31
0.0
  0
CIRCLE
  5
2DB0
  8
0
  6
CONTINUOUS
 62
     3
 10
525.4844712966296356
 20
319.5113811752012793
 30
0.0
 40
61.0
  0
CIRCLE
  5
2DB1
  8
0
  6
CONTINUOUS
 62
     3
 10
525.4844712966296356
 20
319.5113811752012793
 30
0.0
 40
59.0000000000000995
  0
ARC
  5
2DB2
  8
0
  6
CONTINUOUS
 62
     3
 10
525.4844712966289535
 20
319.5113811752016773
 30
0.0
 40
57.9835157508071504
 50
130.5679758077986889
 51
169.4320241922009131
  0
ARC
  5
2DB3
  8
0
  6
CONTINUOUS
 62
     3
 10
525.4844712966296356
 20
319.5113811752012793
 30
0.0
 40
57.9835157508077614
 50
61.4823740336323112
 51
109.4320241922007995
  0
ARC
  5
2DB4
  8
0
  6
CONTINUOUS
 62
     3
 10
525.4844712966289535
 20
319.5113811752012225
 30
0.0
 40
57.983515750808067
 50
10.5679758077990602
 51
58.5176259663674188
  0
ARC
  5
2DB5
  8
0
  6
CONTINUOUS
 62
     3
 10
525.4844712966289535
 20
319.5113811752016773
 30
0.0
 40
57.9835157508081593
 50
301.4823740336324818
 51
349.4320241922009131
  0
ARC
  5
2DB6
  8
0
  6
CONTINUOUS
 62
     3
 10
525.4844712966296356
 20
319.5113811752012225
 30
0.0
 40
57.9835157508075625
 50
250.5679758077997121
 51
298.5176259663676888
  0
ARC
  5
2DB7
  8
0
  6
CONTINUOUS
 62
     3
 10
525.4844712966297493
 20
319.5113811752016204
 30
0.0
 40
57.9835157508079604
 50
190.5679758077986037
 51
229.4320241922000889
  0
LINE
  5
2DB8
  8
0
  6
CONTINUOUS
 62
     3
 10
550.1758977515531797
 20
365.2781863064789718
 30
0.0
 11
543.175897751553066
 21
353.1538306534969252
 31
0.0
  0
LINE
  5
2DB9
  8
0
  6
CONTINUOUS
 62
     3
 10
545.7739739629064388
 20
351.6538306534969252
 30
0.0
 11
543.175897751553066
 21
353.1538306534970957
 31
0.0
  0
LINE
  5
2DBA
  8
0
  6
CONTINUOUS
 62
     3
 10
545.7739739629064388
 20
351.6538306534969252
 30
0.0
 11
552.7739739629064388
 21
363.7781863064789718
 31
0.0
  0
LINE
  5
2DBB
  8
0
  6
CONTINUOUS
 62
     3
 10
552.7739739629064388
 20
363.7781863064788013
 30
0.0
 11
550.1758977515529523
 21
365.278186306478915
 31
0.0
  0
LINE
  5
2DBC
  8
0
  6
CONTINUOUS
 62
     3
 10
543.175897751553066
 20
353.1538306534968115
 30
0.0
 11
539.6758977515529523
 21
347.0916528270058734
 31
0.0
  0
LINE
  5
2DBD
  8
0
  6
CONTINUOUS
 62
     3
 10
542.2739739629064388
 20
345.5916528270058734
 30
0.0
 11
539.6758977515529523
 21
347.0916528270058734
 31
0.0
  0
LINE
  5
2DBE
  8
0
  6
CONTINUOUS
 62
     3
 10
542.2739739629064388
 20
345.5916528270058734
 30
0.0
 11
545.7739739629064388
 21
351.6538306534968115
 31
0.0
  0
LINE
  5
2DBF
  8
0
  6
CONTINUOUS
 62
     3
 10
556.2739739629064388
 20
369.8403641329700235
 30
0.0
 11
553.6758977515529523
 21
371.3403641329700235
 31
0.0
  0
LINE
  5
2DC0
  8
0
  6
CONTINUOUS
 62
     3
 10
553.6758977515529523
 20
371.3403641329700235
 30
0.0
 11
550.1758977515529523
 21
365.278186306478915
 31
0.0
  0
LINE
  5
2DC1
  8
0
  6
CONTINUOUS
 62
     3
 10
552.7739739629064388
 20
363.7781863064788013
 30
0.0
 11
556.2739739629064388
 21
369.8403641329700235
 31
0.0
  0
LINE
  5
2DC2
  8
0
  6
CONTINUOUS
 62
     3
 10
550.1758977515531797
 20
273.7445760439238143
 30
0.0
 11
543.175897751553066
 21
285.8689316969059178
 31
0.0
  0
LINE
  5
2DC3
  8
0
  6
CONTINUOUS
 62
     3
 10
552.7739739629064388
 20
275.244576043923928
 30
0.0
 11
550.1758977515529523
 21
273.744576043923928
 31
0.0
  0
LINE
  5
2DC4
  8
0
  6
CONTINUOUS
 62
     3
 10
545.7739739629064388
 20
287.3689316969059178
 30
0.0
 11
552.7739739629064388
 21
275.2445760439238143
 31
0.0
  0
LINE
  5
2DC5
  8
0
  6
CONTINUOUS
 62
     3
 10
545.7739739629064388
 20
287.3689316969059178
 30
0.0
 11
543.175897751553066
 21
285.8689316969059178
 31
0.0
  0
LINE
  5
2DC6
  8
0
  6
CONTINUOUS
 62
     3
 10
543.175897751553066
 20
285.8689316969059746
 30
0.0
 11
539.6758977515529523
 21
291.9311095233970832
 31
0.0
  0
LINE
  5
2DC7
  8
0
  6
CONTINUOUS
 62
     3
 10
542.2739739629064388
 20
293.4311095233970832
 30
0.0
 11
545.7739739629064388
 21
287.3689316969059178
 31
0.0
  0
LINE
  5
2DC8
  8
0
  6
CONTINUOUS
 62
     3
 10
542.2739739629064388
 20
293.4311095233970832
 30
0.0
 11
539.6758977515529523
 21
291.9311095233970832
 31
0.0
  0
LINE
  5
2DC9
  8
0
  6
CONTINUOUS
 62
     3
 10
556.2739739629064388
 20
269.1823982174328762
 30
0.0
 11
553.6758977515529523
 21
267.6823982174329899
 31
0.0
  0
LINE
  5
2DCA
  8
0
  6
CONTINUOUS
 62
     3
 10
553.6758977515529523
 20
267.6823982174329899
 30
0.0
 11
550.1758977515529523
 21
273.7445760439240985
 31
0.0
  0
LINE
  5
2DCB
  8
0
  6
CONTINUOUS
 62
     3
 10
552.7739739629064388
 20
275.244576043923928
 30
0.0
 11
556.2739739629064388
 21
269.1823982174327057
 31
0.0
  0
CIRCLE
  5
2DCC
  8
0
  6
VERDECKT2
 62
     1
 10
525.4844712966296356
 20
319.5113811752012793
 30
0.0
 40
38.7917960675007691
  0
CIRCLE
  5
2DCD
  8
0
  6
VERDECKT2
 62
     1
 10
525.4844712966296356
 20
319.5113811752012793
 30
0.0
 40
36.5000000000000568
  0
ARC
  5
2DCE
  8
0
  6
VERDECKT2
 62
     1
 10
525.4844712966325915
 20
319.5113811751961066
 30
0.0
 40
50.1871728448063621
 50
298.2872820859320768
 51
301.7127179140679232
  0
ARC
  5
2DCF
  8
0
  6
VERDECKT2
 62
     1
 10
525.4844712966145153
 20
319.5113811751753019
 30
0.0
 40
50.1871728448424719
 50
58.2872820859333629
 51
61.7127179140668787
  0
ARC
  5
2DD0
  8
0
  6
VERDECKT2
 62
     1
 10
525.4844712966284987
 20
319.5113811752037236
 30
0.0
 40
48.9736473532526517
 50
298.2448292674495747
 51
301.7551707325496864
  0
ARC
  5
2DD1
  8
0
  6
VERDECKT2
 62
     1
 10
525.484471296626225
 20
319.5113811751951971
 30
0.0
 40
48.9736473532569718
 50
58.2448292674503421
 51
61.7551707325501198
  0
ARC
  5
2DD2
  8
0
  6
VERDECKT2
 62
     1
 10
525.4844712966289535
 20
319.5113811752028141
 30
0.0
 40
37.4973688765024704
 50
297.707396281523188
 51
302.2926037184772099
  0
ARC
  5
2DD3
  8
0
  6
VERDECKT2
 62
     1
 10
525.4844712966289535
 20
319.5113811752007109
 30
0.0
 40
37.4973688765017314
 50
57.7073962815228825
 51
62.2926037184770109
  0
ARC
  5
2DD4
  8
0
  6
VERDECKT2
 62
     1
 10
525.4844712966314546
 20
319.5113811751979824
 30
0.0
 40
34.8999999999962611
 50
297.5366718750246946
 51
302.463328124975817
  0
ARC
  5
2DD5
  8
0
  6
VERDECKT2
 62
     1
 10
525.4844712966256566
 20
319.5113811751945718
 30
0.0
 40
34.9000000000079211
 50
57.5366718750251422
 51
62.4633281249747014
  0
CIRCLE
  5
2DD6
  8
0
  6
VERDECKT2
 62
     1
 10
525.4844712966296356
 20
319.5113811752012793
 30
0.0
 40
35.8875793553185076
  0
ARC
  5
2DD7
  8
0
  6
VERDECKT2
 62
     1
 10
525.4844712966296356
 20
319.5113811752012793
 30
0.0
 40
34.3818495990034023
 50
297.4995249682739882
 51
302.500475031726296
  0
ARC
  5
2DD8
  8
0
  6
VERDECKT2
 62
     1
 10
525.4844712966272482
 20
319.5113811751975277
 30
0.0
 40
34.3818495990079924
 50
57.49952496827391
 51
62.5004750317259479
  0
LINE
  5
2DD9
  8
0
  6
VERDECKT2
 62
     1
 10
466.4844712966295788
 20
335.0033145600310149
 30
0.0
 11
466.4844712966295788
 21
319.5113811752016204
 31
0.0
  0
LINE
  5
2DDA
  8
0
  6
VERDECKT2
 62
     1
 10
466.4844712966295788
 20
319.5113811752012793
 30
0.0
 11
466.4844712966295788
 21
304.019447790371828
 31
0.0
  0
LINE
  5
2DDB
  8
0
  6
VERDECKT2
 62
     1
 10
584.4844712966295219
 20
304.0194477903713164
 30
0.0
 11
584.4844712966296356
 21
319.5113811752012225
 31
0.0
  0
LINE
  5
2DDC
  8
0
  6
VERDECKT2
 62
     1
 10
584.4844712966296356
 20
319.5113811752012225
 30
0.0
 11
584.4844712966296356
 21
335.0033145600310149
 31
0.0
  0
LINE
  5
2DDD
  8
0
  6
VERDECKT2
 62
     1
 10
509.4008791616290068
 20
378.352846690898275
 30
0.0
 11
495.9844712966295788
 21
370.606879998483123
 31
0.0
  0
LINE
  5
2DDE
  8
0
  6
VERDECKT2
 62
     1
 10
495.9844712966295788
 20
370.606879998483123
 30
0.0
 11
482.5680634316303781
 21
362.8609133060680279
 31
0.0
  0
LINE
  5
2DDF
  8
0
  6
VERDECKT2
 62
     1
 10
482.568063431630776
 20
276.161849044334474
 30
0.0
 11
495.9844712966295788
 21
268.4158823519197199
 31
0.0
  0
LINE
  5
2DE0
  8
0
  6
VERDECKT2
 62
     1
 10
495.9844712966295788
 20
268.4158823519196062
 30
0.0
 11
509.4008791616284952
 21
260.6699156595047953
 31
0.0
  0
CIRCLE
  5
2DE1
  8
0
  6
VERDECKT2
 62
     1
 10
525.4844712966296356
 20
319.5113811752012793
 30
0.0
 40
48.9999999999999503
  0
CIRCLE
  5
2DE2
  8
0
  6
VERDECKT2
 62
     1
 10
525.4844712966296356
 20
319.5113811752012793
 30
0.0
 40
50.1858982907243103
  0
ARC
  5
2DE3
  8
0
  6
VERDECKT2
 62
     1
 10
525.4844712966221323
 20
319.5113811752020183
 30
0.0
 40
57.9835157508001515
 50
169.4320241922000037
 51
180.0000000000003979
  0
ARC
  5
2DE4
  8
0
  6
VERDECKT2
 62
     1
 10
525.4844712966296356
 20
319.5113811752012793
 30
0.0
 40
57.9835157508077828
 50
109.4320241922007995
 51
130.5679758077992005
  0
ARC
  5
2DE5
  8
0
  6
VERDECKT2
 62
     1
 10
525.4844712966387306
 20
319.5113811752177071
 30
0.0
 40
57.9835157507888894
 50
58.5176259663668716
 51
61.4823740336326665
  0
ARC
  5
2DE6
  8
0
  6
VERDECKT2
 62
     1
 10
525.4844712966297493
 20
319.5113811752016204
 30
0.0
 40
57.9835157508074417
 50
349.4320241922013111
 51
10.5679758077986605
  0
ARC
  5
2DE7
  8
0
  6
VERDECKT2
 62
     1
 10
525.4844712966390716
 20
319.5113811751846242
 30
0.0
 40
57.9835157507883565
 50
298.5176259663674045
 51
301.4823740336328797
  0
ARC
  5
2DE8
  8
0
  6
VERDECKT2
 62
     1
 10
525.4844712966303177
 20
319.5113811752027004
 30
0.0
 40
57.9835157508091115
 50
229.4320241922007995
 51
250.5679758077997121
  0
ARC
  5
2DE9
  8
0
  6
VERDECKT2
 62
     1
 10
525.4844712966305451
 20
319.5113811752016204
 30
0.0
 40
57.9835157508085715
 50
180.0
 51
190.5679758077986037
  0
CIRCLE
  5
2DEA
  8
0
  6
VERDECKT2
 62
     1
 10
525.4844712966296356
 20
319.5113811752012793
 30
0.0
 40
59.8141017092756329
  0
CIRCLE
  5
2DEB
  8
0
  6
VERDECKT2
 62
     1
 10
525.4844712966296356
 20
319.5113811752012793
 30
0.0
 40
52.0164842491922599
  0
CIRCLE
  5
2DEC
  8
0
  6
VERDECKT2
 62
     1
 10
525.4844712966296356
 20
319.5113811752012793
 30
0.0
 40
51.0
  0
LINE
  5
2DED
  8
0
  6
VERDECKT2
 62
     1
 10
555.2739739629064388
 20
368.1083133254011273
 30
0.0
 11
552.6758977515529523
 21
369.6083133254011273
 31
0.0
  0
LINE
  5
2DEE
  8
0
  6
VERDECKT2
 62
     1
 10
555.2739739629064388
 20
270.9144490250017157
 30
0.0
 11
552.6758977515529523
 21
269.4144490250017157
 31
0.0
  0
ENDBLK
  5
2DF0
  8
0
  0
ENDSEC
  0
SECTION
  2
ENTITIES
  0
TEXT
  5
8E
  8
VOLL
 10
78.076754716981128
 20
31.025947764705851
 30
0.0
 40
1.8
  1

  7
GREEKS
  0
INSERT
  5
247E
  8
ADSK_ASSOC_ENTITY_BACKUPS
  2
*U2
 10
0.0
 20
0.0
 30
0.0
  0
INSERT
  5
2EFF
  8
BEM
  2
A$C4B931018
 10
-585.5442432000145345
 20
257.9203762636608985
 30
0.0
  0
INSERT
  5
2F00
  8
BEM
  2
A$C42EE4028
 10
-464.4844706734942861
 20
-258.5113810940218855
 30
0.0
  0
VIEWPORT
  5
228B
 67
     1
  8
0
 10
123.020041419699794
 20
81.8922917858995874
 30
0.0
 40
2449.5053081105670572
 41
957.5932751173572797
 68
     1
 69
     1
1001
ACAD
1000
MVIEW
1002
{
1070
    16
1010
0.0
1020
0.0
1030
0.0
1010
0.0
1020
0.0
1030
1.0
1040
0.0
1040
957.5932751173572797
1040
123.020041419699794
1040
81.8922917858995874
1040
50.0
1040
0.0
1040
0.0
1070
     0
1070
  1500
1070
     1
1070
     1
1070
     0
1070
     0
1070
     0
1070
     0
1040
0.0
1040
0.0
1040
0.0
1040
10.0
1040
10.0
1040
10.0
1040
10.0
1070
     0
1002
{
1002
}
1002
}
  0
ENDSEC
  0
EOF
