  0
SECTION
  2
HEADER
  9
$ACADVER
  1
AC1009
  9
$INSBASE
 10
0.0
 20
0.0
 30
0.0
  9
$EXTMIN
 10
-1.0832656052318721
 20
-0.0128164049386896
 30
-0.0141953685006229
  9
$EXTMAX
 10
101.2045789030277945
 20
359.7711190718355283
 30
0.0132515214162368
  9
$LIMMIN
 10
0.0
 20
0.0
  9
$LIMMAX
 10
297.0
 20
420.0
  9
$ORTHOMODE
 70
     1
  9
$REGENMODE
 70
     1
  9
$FILLMODE
 70
     1
  9
$QTEXTMODE
 70
     0
  9
$MIRRTEXT
 70
     1
  9
$DRAGMODE
 70
     2
  9
$LTSCALE
 40
20.0
  9
$OSMODE
 70
    39
  9
$ATTMODE
 70
     1
  9
$TEXTSIZE
 40
3.5
  9
$TRACEWID
 40
0.5
  9
$TEXTSTYLE
  7
STANDARD
  9
$CLAYER
  8
BEM
  9
$CELTYPE
  6
BYLAYER
  9
$CECOLOR
 62
   256
  9
$DIMSCALE
 40
2.0
  9
$DIMASZ
 40
3.5
  9
$DIMEXO
 40
1.0
  9
$DIMDLI
 40
7.0
  9
$DIMRND
 40
0.0
  9
$DIMDLE
 40
0.0
  9
$DIMEXE
 40
1.0
  9
$DIMTP
 40
5.0
  9
$DIMTM
 40
2.0
  9
$DIMTXT
 40
3.5
  9
$DIMCEN
 40
1.5
  9
$DIMTSZ
 40
0.0
  9
$DIMTOL
 70
     0
  9
$DIMLIM
 70
     0
  9
$DIMTIH
 70
     0
  9
$DIMTOH
 70
     0
  9
$DIMSE1
 70
     0
  9
$DIMSE2
 70
     0
  9
$DIMTAD
 70
     1
  9
$DIMZIN
 70
     8
  9
$DIMBLK
  1

  9
$DIMASO
 70
     1
  9
$DIMSHO
 70
     0
  9
$DIMPOST
  1

  9
$DIMAPOST
  1

  9
$DIMALT
 70
     0
  9
$DIMALTD
 70
     2
  9
$DIMALTF
 40
25.3999999999999986
  9
$DIMLFAC
 40
1.0
  9
$DIMTOFL
 70
     1
  9
$DIMTVP
 40
0.0
  9
$DIMTIX
 70
     0
  9
$DIMSOXD
 70
     0
  9
$DIMSAH
 70
     0
  9
$DIMBLK1
  1

  9
$DIMBLK2
  1

  9
$DIMSTYLE
  2
STANDARD
  9
$DIMCLRD
 70
     0
  9
$DIMCLRE
 70
     0
  9
$DIMCLRT
 70
     1
  9
$DIMTFAC
 40
0.5
  9
$DIMGAP
 40
1.5
  9
$LUNITS
 70
     2
  9
$LUPREC
 70
     2
  9
$SKETCHINC
 40
1.0
  9
$FILLETRAD
 40
0.0
  9
$AUNITS
 70
     0
  9
$AUPREC
 70
     0
  9
$MENU
  1
ACAD
  9
$ELEVATION
 40
0.0
  9
$PELEVATION
 40
0.0
  9
$THICKNESS
 40
0.0
  9
$LIMCHECK
 70
     0
  9
$BLIPMODE
 70
     0
  9
$CHAMFERA
 40
0.0
  9
$CHAMFERB
 40
0.0
  9
$SKPOLY
 70
     0
  9
$TDCREATE
 40
2452545.4519097218289971
  9
$TDUPDATE
 40
2458418.2828009258955717
  9
$TDINDWG
 40
0.2444471296
  9
$TDUSRTIMER
 40
0.2444471296
  9
$USRTIMER
 70
     1
  9
$ANGBASE
 50
0.0
  9
$ANGDIR
 70
     0
  9
$PDMODE
 70
     0
  9
$PDSIZE
 40
0.0
  9
$PLINEWID
 40
0.0
  9
$COORDS
 70
     1
  9
$SPLFRAME
 70
     0
  9
$SPLINETYPE
 70
     6
  9
$SPLINESEGS
 70
     8
  9
$ATTDIA
 70
     1
  9
$ATTREQ
 70
     1
  9
$HANDLING
 70
     1
  9
$HANDSEED
  5
29AF
  9
$SURFTAB1
 70
     6
  9
$SURFTAB2
 70
     6
  9
$SURFTYPE
 70
     6
  9
$SURFU
 70
     6
  9
$SURFV
 70
     6
  9
$UCSNAME
  2

  9
$UCSORG
 10
0.0
 20
0.0
 30
0.0
  9
$UCSXDIR
 10
1.0
 20
0.0
 30
0.0
  9
$UCSYDIR
 10
0.0
 20
1.0
 30
0.0
  9
$PUCSNAME
  2

  9
$PUCSORG
 10
0.0
 20
0.0
 30
0.0
  9
$PUCSXDIR
 10
1.0
 20
0.0
 30
0.0
  9
$PUCSYDIR
 10
0.0
 20
1.0
 30
0.0
  9
$USERI1
 70
     0
  9
$USERI2
 70
     0
  9
$USERI3
 70
     0
  9
$USERI4
 70
     0
  9
$USERI5
 70
     0
  9
$USERR1
 40
0.0
  9
$USERR2
 40
0.0
  9
$USERR3
 40
0.0
  9
$USERR4
 40
0.0
  9
$USERR5
 40
0.0
  9
$WORLDVIEW
 70
     1
  9
$SHADEDGE
 70
     3
  9
$SHADEDIF
 70
    70
  9
$TILEMODE
 70
     1
  9
$MAXACTVP
 70
    16
  9
$PLIMCHECK
 70
     0
  9
$PEXTMIN
 10
-190.7325494772979084
 20
-278.4194760494393108
 30
-0.0000000000000129
  9
$PEXTMAX
 10
229.3039487931459917
 20
315.6190926430688251
 30
0.0000000000000023
  9
$PLIMMIN
 10
-0.2500002402958907
 20
-0.2499999962453767
  9
$PLIMMAX
 10
10.7499995194082203
 20
8.2499997634587334
  9
$UNITMODE
 70
     0
  9
$VISRETAIN
 70
     0
  9
$PLINEGEN
 70
     0
  9
$PSLTSCALE
 70
     0
  0
ENDSEC
  0
SECTION
  2
TABLES
  0
TABLE
  2
VPORT
 70
     1
  0
VPORT
  2
*ACTIVE
 70
     0
 10
0.0
 20
0.0
 11
1.0
 21
1.0
 12
50.0606566488979681
 22
179.8791513334483909
 13
0.0
 23
0.0
 14
1.0
 24
1.0
 15
10.0
 25
10.0
 16
-0.0000000000000012
 26
0.0
 36
5.5852494427615742
 17
0.0
 27
0.0
 37
0.0
 40
362.6583743753902809
 41
2.0800000000000001
 42
50.0
 43
0.0
 44
0.0
 50
0.0
 51
0.0
 71
     0
 72
  1500
 73
     1
 74
     0
 75
     0
 76
     0
 77
     0
 78
     0
  0
ENDTAB
  0
TABLE
  2
LTYPE
 70
     2
  0
LTYPE
  2
CONTINUOUS
 70
     0
  3
Solid line
 72
    65
 73
     0
 40
0.0
  0
LTYPE
  2
VERDECKT2
 70
     0
  3
Verdeckt (.5x) _ _ _ _ _ _ _ _ _ _ _ _ _ _ _ _ 
 72
    65
 73
     2
 40
0.1875
 49
0.125
 49
-0.0625
  0
ENDTAB
  0
TABLE
  2
LAYER
 70
     5
  0
LAYER
  2
0
 70
     0
 62
     7
  6
CONTINUOUS
  0
LAYER
  2
BEM
 70
     0
 62
     7
  6
CONTINUOUS
  0
LAYER
  2
VOLL
 70
     0
 62
     1
  6
CONTINUOUS
  0
LAYER
  2
DEFPOINTS
 70
     0
 62
     7
  6
CONTINUOUS
  0
LAYER
  2
ADSK_ASSOC_ENTITY_BACKUPS
 70
     1
 62
    -7
  6
CONTINUOUS
  0
ENDTAB
  0
TABLE
  2
STYLE
 70
     3
  0
STYLE
  2
STANDARD
 70
     0
 40
0.0
 41
0.8
 50
0.0
 71
     0
 42
3.5
  3
simplex.shx
  4

  0
STYLE
  2
ANNOTATIVE
 70
     0
 40
0.0
 41
1.0
 50
0.0
 71
     0
 42
0.2
  3
txt
  4

  0
STYLE
  2
GREEKS
 70
     0
 40
0.0
 41
0.8
 50
0.0
 71
     0
 42
3.5
  3
SIMPLEX.shx
  4

  0
ENDTAB
  0
TABLE
  2
VIEW
 70
     0
  0
ENDTAB
  0
TABLE
  2
UCS
 70
     0
  0
ENDTAB
  0
TABLE
  2
APPID
 70
    22
  0
APPID
  2
ACAD
 70
     0
  0
APPID
  2
ACADANNOTATIVE
 70
     0
  0
APPID
  2
ACAD_NAV_VCDISPLAY
 70
     0
  0
APPID
  2
ACAD_PSEXT
 70
     0
  0
APPID
  2
ACAECLAYERSTANDARD
 70
     0
  0
APPID
  2
ACCMTRANSPARENCY
 70
     0
  0
APPID
  2
ACAD_EXEMPT_FROM_CAD_STANDARDS
 70
     0
  0
APPID
  2
ACAD_MLEADERVER
 70
     0
  0
APPID
  2
ACAD_OBJECT_CHANGE_GUID
 70
     0
  0
APPID
  2
ACSYNERGY
 70
     0
  0
APPID
  2
SYNERGY_BODY_TBR_ID
 70
     0
  0
APPID
  2
ACAD_VIEW_EDGE_ID
 70
     0
  0
APPID
  2
ACSYNERGYSKETCH
 70
     0
  0
APPID
  2
ACAD_STEPID
 70
     0
  0
APPID
  2
ACAD_MODELDOC_XFORM
 70
     0
  0
APPID
  2
ACAD_DSTYLE_DIMJAG
 70
     0
  0
APPID
  2
ACAD_DSTYLE_DIMTALN
 70
     0
  0
APPID
  2
ACAD_DIMASSOC_CALC_DIMLFAC
 70
     0
  0
APPID
  2
ACAD_DIMASSOC_DIMLFAC
 70
     0
  0
APPID
  2
ACAD_DIMASSOC_OVERRIDDEN_D
 70
     0
  0
APPID
  2
ACADANNOMONITORALERTICONDI
 70
     0
  0
APPID
  2
ACAD_ASSOCPERSSUBENTMANAGER
 70
     0
  0
ENDTAB
  0
TABLE
  2
DIMSTYLE
 70
     2
  0
DIMSTYLE
  2
STANDARD
 70
     0
  3

  4

  5

  6

  7

 40
1.0
 41
0.18
 42
0.0625
 43
0.38
 44
0.18
 45
0.0
 46
0.0
 47
0.0
 48
0.0
140
0.18
141
0.09
142
0.0
143
25.3999999999999986
144
1.0
145
0.0
146
1.0
147
0.09
 71
     0
 72
     0
 73
     1
 74
     1
 75
     0
 76
     0
 77
     0
 78
     0
170
     0
171
     2
172
     0
173
     0
174
     0
175
     0
176
     0
177
     0
178
     0
  0
DIMSTYLE
  2
ANNOTATIVE
 70
     0
  3

  4

  5

  6

  7

 40
1.0
 41
0.18
 42
0.0625
 43
0.38
 44
0.18
 45
0.0
 46
0.0
 47
0.0
 48
0.0
140
0.18
141
0.09
142
0.0
143
25.3999999999999986
144
1.0
145
0.0
146
1.0
147
0.09
 71
     0
 72
     0
 73
     1
 74
     1
 75
     0
 76
     0
 77
     0
 78
     0
170
     0
171
     2
172
     0
173
     0
174
     0
175
     0
176
     0
177
     0
178
     0
  0
ENDTAB
  0
ENDSEC
  0
SECTION
  2
BLOCKS
  0
BLOCK
  8
0
  2
$MODEL_SPACE
 70
     0
 10
0.0
 20
0.0
 30
0.0
  3
$MODEL_SPACE
  1

  0
ENDBLK
  5
2914
  8
0
  0
BLOCK
 67
     1
  8
0
  2
$PAPER_SPACE
 70
     0
 10
0.0
 20
0.0
 30
0.0
  3
$PAPER_SPACE
  1

  0
ENDBLK
  5
2910
 67
     1
  8
0
  0
BLOCK
  8
0
  2
*U2
 70
     1
 10
0.0
 20
0.0
 30
0.0
  3
*U2
  1

  0
ENDBLK
  5
11C3
  8
0
  0
BLOCK
  8
0
  2
A$C64E25749
 70
     0
 10
0.0
 20
0.0
 30
0.0
  3
A$C64E25749
  1

  0
LINE
  5
271E
  8
0
  6
CONTINUOUS
 62
     3
 10
453.08806867863359
 20
124.4406211584904014
 30
0.0
 11
431.2230280886872151
 21
124.4406211584904014
 31
0.0
210
0.0
220
1.0
230
0.0
  0
LINE
  5
271F
  8
0
  6
CONTINUOUS
 62
     3
 10
431.2230280886872151
 20
131.4406211584903872
 30
0.0
 11
431.2230280886872151
 21
124.4406211584904014
 31
0.0
210
0.0
220
1.0
230
0.0
  0
LINE
  5
2720
  8
0
  6
CONTINUOUS
 62
     3
 10
453.08806867863359
 20
124.4406211584904014
 30
0.0
 11
453.08806867863359
 21
131.4406211584903872
 31
0.0
210
0.0
220
1.0
230
0.0
  0
LINE
  5
2721
  8
0
  6
CONTINUOUS
 62
     3
 10
517.2555483836604253
 20
124.4406211584904014
 30
0.0
 11
515.6555483836604026
 21
124.4406211584904014
 31
0.0
210
0.0
220
1.0
230
0.0
  0
LINE
  5
2722
  8
0
  6
CONTINUOUS
 62
     3
 10
515.6555483836604026
 20
131.4406211584903872
 30
0.0
 11
515.6555483836604026
 21
124.4406211584904014
 31
0.0
210
0.0
220
1.0
230
0.0
  0
LINE
  5
2723
  8
0
  6
CONTINUOUS
 62
     3
 10
416.0555483836603798
 20
131.4406211584903872
 30
0.0
 11
417.6555483836605163
 21
131.4406211584903872
 31
0.0
210
0.0
220
1.0
230
0.0
  0
LINE
  5
2724
  8
0
  6
CONTINUOUS
 62
     3
 10
417.6555483836605163
 20
124.4406211584904014
 30
0.0
 11
417.6555483836605163
 21
131.4406211584903872
 31
0.0
210
0.0
220
1.0
230
0.0
  0
LINE
  5
2725
  8
0
  6
CONTINUOUS
 62
     3
 10
431.2230280886872151
 20
131.4406211584903872
 30
0.0
 11
453.08806867863359
 21
131.4406211584903872
 31
0.0
210
0.0
220
1.0
230
0.0
  0
LINE
  5
2726
  8
0
  6
CONTINUOUS
 62
     3
 10
515.6555483836604026
 20
131.4406211584903872
 30
0.0
 11
517.2555483836604253
 21
131.4406211584903872
 31
0.0
210
0.0
220
1.0
230
0.0
  0
LINE
  5
2727
  8
0
  6
CONTINUOUS
 62
     3
 10
417.6555483836605163
 20
124.4406211584904014
 30
0.0
 11
416.0555483836603798
 21
124.4406211584904014
 31
0.0
210
0.0
220
1.0
230
0.0
  0
LINE
  5
2728
  8
0
  6
CONTINUOUS
 62
     3
 10
517.2555483836604253
 20
139.4406211584905009
 30
0.0
 11
416.0555483836603798
 21
139.4406211584905009
 31
0.0
210
0.0
220
1.0
230
0.0
  0
LINE
  5
2729
  8
0
  6
CONTINUOUS
 62
     3
 10
416.0555483836602093
 20
111.9456023450886022
 30
0.0
 11
517.2555483836607664
 21
111.9456023450886022
 31
0.0
210
0.0
220
1.0
230
0.0
  0
LINE
  5
272A
  8
0
  6
CONTINUOUS
 62
     3
 10
417.2794906305431937
 20
107.2550100033426048
 30
0.0
 11
516.031606136777782
 21
107.2550100033426048
 31
0.0
210
0.0
220
1.0
230
0.0
  0
LINE
  5
272B
  8
0
  6
CONTINUOUS
 62
     3
 10
420.6355965112583135
 20
101.2619637877804024
 30
0.0
 11
512.6755002560626053
 21
101.2619637877804024
 31
0.0
210
0.0
220
1.0
230
0.0
  0
LINE
  5
272C
  8
0
  6
CONTINUOUS
 62
     3
 10
421.6555483836605163
 20
97.3531368363256462
 30
0.0
 11
511.6555483836601752
 21
97.3531368363256462
 31
0.0
210
0.0
220
1.0
230
0.0
  0
LINE
  5
272D
  8
0
  6
CONTINUOUS
 62
     3
 10
421.6555483836605163
 20
86.223126650684037
 30
0.0
 11
511.6555483836604026
 21
86.223126650684037
 31
0.0
210
0.0
220
1.0
230
0.0
  0
LINE
  5
272E
  8
0
  6
CONTINUOUS
 62
     3
 10
422.2954305641112001
 20
82.7769274893188793
 30
0.0
 11
511.0156662032094914
 21
82.7769274893188793
 31
0.0
210
0.0
220
1.0
230
0.0
  0
LINE
  5
272F
  8
0
  6
CONTINUOUS
 62
     3
 10
426.1223132332847854
 20
72.8270325494672335
 30
0.0
 11
507.1887835340359061
 21
72.8270325494672335
 31
0.0
210
0.0
220
1.0
230
0.0
  0
LINE
  5
2730
  8
0
  6
CONTINUOUS
 62
     3
 10
426.6555483836604026
 20
69.9551999149962853
 30
0.0
 11
506.6555483836604026
 21
69.9551999149962853
 31
0.0
210
0.0
220
1.0
230
0.0
  0
LINE
  5
2731
  8
0
  6
CONTINUOUS
 62
     3
 10
421.5017141667906913
 20
-80.5593788415093712
 30
0.0
 11
511.8093826005302276
 21
-80.5593788415093144
 31
0.0
210
0.0
220
1.0
230
0.0
  0
LINE
  5
2732
  8
0
  6
CONTINUOUS
 62
     3
 10
426.4074827288335996
 20
-61.3313979773259206
 30
0.0
 11
506.9036140384873192
 21
-61.3313979773258211
 31
0.0
210
0.0
220
1.0
230
0.0
  0
LINE
  5
2733
  8
0
  6
CONTINUOUS
 62
     3
 10
426.6555483836604026
 20
-59.3546547193066516
 30
0.0
 11
506.6555483836604026
 21
-59.354654719306609
 31
0.0
210
0.0
220
1.0
230
0.0
  0
LINE
  5
2734
  8
0
  6
CONTINUOUS
 62
     3
 10
517.2555483836604253
 20
139.4406211584905009
 30
0.0
 11
517.2555483836604253
 21
131.4406211584903872
 31
0.0
210
0.0
220
1.0
230
0.0
  0
LINE
  5
2735
  8
0
  6
CONTINUOUS
 62
     3
 10
517.2555483836604253
 20
124.4406211584904014
 30
0.0
 11
517.2555483836604253
 21
111.9456023450886022
 31
0.0
210
0.0
220
1.0
230
0.0
  0
LINE
  5
2736
  8
0
  6
CONTINUOUS
 62
     3
 10
416.0555483836603798
 20
139.4406211584905009
 30
0.0
 11
416.0555483836603798
 21
131.4406211584903872
 31
0.0
210
0.0
220
1.0
230
0.0
  0
LINE
  5
2737
  8
0
  6
CONTINUOUS
 62
     3
 10
416.0555483836603798
 20
124.4406211584904014
 30
0.0
 11
416.0555483836603798
 21
111.9456023450885027
 31
0.0
210
0.0
220
1.0
230
0.0
  0
ARC
  5
2738
  8
0
  6
CONTINUOUS
 62
     3
 10
-425.6555483836605163
 20
111.9456023450886022
 30
0.0
 40
9.6000000000001364
210
0.0
220
0.0
230
-1.0
 50
330.7511736634518797
 51
359.9999999999997158
  0
ARC
  5
2739
  8
0
  6
CONTINUOUS
 62
     3
 10
-507.6555483836609142
 20
111.9456023450886022
 30
0.0
 40
9.5999999999995662
210
0.0
220
0.0
230
-1.0
 50
179.999999999999801
 51
209.2488263365499961
  0
LINE
  5
273A
  8
0
  6
CONTINUOUS
 62
     3
 10
420.6355965112583135
 20
101.2619637877804024
 30
0.0
 11
417.2794906305431937
 21
107.2550100033426048
 31
0.0
210
0.0
220
1.0
230
0.0
  0
LINE
  5
273B
  8
0
  6
CONTINUOUS
 62
     3
 10
512.6755002560626053
 20
101.2619637877804024
 30
0.0
 11
516.031606136777782
 21
107.2550100033427043
 31
0.0
210
0.0
220
1.0
230
0.0
  0
ARC
  5
273C
  8
0
  6
CONTINUOUS
 62
     3
 10
-413.6555483836614258
 20
97.3531368363257457
 30
0.0
 40
7.999999999999087
210
0.0
220
0.0
230
-1.0
 50
150.7511736634502029
 51
180.0000000000013927
  0
ARC
  5
273D
  8
0
  6
CONTINUOUS
 62
     3
 10
-519.6555483836574467
 20
97.3531368363263141
 30
0.0
 40
7.9999999999971561
210
0.0
220
0.0
230
-1.0
 50
359.999999999995282
 51
29.2488263365536696
  0
LINE
  5
273E
  8
0
  6
CONTINUOUS
 62
     3
 10
511.6555483836604026
 20
97.3531368363256746
 30
0.0
 11
511.6555483836604026
 21
86.223126650684037
 31
0.0
210
0.0
220
1.0
230
0.0
  0
LINE
  5
273F
  8
0
  6
CONTINUOUS
 62
     3
 10
421.6555483836605163
 20
97.3531368363255609
 30
0.0
 11
421.6555483836605163
 21
86.223126650683966
 31
0.0
210
0.0
220
1.0
230
0.0
  0
ARC
  5
2740
  8
0
  6
CONTINUOUS
 62
     3
 10
-431.2555483836633812
 20
86.2231266506849749
 30
0.0
 40
9.6000000000029821
210
0.0
220
0.0
230
-1.0
 50
338.9624889745784913
 51
359.9999999999939178
  0
ARC
  5
2741
  8
0
  6
CONTINUOUS
 62
     3
 10
-502.0555483836560029
 20
86.2231266506852023
 30
0.0
 40
9.6000000000044565
210
0.0
220
0.0
230
-1.0
 50
180.0000000000067075
 51
201.037511025418695
  0
LINE
  5
2742
  8
0
  6
CONTINUOUS
 62
     3
 10
426.1223132332847854
 20
72.8270325494671908
 30
0.0
 11
422.2954305641112001
 21
82.7769274893188367
 31
0.0
210
0.0
220
1.0
230
0.0
  0
LINE
  5
2743
  8
0
  6
CONTINUOUS
 62
     3
 10
507.1887835340359061
 20
72.8270325494672335
 30
0.0
 11
511.0156662032094914
 21
82.7769274893188793
 31
0.0
210
0.0
220
1.0
230
0.0
  0
ARC
  5
2744
  8
0
  6
CONTINUOUS
 62
     3
 10
-418.6555483836633016
 20
69.9551999149964985
 30
0.0
 40
7.999999999997212
210
0.0
220
0.0
230
-1.0
 50
158.962488974572608
 51
180.0000000000017906
  0
ARC
  5
2745
  8
0
  6
CONTINUOUS
 62
     3
 10
-514.6555483836607436
 20
69.9551999149959869
 30
0.0
 40
8.0000000000002274
210
0.0
220
0.0
230
-1.0
 50
0.0000000000022391
 51
21.0375110254234485
  0
LINE
  5
2746
  8
0
  6
CONTINUOUS
 62
     3
 10
506.9036140384873192
 20
-61.3313979773258211
 30
0.0
 11
511.8093826005302276
 21
-80.5593788415093144
 31
0.0
210
0.0
220
1.0
230
0.0
  0
LINE
  5
2747
  8
0
  6
CONTINUOUS
 62
     3
 10
426.4074827288335996
 20
-61.3313979773258779
 30
0.0
 11
421.5017141667906913
 21
-80.5593788415093712
 31
0.0
210
0.0
220
1.0
230
0.0
  0
ARC
  5
2748
  8
0
  6
CONTINUOUS
 62
     3
 10
-418.6637376462402926
 20
-59.3556824070328588
 30
0.0
 40
7.9918108034966862
210
0.0
220
0.0
230
-1.0
 50
179.9926321867496881
 51
194.3129196598748081
  0
ARC
  5
2749
  8
0
  6
CONTINUOUS
 62
     3
 10
-514.647359121066529
 20
-59.3556824070345996
 30
0.0
 40
7.9918108034825321
210
0.0
220
0.0
230
-1.0
 50
345.6870803401124022
 51
0.0073678132630449
  0
LINE
  5
274A
  8
0
  6
CONTINUOUS
 62
     3
 10
506.6555483836604026
 20
69.9551999149963137
 30
0.0
 11
506.6555483836604026
 21
-59.354654719306609
 31
0.0
210
0.0
220
1.0
230
0.0
  0
LINE
  5
274B
  8
0
  6
CONTINUOUS
 62
     3
 10
426.6555483836604026
 20
69.9551999149962427
 30
0.0
 11
426.6555483836604026
 21
-59.3546547193066516
 31
0.0
210
0.0
220
1.0
230
0.0
  0
LINE
  5
274C
  8
0
  6
VERDECKT2
 62
     1
 10
441.2548980932613176
 20
52.9962753809427909
 30
0.0
 11
492.0561986740594875
 21
52.9962753809427909
 31
0.0
210
0.0
220
1.0
230
0.0
  0
LINE
  5
274D
  8
0
  6
VERDECKT2
 62
     1
 10
438.6646966405974126
 20
61.6302802231563618
 30
0.0
 11
494.6464001267233925
 21
61.6302802231563618
 31
0.0
210
0.0
220
1.0
230
0.0
  0
LINE
  5
274E
  8
0
  6
VERDECKT2
 62
     1
 10
435.3285465537803134
 20
66.4764973869244642
 30
0.0
 11
497.9825502135406055
 21
66.4764973869244642
 31
0.0
210
0.0
220
1.0
230
0.0
  0
LINE
  5
274F
  8
0
  6
VERDECKT2
 62
     1
 10
428.8198580860109246
 20
71.4910285399743799
 30
0.0
 11
504.4912386813098237
 21
71.4910285399743799
 31
0.0
210
0.0
220
1.0
230
0.0
  0
LINE
  5
2750
  8
0
  6
VERDECKT2
 62
     1
 10
428.2491816826325248
 20
70.0262034938937745
 30
0.0
 11
505.0619150846882803
 21
70.0262034938937745
 31
0.0
210
0.0
220
1.0
230
0.0
  0
LINE
  5
2751
  8
0
  6
VERDECKT2
 62
     1
 10
434.42449528712649
 20
65.2794349113779617
 30
0.0
 11
498.8866014801939741
 21
65.2794349113779617
 31
0.0
210
0.0
220
1.0
230
0.0
  0
LINE
  5
2752
  8
0
  6
VERDECKT2
 62
     1
 10
437.2187069161324189
 20
61.230092716917099
 30
0.0
 11
496.0923898511885
 21
61.230092716917099
 31
0.0
210
0.0
220
1.0
230
0.0
  0
LINE
  5
2753
  8
0
  6
VERDECKT2
 62
     1
 10
439.8181586654296211
 20
52.5652535525930915
 30
0.0
 11
493.4929381018911272
 21
52.5652535525930915
 31
0.0
210
0.0
220
1.0
230
0.0
  0
LINE
  5
2754
  8
0
  6
VERDECKT2
 62
     1
 10
440.1555483836604026
 20
50.26647046806238
 30
0.0
 11
493.1555483836604026
 21
50.26647046806238
 31
0.0
210
0.0
220
1.0
230
0.0
  0
LINE
  5
2755
  8
0
  6
VERDECKT2
 62
     1
 10
440.7679690283417813
 20
-78.5593788415093712
 30
0.0
 11
492.5431277389790807
 21
-78.5593788415093712
 31
0.0
210
0.0
220
1.0
230
0.0
  0
LINE
  5
2756
  8
0
  6
VERDECKT2
 62
     1
 10
440.1555483836604026
 20
-71.559378841509357
 30
0.0
 11
493.1555483836604026
 21
-71.5593788415093002
 31
0.0
210
0.0
220
1.0
230
0.0
  0
LINE
  5
2757
  8
0
  6
VERDECKT2
 62
     1
 10
441.6555483836604026
 20
-71.4938874271466887
 30
0.0
 11
491.6555483836606868
 21
-71.4938874271466887
 31
0.0
210
0.0
220
1.0
230
0.0
  0
ARC
  5
2758
  8
0
  6
VERDECKT2
 62
     1
 10
-432.1555483836585267
 20
50.2664704680625505
 30
0.0
 40
9.5000000000017604
210
0.0
220
0.0
230
-1.0
 50
163.3007557660097859
 51
179.9999999999996021
  0
ARC
  5
2759
  8
0
  6
VERDECKT2
 62
     1
 10
-501.1555483836622216
 20
50.2664704680625718
 30
0.0
 40
9.5000000000017035
210
0.0
220
0.0
230
-1.0
 50
0.0000000000004071
 51
16.6992442339901892
  0
LINE
  5
275A
  8
0
  6
VERDECKT2
 62
     1
 10
441.2548980932613176
 20
52.9962753809427909
 30
0.0
 11
438.6646966405974126
 21
61.6302802231563618
 31
0.0
210
0.0
220
1.0
230
0.0
  0
LINE
  5
275B
  8
0
  6
VERDECKT2
 62
     1
 10
492.0561986740594875
 20
52.9962753809428122
 30
0.0
 11
494.6464001267233925
 21
61.6302802231563902
 31
0.0
210
0.0
220
1.0
230
0.0
  0
ARC
  5
275C
  8
0
  6
VERDECKT2
 62
     1
 10
-429.4695643024738274
 20
58.8717405217190475
 30
0.0
 40
9.6000000000006231
210
0.0
220
0.0
230
-1.0
 50
127.6119684579466025
 51
163.3007557660048121
  0
ARC
  5
275D
  8
0
  6
VERDECKT2
 62
     1
 10
-503.841532464846523
 20
58.8717405217195875
 30
0.0
 40
9.5999999999998185
210
0.0
220
0.0
230
-1.0
 50
16.6992442339931486
 51
52.3880315420548826
  0
LINE
  5
275E
  8
0
  6
VERDECKT2
 62
     1
 10
435.3285465537803134
 20
66.4764973869244216
 30
0.0
 11
428.8198580860109246
 21
71.4910285399742804
 31
0.0
210
0.0
220
1.0
230
0.0
  0
LINE
  5
275F
  8
0
  6
VERDECKT2
 62
     1
 10
497.9825502135406055
 20
66.4764973869244216
 30
0.0
 11
504.4912386813101079
 21
71.4910285399743088
 31
0.0
210
0.0
220
1.0
230
0.0
  0
LINE
  5
2760
  8
0
  6
VERDECKT2
 62
     1
 10
504.4912386813098237
 20
71.4910285399743799
 30
0.0
 11
505.0619150846882803
 21
70.0262034938938029
 31
0.0
210
0.0
220
1.0
230
0.0
  0
LINE
  5
2761
  8
0
  6
VERDECKT2
 62
     1
 10
428.8198580860109246
 20
71.4910285399742804
 30
0.0
 11
428.2491816826325248
 21
70.0262034938936893
 31
0.0
210
0.0
220
1.0
230
0.0
  0
LINE
  5
2762
  8
0
  6
VERDECKT2
 62
     1
 10
434.4244952871266037
 20
65.2794349113779333
 30
0.0
 11
428.2491816826325248
 21
70.0262034938936893
 31
0.0
210
0.0
220
1.0
230
0.0
  0
LINE
  5
2763
  8
0
  6
VERDECKT2
 62
     1
 10
498.8866014801939741
 20
65.2794349113779617
 30
0.0
 11
505.0619150846882803
 21
70.0262034938937745
 31
0.0
210
0.0
220
1.0
230
0.0
  0
ARC
  5
2764
  8
0
  6
VERDECKT2
 62
     1
 10
-429.5560966343622908
 20
58.9313096323860321
 30
0.0
 40
8.0000000000008171
210
0.0
220
0.0
230
-1.0
 50
127.4847200510417053
 51
163.3007557660056932
  0
ARC
  5
2765
  8
0
  6
VERDECKT2
 62
     1
 10
-503.7550001329582869
 20
58.9313096323860606
 30
0.0
 40
8.000000000000794
210
0.0
220
0.0
230
-1.0
 50
16.6992442339939302
 51
52.5152799489582591
  0
LINE
  5
2766
  8
0
  6
VERDECKT2
 62
     1
 10
439.8181586654295074
 20
52.5652535525930915
 30
0.0
 11
437.2187069161324189
 21
61.230092716917099
 31
0.0
210
0.0
220
1.0
230
0.0
  0
LINE
  5
2767
  8
0
  6
VERDECKT2
 62
     1
 10
493.4929381018911272
 20
52.5652535525931199
 30
0.0
 11
496.0923898511885
 21
61.2300927169171416
 31
0.0
210
0.0
220
1.0
230
0.0
  0
ARC
  5
2768
  8
0
  6
VERDECKT2
 62
     1
 10
-432.1555483836606868
 20
50.2664704680624084
 30
0.0
 40
7.999999999999714
210
0.0
220
0.0
230
-1.0
 50
163.3007557660062048
 51
180.000000000000199
  0
ARC
  5
2769
  8
0
  6
VERDECKT2
 62
     1
 10
-501.1555483836626195
 20
50.2664704680622521
 30
0.0
 40
8.0000000000020464
210
0.0
220
0.0
230
-1.0
 50
0.0000000000010178
 51
16.6992442339896812
  0
LINE
  5
276A
  8
0
  6
VERDECKT2
 62
     1
 10
440.7679690283420086
 20
-78.5593788415093712
 30
0.0
 11
440.1555483836604026
 21
-71.559378841509357
 31
0.0
210
0.0
220
1.0
230
0.0
  0
LINE
  5
276B
  8
0
  6
VERDECKT2
 62
     1
 10
492.5431277389790807
 20
-78.5593788415093428
 30
0.0
 11
493.1555483836604026
 21
-71.5593788415093144
 31
0.0
210
0.0
220
1.0
230
0.0
  0
LINE
  5
276C
  8
0
  6
VERDECKT2
 62
     1
 10
442.273698784656915
 20
-78.5593788415093712
 30
0.0
 11
441.6555483836604026
 21
-71.4938874271466887
 31
0.0
210
0.0
220
1.0
230
0.0
  0
LINE
  5
276D
  8
0
  6
VERDECKT2
 62
     1
 10
491.0373979826641175
 20
-78.5593788415093712
 30
0.0
 11
491.6555483836605163
 21
-71.4938874271466744
 31
0.0
210
0.0
220
1.0
230
0.0
  0
LINE
  5
276E
  8
0
  6
VERDECKT2
 62
     1
 10
493.1555483836604026
 20
50.2664704680623871
 30
0.0
 11
493.1555483836604026
 21
-71.5593788415093144
 31
0.0
210
0.0
220
1.0
230
0.0
  0
LINE
  5
276F
  8
0
  6
VERDECKT2
 62
     1
 10
440.1555483836601752
 20
50.26647046806238
 30
0.0
 11
440.1555483836604026
 21
-71.559378841509357
 31
0.0
210
0.0
220
1.0
230
0.0
  0
LINE
  5
2770
  8
0
  6
VERDECKT2
 62
     1
 10
491.6555483836605163
 20
50.2664704680626215
 30
0.0
 11
491.6555483836605163
 21
-71.4938874271466744
 31
0.0
210
0.0
220
1.0
230
0.0
  0
LINE
  5
2771
  8
0
  6
VERDECKT2
 62
     1
 10
441.6555483836601752
 20
50.2664704680626002
 30
0.0
 11
441.6555483836604026
 21
-71.4938874271466887
 31
0.0
210
0.0
220
1.0
230
0.0
  0
LINE
  5
2772
  8
0
  6
VERDECKT2
 62
     1
 10
488.9545864893369185
 20
131.440621158490103
 30
0.0
 11
481.9545864893369753
 21
126.4406211584903019
 31
0.0
210
0.0
220
1.0
230
0.0
  0
LINE
  5
2773
  8
0
  6
VERDECKT2
 62
     1
 10
479.356510277983773
 20
126.4406211584903019
 30
0.0
 11
481.9545864893372027
 21
126.4406211584903019
 31
0.0
210
0.0
220
1.0
230
0.0
  0
LINE
  5
2774
  8
0
  6
VERDECKT2
 62
     1
 10
479.356510277983773
 20
126.4406211584903019
 30
0.0
 11
486.3565102779836025
 21
131.440621158490103
 31
0.0
210
0.0
220
1.0
230
0.0
  0
LINE
  5
2775
  8
0
  6
VERDECKT2
 62
     1
 10
475.8565102779837162
 20
126.4406211584904014
 30
0.0
 11
479.356510277983773
 21
126.4406211584903019
 31
0.0
210
0.0
220
1.0
230
0.0
  0
LINE
  5
2776
  8
0
  6
VERDECKT2
 62
     1
 10
478.4545864893372027
 20
126.4406211584904014
 30
0.0
 11
478.4545864893369753
 21
119.2406211584903986
 31
0.0
210
0.0
220
1.0
230
0.0
  0
LINE
  5
2777
  8
0
  6
VERDECKT2
 62
     1
 10
475.8565102779837162
 20
119.2406211584903986
 30
0.0
 11
475.8565102779837162
 21
126.4406211584904014
 31
0.0
210
0.0
220
1.0
230
0.0
  0
LINE
  5
2778
  8
0
  6
VERDECKT2
 62
     1
 10
479.356510277983773
 20
119.2406211584903986
 30
0.0
 11
481.9545864893372027
 21
119.2406211584903986
 31
0.0
210
0.0
220
1.0
230
0.0
  0
LINE
  5
2779
  8
0
  6
VERDECKT2
 62
     1
 10
479.356510277983773
 20
119.2406211584903986
 30
0.0
 11
475.8565102779837162
 21
119.2406211584903986
 31
0.0
210
0.0
220
1.0
230
0.0
  0
LINE
  5
277A
  8
0
  6
VERDECKT2
 62
     1
 10
481.9545864893372027
 20
119.2406211584903986
 30
0.0
 11
488.954586489337089
 21
114.2406211584903986
 31
0.0
210
0.0
220
1.0
230
0.0
  0
LINE
  5
277B
  8
0
  6
VERDECKT2
 62
     1
 10
486.3565102779836025
 20
114.2406211584903986
 30
0.0
 11
479.356510277983773
 21
119.2406211584903986
 31
0.0
210
0.0
220
1.0
230
0.0
  0
LINE
  5
277C
  8
0
  6
VERDECKT2
 62
     1
 10
489.8565102779836025
 20
114.2406211584902991
 30
0.0
 11
492.454586489337089
 21
114.2406211584902991
 31
0.0
210
0.0
220
1.0
230
0.0
  0
LINE
  5
277D
  8
0
  6
VERDECKT2
 62
     1
 10
489.8565102779836025
 20
114.2406211584902991
 30
0.0
 11
486.3565102779836025
 21
114.2406211584903986
 31
0.0
210
0.0
220
1.0
230
0.0
  0
LINE
  5
277E
  8
0
  6
VERDECKT2
 62
     1
 10
492.454586489337089
 20
114.2406211584902991
 30
0.0
 11
492.454586489337089
 21
116.7406211584902991
 31
0.0
210
0.0
220
1.0
230
0.0
  0
LINE
  5
277F
  8
0
  6
VERDECKT2
 62
     1
 10
489.8565102779836025
 20
116.7406211584902991
 30
0.0
 11
492.454586489337089
 21
116.7406211584902991
 31
0.0
210
0.0
220
1.0
230
0.0
  0
LINE
  5
2780
  8
0
  6
VERDECKT2
 62
     1
 10
489.8565102779836025
 20
116.7406211584902991
 30
0.0
 11
489.8565102779836025
 21
114.2406211584902991
 31
0.0
210
0.0
220
1.0
230
0.0
  0
LINE
  5
2781
  8
0
  6
VERDECKT2
 62
     1
 10
492.454586489337089
 20
116.7406211584902991
 30
0.0
 11
491.4545864893369753
 21
117.8953216968696012
 31
0.0
210
0.0
220
1.0
230
0.0
  0
LINE
  5
2782
  8
0
  6
VERDECKT2
 62
     1
 10
488.8565102779836025
 20
117.8953216968696012
 30
0.0
 11
491.4545864893369753
 21
117.8953216968696012
 31
0.0
210
0.0
220
1.0
230
0.0
  0
LINE
  5
2783
  8
0
  6
VERDECKT2
 62
     1
 10
488.8565102779836025
 20
117.8953216968696012
 30
0.0
 11
489.8565102779836025
 21
116.7406211584902991
 31
0.0
210
0.0
220
1.0
230
0.0
  0
LINE
  5
2784
  8
0
  6
VERDECKT2
 62
     1
 10
491.4545864893369753
 20
117.8953216968696012
 30
0.0
 11
491.4545864893369753
 21
127.7859206201110993
 31
0.0
210
0.0
220
1.0
230
0.0
  0
LINE
  5
2785
  8
0
  6
VERDECKT2
 62
     1
 10
488.8565102779836025
 20
127.7859206201110993
 30
0.0
 11
491.4545864893369753
 21
127.7859206201110993
 31
0.0
210
0.0
220
1.0
230
0.0
  0
LINE
  5
2786
  8
0
  6
VERDECKT2
 62
     1
 10
488.8565102779836025
 20
127.7859206201110993
 30
0.0
 11
488.8565102779836025
 21
117.8953216968696012
 31
0.0
210
0.0
220
1.0
230
0.0
  0
LINE
  5
2787
  8
0
  6
VERDECKT2
 62
     1
 10
491.4545864893369753
 20
127.7859206201110993
 30
0.0
 11
492.454586489337089
 21
128.9406211584903872
 31
0.0
210
0.0
220
1.0
230
0.0
  0
LINE
  5
2788
  8
0
  6
VERDECKT2
 62
     1
 10
489.8565102779836025
 20
128.9406211584903872
 30
0.0
 11
492.454586489337089
 21
128.9406211584903872
 31
0.0
210
0.0
220
1.0
230
0.0
  0
LINE
  5
2789
  8
0
  6
VERDECKT2
 62
     1
 10
489.8565102779836025
 20
128.9406211584903872
 30
0.0
 11
488.8565102779836025
 21
127.7859206201110993
 31
0.0
210
0.0
220
1.0
230
0.0
  0
LINE
  5
278A
  8
0
  6
VERDECKT2
 62
     1
 10
492.454586489337089
 20
128.9406211584903872
 30
0.0
 11
492.454586489337089
 21
131.4406211584903872
 31
0.0
210
0.0
220
1.0
230
0.0
  0
LINE
  5
278B
  8
0
  6
VERDECKT2
 62
     1
 10
489.8565102779836025
 20
131.4406211584903872
 30
0.0
 11
492.454586489337089
 21
131.4406211584903872
 31
0.0
210
0.0
220
1.0
230
0.0
  0
LINE
  5
278C
  8
0
  6
VERDECKT2
 62
     1
 10
489.8565102779836025
 20
131.4406211584903872
 30
0.0
 11
489.8565102779836025
 21
128.9406211584903872
 31
0.0
210
0.0
220
1.0
230
0.0
  0
LINE
  5
278D
  8
0
  6
VERDECKT2
 62
     1
 10
486.3565102779836025
 20
131.440621158490103
 30
0.0
 11
489.8565102779836025
 21
131.4406211584903872
 31
0.0
210
0.0
220
1.0
230
0.0
  0
LINE
  5
278E
  8
0
  6
VERDECKT2
 62
     1
 10
513.6555483836602889
 20
131.4406211584905861
 30
0.0
 11
513.6555483836602889
 21
124.4406211584906004
 31
0.0
210
0.0
220
1.0
230
0.0
  0
LINE
  5
278F
  8
0
  6
VERDECKT2
 62
     1
 10
515.6555483836604026
 20
124.4406211584906004
 30
0.0
 11
513.6555483836604026
 21
124.4406211584906004
 31
0.0
210
0.0
220
1.0
230
0.0
  0
LINE
  5
2790
  8
0
  6
VERDECKT2
 62
     1
 10
513.6555483836604026
 20
131.4406211584905861
 30
0.0
 11
515.6555483836604026
 21
131.4406211584905861
 31
0.0
210
0.0
220
1.0
230
0.0
  0
LINE
  5
2791
  8
0
  6
VERDECKT2
 62
     1
 10
455.1555483836589246
 20
124.4406211584906004
 30
0.0
 11
455.1555483836589246
 21
131.4406211584905861
 31
0.0
210
0.0
220
1.0
230
0.0
  0
LINE
  5
2792
  8
0
  6
VERDECKT2
 62
     1
 10
431.1555483836615963
 20
131.4406211584905861
 30
0.0
 11
431.1555483836615963
 21
124.4406211584906004
 31
0.0
210
0.0
220
1.0
230
0.0
  0
LINE
  5
2793
  8
0
  6
VERDECKT2
 62
     1
 10
453.08806867863359
 20
131.4406211584905861
 30
0.0
 11
455.1555483836601752
 21
131.4406211584905861
 31
0.0
210
0.0
220
1.0
230
0.0
  0
LINE
  5
2794
  8
0
  6
VERDECKT2
 62
     1
 10
431.1555483836605163
 20
131.4406211584905861
 30
0.0
 11
431.2230280886872151
 21
131.4406211584905861
 31
0.0
210
0.0
220
1.0
230
0.0
  0
LINE
  5
2795
  8
0
  6
VERDECKT2
 62
     1
 10
455.1555483836601752
 20
124.4406211584906004
 30
0.0
 11
453.08806867863359
 21
124.4406211584906004
 31
0.0
210
0.0
220
1.0
230
0.0
  0
LINE
  5
2796
  8
0
  6
VERDECKT2
 62
     1
 10
431.2230280886872151
 20
124.4406211584906004
 30
0.0
 11
431.1555483836605163
 21
124.4406211584906004
 31
0.0
210
0.0
220
1.0
230
0.0
  0
LINE
  5
2797
  8
0
  6
VERDECKT2
 62
     1
 10
419.6555483836601184
 20
124.4406211584906004
 30
0.0
 11
419.6555483836601184
 21
131.4406211584905861
 31
0.0
210
0.0
220
1.0
230
0.0
  0
LINE
  5
2798
  8
0
  6
VERDECKT2
 62
     1
 10
419.6555483836605163
 20
124.4406211584906004
 30
0.0
 11
417.6555483836605163
 21
124.4406211584906004
 31
0.0
210
0.0
220
1.0
230
0.0
  0
LINE
  5
2799
  8
0
  6
VERDECKT2
 62
     1
 10
417.6555483836605163
 20
131.4406211584905861
 30
0.0
 11
419.6555483836605163
 21
131.4406211584905861
 31
0.0
210
0.0
220
1.0
230
0.0
  0
LINE
  5
279A
  8
0
  6
VERDECKT2
 62
     1
 10
428.2555483836604253
 20
69.6766321494528142
 30
0.0
 11
505.0555483836603798
 21
69.6766321494528142
 31
0.0
210
0.0
220
1.0
230
0.0
  0
LINE
  5
279B
  8
0
  6
VERDECKT2
 62
     1
 10
427.61566620321031
 20
73.1228313108189667
 30
0.0
 11
505.6954305641104952
 21
73.1228313108189667
 31
0.0
210
0.0
220
1.0
230
0.0
  0
LINE
  5
279C
  8
0
  6
VERDECKT2
 62
     1
 10
423.7887835340359857
 20
83.0727262506696178
 30
0.0
 11
509.5223132332848763
 21
83.0727262506696178
 31
0.0
210
0.0
220
1.0
230
0.0
  0
LINE
  5
279D
  8
0
  6
VERDECKT2
 62
     1
 10
423.2555483836604253
 20
85.9445588851406654
 30
0.0
 11
510.0555483836603798
 21
85.9445588851406654
 31
0.0
210
0.0
220
1.0
230
0.0
  0
LINE
  5
279E
  8
0
  6
VERDECKT2
 62
     1
 10
422.0316061367777252
 20
102.0437291780710041
 30
0.0
 11
511.2794906305430231
 21
102.0437291780710041
 31
0.0
210
0.0
220
1.0
230
0.0
  0
LINE
  5
279F
  8
0
  6
VERDECKT2
 62
     1
 10
418.675500256062719
 20
108.0367753936338033
 30
0.0
 11
514.6355965112581998
 21
108.0367753936338033
 31
0.0
210
0.0
220
1.0
230
0.0
  0
LINE
  5
27A0
  8
0
  6
VERDECKT2
 62
     1
 10
427.9578695978681822
 20
-61.7267466289291065
 30
0.0
 11
505.3532271694527935
 21
-61.7267466289290496
 31
0.0
210
0.0
220
1.0
230
0.0
  0
ARC
  5
27A1
  8
0
  6
VERDECKT2
 62
     1
 10
-418.6555483836722829
 20
69.6766321494573617
 30
0.0
 40
9.5999999999880234
210
0.0
220
0.0
230
-1.0
 50
158.9624889745736027
 51
180.0000000000273133
  0
ARC
  5
27A2
  8
0
  6
VERDECKT2
 62
     1
 10
-514.6555483836498297
 20
69.6766321494572765
 30
0.0
 40
9.5999999999893344
210
0.0
220
0.0
230
-1.0
 50
359.999999999973511
 51
21.0375110254242088
  0
LINE
  5
27A3
  8
0
  6
VERDECKT2
 62
     1
 10
427.6156662032104236
 20
73.1228313108189241
 30
0.0
 11
423.7887835340359857
 21
83.0727262506695467
 31
0.0
210
0.0
220
1.0
230
0.0
  0
LINE
  5
27A4
  8
0
  6
VERDECKT2
 62
     1
 10
505.6954305641107226
 20
73.1228313108189667
 30
0.0
 11
509.5223132332848763
 21
83.0727262506696178
 31
0.0
210
0.0
220
1.0
230
0.0
  0
ARC
  5
27A5
  8
0
  6
VERDECKT2
 62
     1
 10
-431.2555483836583221
 20
85.9445588851403954
 30
0.0
 40
7.999999999998014
210
0.0
220
0.0
230
-1.0
 50
338.9624889745736027
 51
0.0000000000020356
  0
ARC
  5
27A6
  8
0
  6
VERDECKT2
 62
     1
 10
-502.0555483836595272
 20
85.9445588851410349
 30
0.0
 40
8.0000000000011369
210
0.0
220
0.0
230
-1.0
 50
180.0000000000023022
 51
201.0375110254221056
  0
LINE
  5
27A7
  8
0
  6
VERDECKT2
 62
     1
 10
510.0555483836603798
 20
97.353136836325433
 30
0.0
 11
510.0555483836603798
 21
85.9445588851407081
 31
0.0
210
0.0
220
1.0
230
0.0
  0
LINE
  5
27A8
  8
0
  6
VERDECKT2
 62
     1
 10
423.2555483836604822
 20
97.3531368363253478
 30
0.0
 11
423.2555483836604822
 21
85.9445588851406654
 31
0.0
210
0.0
220
1.0
230
0.0
  0
ARC
  5
27A9
  8
0
  6
VERDECKT2
 62
     1
 10
-413.6555483836594931
 20
97.3531368363250351
 30
0.0
 40
9.6000000000010477
210
0.0
220
0.0
230
-1.0
 50
150.7511736634544093
 51
179.9999999999982094
  0
ARC
  5
27AA
  8
0
  6
VERDECKT2
 62
     1
 10
-519.6555483836621079
 20
97.3531368363250351
 30
0.0
 40
9.6000000000016126
210
0.0
220
0.0
230
-1.0
 50
0.0000000000024427
 51
29.2488263365440098
  0
LINE
  5
27AB
  8
0
  6
VERDECKT2
 62
     1
 10
422.0316061367777252
 20
102.0437291780710041
 30
0.0
 11
418.675500256062719
 21
108.0367753936338033
 31
0.0
210
0.0
220
1.0
230
0.0
  0
LINE
  5
27AC
  8
0
  6
VERDECKT2
 62
     1
 10
511.2794906305430231
 20
102.0437291780711035
 30
0.0
 11
514.6355965112581998
 21
108.0367753936338033
 31
0.0
210
0.0
220
1.0
230
0.0
  0
ARC
  5
27AD
  8
0
  6
VERDECKT2
 62
     1
 10
-425.6555483836597205
 20
111.9456023450883038
 30
0.0
 40
7.9999999999993081
210
0.0
220
0.0
230
-1.0
 50
330.7511736634515955
 51
0.0000000000006107
  0
ARC
  5
27AE
  8
0
  6
VERDECKT2
 62
     1
 10
-507.6555483836619942
 20
111.9456023450881048
 30
0.0
 40
7.9999999999982938
210
0.0
220
0.0
230
-1.0
 50
179.999999999996902
 51
209.2488263365495129
  0
LINE
  5
27AF
  8
0
  6
VERDECKT2
 62
     1
 10
515.6555483836600615
 20
139.4406211584905861
 30
0.0
 11
515.6555483836600615
 21
131.4406211584905861
 31
0.0
210
0.0
220
1.0
230
0.0
  0
LINE
  5
27B0
  8
0
  6
VERDECKT2
 62
     1
 10
515.6555483836600615
 20
124.4406211584906004
 30
0.0
 11
515.6555483836600615
 21
111.9456023450885027
 31
0.0
210
0.0
220
1.0
230
0.0
  0
LINE
  5
27B1
  8
0
  6
VERDECKT2
 62
     1
 10
417.6555483836605163
 20
139.4406211584905861
 30
0.0
 11
417.6555483836605163
 21
131.4406211584905861
 31
0.0
210
0.0
220
1.0
230
0.0
  0
LINE
  5
27B2
  8
0
  6
VERDECKT2
 62
     1
 10
417.6555483836605163
 20
124.4406211584906004
 30
0.0
 11
417.6555483836605163
 21
111.9456023450884032
 31
0.0
210
0.0
220
1.0
230
0.0
  0
ARC
  5
27B3
  8
0
  6
VERDECKT2
 62
     1
 10
-418.6555483836630174
 20
-59.3546547193063319
 30
0.0
 40
9.5999999999974062
210
0.0
220
0.0
230
-1.0
 50
179.9999999999984084
 51
194.3055518466244109
  0
ARC
  5
27B4
  8
0
  6
VERDECKT2
 62
     1
 10
-514.6555483836507392
 20
-59.35465471930722
 30
0.0
 40
9.5999999999901284
210
0.0
220
0.0
230
-1.0
 50
345.6944481533701037
 51
0.0000000000071244
  0
LINE
  5
27B5
  8
0
  6
VERDECKT2
 62
     1
 10
505.3532271694527935
 20
-61.7267466289290496
 30
0.0
 11
510.1555483836608005
 21
-80.5593788415093144
 31
0.0
210
0.0
220
1.0
230
0.0
  0
LINE
  5
27B6
  8
0
  6
VERDECKT2
 62
     1
 10
427.9578695978681822
 20
-61.7267466289291065
 30
0.0
 11
423.1555483836604026
 21
-80.5593788415093712
 31
0.0
210
0.0
220
1.0
230
0.0
  0
LINE
  5
27B7
  8
0
  6
VERDECKT2
 62
     1
 10
505.0555483836603798
 20
69.6766321494528427
 30
0.0
 11
505.0555483836603798
 21
-59.3546547193060334
 31
0.0
210
0.0
220
1.0
230
0.0
  0
LINE
  5
27B8
  8
0
  6
VERDECKT2
 62
     1
 10
428.2555483836604253
 20
69.676632149452729
 30
0.0
 11
428.2555483836604253
 21
-59.3546547193060903
 31
0.0
210
0.0
220
1.0
230
0.0
  0
ENDBLK
  5
27BA
  8
0
  0
BLOCK
  8
0
  2
A$C514F3119
 70
     0
 10
0.0
 20
0.0
 30
0.0
  3
A$C514F3119
  1

  0
ARC
  5
27BE
  8
0
  6
CONTINUOUS
 62
     3
 10
381.2752215585755948
 20
339.4460605953033223
 30
0.0
 40
25.0000000000001705
 50
63.4398127675154129
 51
180.0
  0
ARC
  5
27BF
  8
0
  6
CONTINUOUS
 62
     3
 10
381.2752215585755948
 20
339.4460605953033223
 30
0.0
 40
25.000000000000199
 50
303.4398127675152068
 51
56.5601872324848216
  0
ARC
  5
27C0
  8
0
  6
CONTINUOUS
 62
     3
 10
381.2752215585755948
 20
339.4460605953033792
 30
0.0
 40
25.0000000000001883
 50
180.0
 51
296.5601872324846227
  0
ARC
  5
27C1
  8
0
  6
CONTINUOUS
 62
     3
 10
381.2752215585755948
 20
339.4460605953033223
 30
0.0
 40
25.4006502903991986
 50
63.3854920696718835
 51
180.0
  0
ARC
  5
27C2
  8
0
  6
CONTINUOUS
 62
     3
 10
381.2752215585755948
 20
339.4460605953033792
 30
0.0
 40
25.4006502903990992
 50
303.3854920696708177
 51
56.6145079303285215
  0
ARC
  5
27C3
  8
0
  6
CONTINUOUS
 62
     3
 10
381.2752215585755948
 20
339.4460605953033792
 30
0.0
 40
25.4006502903991596
 50
180.0
 51
296.6145079303285002
  0
ARC
  5
27C4
  8
0
  6
CONTINUOUS
 62
     3
 10
381.2752215585755948
 20
339.4460605953033223
 30
0.0
 40
27.9908517430630503
 50
63.071891432395411
 51
180.0
  0
ARC
  5
27C5
  8
0
  6
CONTINUOUS
 62
     3
 10
381.2752215585755948
 20
339.4460605953033223
 30
0.0
 40
27.9908517430630184
 50
303.0718914323945228
 51
56.9281085676050793
  0
ARC
  5
27C6
  8
0
  6
CONTINUOUS
 62
     3
 10
381.2752215585755948
 20
339.4460605953033792
 30
0.0
 40
27.9908517430630503
 50
180.0
 51
296.9281085676053067
  0
ARC
  5
27C7
  8
0
  6
CONTINUOUS
 62
     3
 10
381.2752215585755948
 20
339.4460605953033792
 30
0.0
 40
31.3270018298801993
 50
62.7444868166168135
 51
180.0
  0
ARC
  5
27C8
  8
0
  6
CONTINUOUS
 62
     3
 10
381.2752215585755948
 20
339.4460605953033792
 30
0.0
 40
31.3270018298802206
 50
302.7444868166166998
 51
57.2555131833832291
  0
ARC
  5
27C9
  8
0
  6
CONTINUOUS
 62
     3
 10
381.2752215585755948
 20
339.4460605953033792
 30
0.0
 40
31.3270018298801887
 50
180.0
 51
297.2555131833839823
  0
ARC
  5
27CA
  8
0
  6
CONTINUOUS
 62
     3
 10
381.2752215585755948
 20
339.4460605953033223
 30
0.0
 40
37.835690297649478
 50
62.2720927772250334
 51
180.0
  0
ARC
  5
27CB
  8
0
  6
CONTINUOUS
 62
     3
 10
381.2752215585755948
 20
339.4460605953033792
 30
0.0
 40
37.8356902976494425
 50
302.2720927772248842
 51
57.7279072227749808
  0
ARC
  5
27CC
  8
0
  6
CONTINUOUS
 62
     3
 10
381.2752215585755948
 20
339.4460605953033792
 30
0.0
 40
37.835690297649478
 50
180.0
 51
297.7279072227748884
  0
ARC
  5
27CD
  8
0
  6
CONTINUOUS
 62
     3
 10
381.2752215585755948
 20
339.4460605953033792
 30
0.0
 40
38.4063667010279772
 50
62.2383146604247628
 51
180.0
  0
ARC
  5
27CE
  8
0
  6
CONTINUOUS
 62
     3
 10
381.2752215585755948
 20
339.4460605953033792
 30
0.0
 40
38.4063667010279701
 50
302.2383146604245212
 51
57.7616853395755214
  0
ARC
  5
27CF
  8
0
  6
CONTINUOUS
 62
     3
 10
381.2752215585755948
 20
339.4460605953033223
 30
0.0
 40
38.4063667010279417
 50
180.0
 51
297.7616853395753083
  0
ARC
  5
27D0
  8
0
  6
CONTINUOUS
 62
     3
 10
381.2752215585755948
 20
339.4460605953033792
 30
0.0
 40
24.3818495990035409
 50
63.5271309306105607
 51
180.0
  0
ARC
  5
27D1
  8
0
  6
CONTINUOUS
 62
     3
 10
381.2752215585755948
 20
339.4460605953033223
 30
0.0
 40
24.38184959900358
 50
303.527130930609701
 51
56.4728690693901996
  0
ARC
  5
27D2
  8
0
  6
CONTINUOUS
 62
     3
 10
381.2752215585755948
 20
339.4460605953033223
 30
0.0
 40
24.3818495990035515
 50
180.0
 51
296.4728690693893896
  0
LINE
  5
27D3
  8
0
  6
CONTINUOUS
 62
     3
 10
400.9761834528990221
 20
376.5691275542498033
 30
0.0
 11
393.9761834528990789
 21
364.4447719012679272
 31
0.0
  0
LINE
  5
27D4
  8
0
  6
CONTINUOUS
 62
     3
 10
396.5742596642522244
 20
362.9447719012679272
 30
0.0
 11
393.9761834528990789
 21
364.4447719012679272
 31
0.0
  0
LINE
  5
27D5
  8
0
  6
CONTINUOUS
 62
     3
 10
396.5742596642522244
 20
362.9447719012679272
 30
0.0
 11
403.5742596642521107
 21
375.0691275542496896
 31
0.0
  0
LINE
  5
27D6
  8
0
  6
CONTINUOUS
 62
     3
 10
403.5742596642521107
 20
375.0691275542496896
 30
0.0
 11
400.9761834528990221
 21
376.5691275542498033
 31
0.0
  0
LINE
  5
27D7
  8
0
  6
CONTINUOUS
 62
     3
 10
393.9761834528990789
 20
364.4447719012679272
 30
0.0
 11
390.4761834528990789
 21
358.3825940747768186
 31
0.0
  0
LINE
  5
27D8
  8
0
  6
CONTINUOUS
 62
     3
 10
393.0742596642522244
 20
356.8825940747768186
 30
0.0
 11
390.4761834528990789
 21
358.3825940747768186
 31
0.0
  0
LINE
  5
27D9
  8
0
  6
CONTINUOUS
 62
     3
 10
393.0742596642522244
 20
356.8825940747768186
 30
0.0
 11
396.5742596642522244
 21
362.9447719012679272
 31
0.0
  0
LINE
  5
27DA
  8
0
  6
CONTINUOUS
 62
     3
 10
404.4647011703925727
 20
382.6114174840529927
 30
0.0
 11
400.9761834528987947
 21
376.5691275542498033
 31
0.0
  0
LINE
  5
27DB
  8
0
  6
CONTINUOUS
 62
     3
 10
403.5742596642521107
 20
375.0691275542496896
 30
0.0
 11
407.0627773817457751
 21
381.111417484052879
 31
0.0
  0
LINE
  5
27DC
  8
0
  6
CONTINUOUS
 62
     3
 10
403.5742596642521107
 20
303.8229936363570118
 30
0.0
 11
396.5742596642522244
 21
315.9473492893391153
 31
0.0
  0
LINE
  5
27DD
  8
0
  6
CONTINUOUS
 62
     3
 10
393.9761834528990789
 20
314.4473492893391153
 30
0.0
 11
396.5742596642523949
 21
315.9473492893391153
 31
0.0
  0
LINE
  5
27DE
  8
0
  6
CONTINUOUS
 62
     3
 10
393.9761834528990789
 20
314.4473492893391153
 30
0.0
 11
400.9761834528987947
 21
302.3229936363568982
 31
0.0
  0
LINE
  5
27DF
  8
0
  6
CONTINUOUS
 62
     3
 10
400.9761834528987947
 20
302.3229936363568982
 30
0.0
 11
403.5742596642521107
 21
303.8229936363570118
 31
0.0
  0
LINE
  5
27E0
  8
0
  6
CONTINUOUS
 62
     3
 10
396.5742596642522244
 20
315.947349289338888
 30
0.0
 11
393.0742596642522244
 21
322.0095271158299965
 31
0.0
  0
LINE
  5
27E1
  8
0
  6
CONTINUOUS
 62
     3
 10
390.4761834528990789
 20
320.5095271158301102
 30
0.0
 11
393.0742596642523949
 21
322.0095271158299965
 31
0.0
  0
LINE
  5
27E2
  8
0
  6
CONTINUOUS
 62
     3
 10
390.4761834528990789
 20
320.5095271158301102
 30
0.0
 11
393.9761834528990789
 21
314.4473492893390016
 31
0.0
  0
LINE
  5
27E3
  8
0
  6
CONTINUOUS
 62
     3
 10
407.0627773817457751
 20
297.7807037065537088
 30
0.0
 11
403.5742596642521107
 21
303.8229936363570118
 31
0.0
  0
LINE
  5
27E4
  8
0
  6
CONTINUOUS
 62
     3
 10
400.9761834528987947
 20
302.3229936363568982
 30
0.0
 11
404.4647011703925727
 21
296.2807037065537088
 31
0.0
  0
LINE
  5
27E5
  8
0
  6
CONTINUOUS
 62
     3
 10
428.2752215585754243
 20
325.5896541347523225
 30
0.0
 11
428.2752215585754243
 21
353.3024670558538105
 31
0.0
  0
LINE
  5
27E6
  8
0
  6
CONTINUOUS
 62
     3
 10
345.7752215585754243
 20
305.6710698477098731
 30
0.0
 11
369.7752215585754243
 21
291.8146633871588165
 31
0.0
  0
LINE
  5
27E7
  8
0
  6
CONTINUOUS
 62
     3
 10
334.2752215585754243
 20
353.3024670558542084
 30
0.0
 11
334.2752215585754243
 21
325.5896541347519246
 31
0.0
  0
LINE
  5
27E8
  8
0
  6
CONTINUOUS
 62
     3
 10
369.7752215585753106
 20
387.0774578034470892
 30
0.0
 11
345.7752215585755948
 21
373.2210513428960894
 31
0.0
  0
CIRCLE
  5
27E9
  8
0
  6
CONTINUOUS
 62
     3
 10
381.2752215585755948
 20
339.4460605953033792
 30
0.0
 40
50.6000000000000014
  0
CIRCLE
  5
27EA
  8
0
  6
CONTINUOUS
 62
     3
 10
381.2752215585755948
 20
339.4460605953033792
 30
0.0
 40
49.0
  0
ARC
  5
27EB
  8
0
  6
CONTINUOUS
 62
     3
 10
381.2752215585755948
 20
339.4460605953033223
 30
0.0
 40
39.0398821804502134
 50
62.20197460968717
 51
180.0
  0
ARC
  5
27EC
  8
0
  6
CONTINUOUS
 62
     3
 10
381.2752215585754243
 20
339.4460605953033792
 30
0.0
 40
39.0398821804502418
 50
302.2019746096872836
 51
57.7980253903126524
  0
ARC
  5
27ED
  8
0
  6
CONTINUOUS
 62
     3
 10
381.2752215585755948
 20
339.4460605953033792
 30
0.0
 40
39.0398821804501708
 50
180.0
 51
297.7980253903127732
  0
ARC
  5
27EE
  8
0
  6
CONTINUOUS
 62
     3
 10
381.2752215585755948
 20
339.4460605953033223
 30
0.0
 40
42.8667648496244666
 50
62.0053115321010822
 51
180.0
  0
ARC
  5
27EF
  8
0
  6
CONTINUOUS
 62
     3
 10
381.2752215585754243
 20
339.4460605953033792
 30
0.0
 40
42.8667648496245022
 50
302.0053115321009045
 51
57.994688467899131
  0
ARC
  5
27F0
  8
0
  6
CONTINUOUS
 62
     3
 10
381.2752215585755948
 20
339.4460605953033792
 30
0.0
 40
42.8667648496244666
 50
180.0
 51
297.994688467898925
  0
ARC
  5
27F1
  8
0
  6
CONTINUOUS
 62
     3
 10
381.2752215585755948
 20
339.4460605953033792
 30
0.0
 40
43.3999999999998494
 50
61.9806633431354896
 51
180.0
  0
ARC
  5
27F2
  8
0
  6
CONTINUOUS
 62
     3
 10
381.2752215585755948
 20
339.4460605953033792
 30
0.0
 40
43.3999999999998707
 50
301.9806633431354044
 51
58.0193366568646169
  0
ARC
  5
27F3
  8
0
  6
CONTINUOUS
 62
     3
 10
381.2752215585755948
 20
339.4460605953033223
 30
0.0
 40
43.3999999999998778
 50
180.0
 51
298.0193366568644819
  0
ARC
  5
27F4
  8
0
  6
CONTINUOUS
 62
     3
 10
381.2752215585755948
 20
339.4460605953033223
 30
0.0
 40
44.6239422468826206
 50
61.9263170856072804
 51
180.0
  0
ARC
  5
27F5
  8
0
  6
CONTINUOUS
 62
     3
 10
381.2752215585755948
 20
339.4460605953033792
 30
0.0
 40
44.6239422468825921
 50
301.9263170856075931
 51
58.0736829143923998
  0
ARC
  5
27F6
  8
0
  6
CONTINUOUS
 62
     3
 10
381.2752215585755948
 20
339.4460605953033792
 30
0.0
 40
44.6239422468825921
 50
180.0
 51
298.0736829143926911
  0
ARC
  5
27F7
  8
0
  6
CONTINUOUS
 62
     3
 10
381.2752215585754243
 20
339.4460605953033792
 30
0.0
 40
47.9800481275975201
 50
131.6004015760098866
 51
168.3995984239926997
  0
ARC
  5
27F8
  8
0
  6
CONTINUOUS
 62
     3
 10
381.2752215585755948
 20
339.4460605953032086
 30
0.0
 40
47.9800481275977475
 50
61.7915295763250185
 51
108.3995984239903976
  0
ARC
  5
27F9
  8
0
  6
CONTINUOUS
 62
     3
 10
381.2752215585759927
 20
339.4460605953037202
 30
0.0
 40
47.9800481275971293
 50
11.6004015760098493
 51
58.2084704236753581
  0
ARC
  5
27FA
  8
0
  6
CONTINUOUS
 62
     3
 10
381.2752215585750832
 20
339.4460605953036065
 30
0.0
 40
47.9800481275981525
 50
301.7915295763252175
 51
348.3995984239891754
  0
ARC
  5
27FB
  8
0
  6
CONTINUOUS
 62
     3
 10
381.2752215585755948
 20
339.4460605953033792
 30
0.0
 40
47.9800481275976765
 50
251.6004015760059929
 51
298.2084704236750099
  0
ARC
  5
27FC
  8
0
  6
CONTINUOUS
 62
     3
 10
381.2752215585754243
 20
339.4460605953033223
 30
0.0
 40
47.9800481275974491
 50
191.6004015760073003
 51
228.3995984239936092
  0
ARC
  5
27FD
  8
0
  6
VERDECKT2
 62
     1
 10
381.2752215585807107
 20
339.4460605953124173
 30
0.0
 40
24.9999999999898286
 50
56.5601872324830097
 51
63.4398127675165284
  0
ARC
  5
27FE
  8
0
  6
VERDECKT2
 62
     1
 10
381.2752215585808244
 20
339.4460605952942842
 30
0.0
 40
24.9999999999897291
 50
296.5601872324833721
 51
303.4398127675164005
  0
ARC
  5
27FF
  8
0
  6
VERDECKT2
 62
     1
 10
381.275221558579176
 20
339.4460605953091772
 30
0.0
 40
25.400650290392349
 50
56.6145079303273775
 51
63.385492069672587
  0
ARC
  5
2800
  8
0
  6
VERDECKT2
 62
     1
 10
381.2752215585780959
 20
339.4460605952990022
 30
0.0
 40
25.4006502903941502
 50
296.6145079303279886
 51
303.3854920696720114
  0
ARC
  5
2801
  8
0
  6
VERDECKT2
 62
     1
 10
381.2752215585820181
 20
339.4460605953141794
 30
0.0
 40
27.9908517430504489
 50
56.9281085676043972
 51
63.071891432396491
  0
ARC
  5
2802
  8
0
  6
VERDECKT2
 62
     1
 10
381.2752215585837234
 20
339.4460605952896231
 30
0.0
 40
27.9908517430470205
 50
296.928108567603374
 51
303.0718914323966828
  0
ARC
  5
2803
  8
0
  6
VERDECKT2
 62
     1
 10
381.2752215585672957
 20
339.4460605952888841
 30
0.0
 40
31.3270018298968793
 50
57.255513183385041
 51
62.7444868166153498
  0
ARC
  5
2804
  8
0
  6
VERDECKT2
 62
     1
 10
381.2752215585819044
 20
339.4460605952925789
 30
0.0
 40
31.3270018298677684
 50
297.2555131833821065
 51
302.7444868166178935
  0
ARC
  5
2805
  8
0
  6
VERDECKT2
 62
     1
 10
381.2752215585842919
 20
339.4460605953184995
 30
0.0
 40
37.8356902976320129
 50
57.7279072227738581
 51
62.2720927772257724
  0
ARC
  5
2806
  8
0
  6
VERDECKT2
 62
     1
 10
381.2752215585783233
 20
339.4460605952984906
 30
0.0
 40
37.8356902976438718
 50
297.7279072227748884
 51
302.2720927772248842
  0
ARC
  5
2807
  8
0
  6
VERDECKT2
 62
     1
 10
381.2752215585816771
 20
339.4460605953140089
 30
0.0
 40
38.4063667010156919
 50
57.761685339574413
 51
62.2383146604254875
  0
ARC
  5
2808
  8
0
  6
VERDECKT2
 62
     1
 10
381.2752215585816771
 20
339.4460605952926926
 30
0.0
 40
38.4063667010156919
 50
297.7616853395743988
 51
302.2383146604254875
  0
CIRCLE
  5
2809
  8
0
  6
VERDECKT2
 62
     1
 10
381.2752215585755948
 20
339.4460605953033792
 30
0.0
 40
32.2310530965337279
  0
CIRCLE
  5
280A
  8
0
  6
VERDECKT2
 62
     1
 10
381.2752215585755948
 20
339.4460605953033792
 30
0.0
 40
29.4368414675280903
  0
CIRCLE
  5
280B
  8
0
  6
VERDECKT2
 62
     1
 10
381.2752215585755948
 20
339.4460605953033792
 30
0.0
 40
26.8373897182308383
  0
CIRCLE
  5
280C
  8
0
  6
VERDECKT2
 62
     1
 10
381.2752215585755948
 20
339.4460605953033792
 30
0.0
 40
26.5000000000000604
  0
CIRCLE
  5
280D
  8
0
  6
VERDECKT2
 62
     1
 10
381.2752215585755948
 20
339.4460605953033223
 30
0.0
 40
25.8875793553185716
  0
ARC
  5
280E
  8
0
  6
VERDECKT2
 62
     1
 10
381.2752215585771864
 20
339.4460605953061076
 30
0.0
 40
24.3818495990002795
 50
56.4728690693895103
 51
63.5271309306112926
  0
ARC
  5
280F
  8
0
  6
VERDECKT2
 62
     1
 10
381.2752215585704789
 20
339.4460605953124173
 30
0.0
 40
24.3818495990139716
 50
296.4728690693913222
 51
303.5271309306086778
  0
LINE
  5
2810
  8
0
  6
VERDECKT2
 62
     1
 10
406.0742596642522244
 20
379.3992545731720156
 30
0.0
 11
403.4761834528990789
 21
380.8992545731720156
 31
0.0
  0
LINE
  5
2811
  8
0
  6
VERDECKT2
 62
     1
 10
407.0742596642522244
 20
381.1313053807407982
 30
0.0
 11
404.4761834528990789
 21
382.6313053807409119
 31
0.0
  0
LINE
  5
2812
  8
0
  6
VERDECKT2
 62
     1
 10
404.4761834528987947
 20
382.6313053807409119
 30
0.0
 11
404.4647011703925727
 21
382.6114174840529927
 31
0.0
  0
LINE
  5
2813
  8
0
  6
VERDECKT2
 62
     1
 10
407.0627773817457751
 20
381.111417484052879
 30
0.0
 11
407.0742596642522244
 21
381.1313053807407982
 31
0.0
  0
LINE
  5
2814
  8
0
  6
VERDECKT2
 62
     1
 10
403.4761834528987947
 20
297.9928666174346858
 30
0.0
 11
406.0742596642522244
 21
299.4928666174346858
 31
0.0
  0
LINE
  5
2815
  8
0
  6
VERDECKT2
 62
     1
 10
404.4761834528987947
 20
296.2608158098660169
 30
0.0
 11
407.0742596642522244
 21
297.7608158098659032
 31
0.0
  0
LINE
  5
2816
  8
0
  6
VERDECKT2
 62
     1
 10
407.0742596642522244
 20
297.7608158098659032
 30
0.0
 11
407.0627773817457751
 21
297.7807037065537088
 31
0.0
  0
LINE
  5
2817
  8
0
  6
VERDECKT2
 62
     1
 10
404.4647011703925727
 20
296.2807037065537088
 30
0.0
 11
404.4761834528987947
 21
296.2608158098660169
 31
0.0
  0
LINE
  5
2818
  8
0
  6
VERDECKT2
 62
     1
 10
356.7752215585755948
 20
297.0108158098660169
 30
0.0
 11
367.7077418535487823
 21
290.6989222746419728
 31
0.0
  0
LINE
  5
2819
  8
0
  6
VERDECKT2
 62
     1
 10
345.8427012636024074
 20
303.32270934508972
 30
0.0
 11
356.7752215585755948
 21
297.0108158098660169
 31
0.0
  0
LINE
  5
281A
  8
0
  6
VERDECKT2
 62
     1
 10
356.7752215585755948
 20
381.8813053807409119
 30
0.0
 11
345.8427012636024074
 21
375.5694118455170951
 31
0.0
  0
LINE
  5
281B
  8
0
  6
VERDECKT2
 62
     1
 10
367.7077418535487823
 20
388.1931989159646719
 30
0.0
 11
356.7752215585755948
 21
381.8813053807409119
 31
0.0
  0
LINE
  5
281C
  8
0
  6
VERDECKT2
 62
     1
 10
430.2752215585755948
 20
339.4460605953033792
 30
0.0
 11
430.2752215585755948
 21
352.0698476657505012
 31
0.0
  0
LINE
  5
281D
  8
0
  6
VERDECKT2
 62
     1
 10
430.2752215585755948
 20
326.8222735248562003
 30
0.0
 11
430.2752215585755948
 21
339.4460605953033792
 31
0.0
  0
LINE
  5
281E
  8
0
  6
VERDECKT2
 62
     1
 10
332.2752215585755948
 20
352.0698476657510128
 30
0.0
 11
332.2752215585755948
 21
339.4460605953033792
 31
0.0
  0
LINE
  5
281F
  8
0
  6
VERDECKT2
 62
     1
 10
332.2752215585755948
 20
339.4460605953033792
 30
0.0
 11
332.2752215585755948
 21
326.8222735248556887
 31
0.0
  0
CIRCLE
  5
2820
  8
0
  6
VERDECKT2
 62
     1
 10
381.2752215585755948
 20
339.4460605953033792
 30
0.0
 40
38.4000000000000128
  0
ARC
  5
2821
  8
0
  6
VERDECKT2
 62
     1
 10
381.2752215585688873
 20
339.4460605952912147
 30
0.0
 40
39.0398821804639766
 50
57.798025390313768
 51
62.2019746096864523
  0
ARC
  5
2822
  8
0
  6
VERDECKT2
 62
     1
 10
381.2752215585688873
 20
339.4460605953153163
 30
0.0
 40
39.0398821804639695
 50
297.7980253903136258
 51
302.2019746096862036
  0
ARC
  5
2823
  8
0
  6
VERDECKT2
 62
     1
 10
381.2752215585650788
 20
339.4460605952854166
 30
0.0
 40
42.8667648496452003
 50
57.9946884678998273
 51
62.0053115321000021
  0
ARC
  5
2824
  8
0
  6
VERDECKT2
 62
     1
 10
381.2752215585676936
 20
339.4460605953169079
 30
0.0
 40
42.8667648496401696
 50
297.9946884678993229
 51
302.0053115321009045
  0
ARC
  5
2825
  8
0
  6
VERDECKT2
 62
     1
 10
381.2752215585784938
 20
339.4460605953087224
 30
0.0
 40
43.3999999999937316
 50
58.0193366568639135
 51
61.9806633431354896
  0
ARC
  5
2826
  8
0
  6
VERDECKT2
 62
     1
 10
381.2752215585550175
 20
339.4460605953391905
 30
0.0
 40
43.4000000000411603
 50
298.0193366568663009
 51
301.9806633431334717
  0
ARC
  5
2827
  8
0
  6
VERDECKT2
 62
     1
 10
381.275221558600208
 20
339.4460605953462959
 30
0.0
 40
44.6239422468330815
 50
58.0736829143905808
 51
61.92631708560981
  0
ARC
  5
2828
  8
0
  6
VERDECKT2
 62
     1
 10
381.275221558600208
 20
339.4460605952604055
 30
0.0
 40
44.6239422468330815
 50
298.07368291439019
 51
301.9263170856094121
  0
ARC
  5
2829
  8
0
  6
VERDECKT2
 62
     1
 10
381.27522155857082
 20
339.4460605953038908
 30
0.0
 40
47.9800481275927169
 50
168.3995984239919039
 51
180.0000000000007958
  0
ARC
  5
282A
  8
0
  6
VERDECKT2
 62
     1
 10
381.2752215585755948
 20
339.4460605953032086
 30
0.0
 40
47.9800481275977688
 50
108.3995984239903976
 51
131.6004015760098866
  0
ARC
  5
282B
  8
0
  6
VERDECKT2
 62
     1
 10
381.2752215585977069
 20
339.4460605953419758
 30
0.0
 40
47.9800481275532817
 50
58.208470423672857
 51
61.7915295763268375
  0
ARC
  5
282C
  8
0
  6
VERDECKT2
 62
     1
 10
381.2752215585771864
 20
339.4460605953033223
 30
0.0
 40
47.9800481275959072
 50
348.3995984239891754
 51
11.6004015760106505
  0
ARC
  5
282D
  8
0
  6
VERDECKT2
 62
     1
 10
381.2752215585945805
 20
339.4460605952701826
 30
0.0
 40
47.9800481275595416
 50
298.2084704236731909
 51
301.7915295763265249
  0
ARC
  5
282E
  8
0
  6
VERDECKT2
 62
     1
 10
381.2752215585754243
 20
339.4460605953030949
 30
0.0
 40
47.9800481275973993
 50
228.3995984239936092
 51
251.6004015760059929
  0
ARC
  5
282F
  8
0
  6
VERDECKT2
 62
     1
 10
381.2752215585711042
 20
339.4460605953028107
 30
0.0
 40
47.9800481275931219
 50
179.9999999999992042
 51
191.6004015760080108
  0
CIRCLE
  5
2830
  8
0
  6
VERDECKT2
 62
     1
 10
381.2752215585755948
 20
339.4460605953033792
 30
0.0
 40
49.3760577531172302
  0
CIRCLE
  5
2831
  8
0
  6
VERDECKT2
 62
     1
 10
381.2752215585755948
 20
339.4460605953033792
 30
0.0
 40
46.019951872402217
  0
CIRCLE
  5
2832
  8
0
  6
VERDECKT2
 62
     1
 10
381.2752215585755948
 20
339.4460605953033792
 30
0.0
 40
44.9999999999999218
  0
CIRCLE
  5
2833
  8
0
  6
VERDECKT2
 62
     1
 10
381.2752215585755948
 20
339.4460605953033792
 30
0.0
 40
44.3601178195491812
  0
CIRCLE
  5
2834
  8
0
  6
VERDECKT2
 62
     1
 10
381.2752215585755948
 20
339.4460605953033792
 30
0.0
 40
40.533235150375603
  0
CIRCLE
  5
2835
  8
0
  6
VERDECKT2
 62
     1
 10
381.2752215585755948
 20
339.4460605953033792
 30
0.0
 40
39.9999999999999289
  0
CIRCLE
  5
2836
  8
0
  6
VERDECKT2
 62
     1
 10
381.2752215585755948
 20
339.4460605953033223
 30
0.0
 40
45.1538342168696474
  0
CIRCLE
  5
2837
  8
0
  6
VERDECKT2
 62
     1
 10
381.2752215585755948
 20
339.4460605953033223
 30
0.0
 40
43.5000000000000995
  0
CIRCLE
  5
2838
  8
0
  6
VERDECKT2
 62
     1
 10
381.2752215585755948
 20
339.4460605953033223
 30
0.0
 40
40.2480656548268385
  0
CIRCLE
  5
2839
  8
0
  6
VERDECKT2
 62
     1
 10
381.2752215585755948
 20
339.4460605953033223
 30
0.0
 40
38.6976787857922702
  0
ENDBLK
  5
283B
  8
0
  0
ENDSEC
  0
SECTION
  2
ENTITIES
  0
INSERT
  5
11C5
  8
ADSK_ASSOC_ENTITY_BACKUPS
  2
*U2
 10
0.0
 20
0.0
 30
0.0
  0
INSERT
  5
2952
  8
BEM
  2
A$C64E25749
 10
-416.0555471087824913
 20
220.3167430447593063
 30
0.0
  0
INSERT
  5
2953
  8
BEM
  2
A$C514F3119
 10
-330.6752202836972856
 20
-288.8460609539005759
 30
0.0
  0
VIEWPORT
  5
F0F
 67
     1
  8
0
 10
208.0079469526903893
 20
-10.2518266119803307
 30
0.0
 40
2449.5522262930121542
 41
957.6116169988144975
 68
     1
 69
     1
1001
ACAD
1000
MVIEW
1002
{
1070
    16
1010
0.0
1020
0.0
1030
0.0
1010
0.0
1020
0.0
1030
1.0
1040
0.0
1040
957.6116169988144975
1040
208.0079469526903893
1040
-10.2518266119803307
1040
50.0
1040
0.0
1040
0.0
1070
     0
1070
  1500
1070
     1
1070
     1
1070
     0
1070
     0
1070
     0
1070
     0
1040
0.0
1040
0.0
1040
0.0
1040
10.0
1040
10.0
1040
10.0
1040
10.0
1070
     0
1002
{
1002
}
1002
}
  0
TEXT
  5
1409
 67
     1
  8
VOLL
 10
272.5384126860607239
 20
162.7923247934101028
 30
0.0
 40
1.8
  1

  7
GREEKS
  0
ENDSEC
  0
EOF
