  0
SECTION
  2
HEADER
  9
$ACADVER
  1
AC1009
  9
$INSBASE
 10
0.0
 20
0.0
 30
0.0
  9
$EXTMIN
 10
-62.1001199488816766
 20
-172.0242757427324136
 30
-0.006103049970875
  9
$EXTMAX
 10
61.0157996229477178
 20
200.0138405854974906
 30
0.0091555062787734
  9
$LIMMIN
 10
0.0
 20
0.0
  9
$LIMMAX
 10
296.9999999999998863
 20
420.0000000000001137
  9
$ORTHOMODE
 70
     1
  9
$REGENMODE
 70
     1
  9
$FILLMODE
 70
     1
  9
$QTEXTMODE
 70
     0
  9
$MIRRTEXT
 70
     1
  9
$DRAGMODE
 70
     2
  9
$LTSCALE
 40
10.0
  9
$OSMODE
 70
  2559
  9
$ATTMODE
 70
     1
  9
$TEXTSIZE
 40
3.5
  9
$TRACEWID
 40
0.5
  9
$TEXTSTYLE
  7
STANDARD
  9
$CLAYER
  8
DEFPOINTS
  9
$CELTYPE
  6
BYLAYER
  9
$CECOLOR
 62
   256
  9
$DIMSCALE
 40
1.0
  9
$DIMASZ
 40
3.5
  9
$DIMEXO
 40
1.0
  9
$DIMDLI
 40
7.0
  9
$DIMRND
 40
0.0
  9
$DIMDLE
 40
0.0
  9
$DIMEXE
 40
1.0
  9
$DIMTP
 40
0.0
  9
$DIMTM
 40
0.0
  9
$DIMTXT
 40
3.5
  9
$DIMCEN
 40
1.5
  9
$DIMTSZ
 40
0.0
  9
$DIMTOL
 70
     0
  9
$DIMLIM
 70
     0
  9
$DIMTIH
 70
     0
  9
$DIMTOH
 70
     0
  9
$DIMSE1
 70
     0
  9
$DIMSE2
 70
     0
  9
$DIMTAD
 70
     1
  9
$DIMZIN
 70
     8
  9
$DIMBLK
  1

  9
$DIMASO
 70
     1
  9
$DIMSHO
 70
     0
  9
$DIMPOST
  1

  9
$DIMAPOST
  1

  9
$DIMALT
 70
     0
  9
$DIMALTD
 70
     2
  9
$DIMALTF
 40
25.3999999999999986
  9
$DIMLFAC
 40
1.0
  9
$DIMTOFL
 70
     1
  9
$DIMTVP
 40
0.0
  9
$DIMTIX
 70
     0
  9
$DIMSOXD
 70
     0
  9
$DIMSAH
 70
     0
  9
$DIMBLK1
  1

  9
$DIMBLK2
  1

  9
$DIMSTYLE
  2
STANDARD
  9
$DIMCLRD
 70
     0
  9
$DIMCLRE
 70
     0
  9
$DIMCLRT
 70
     1
  9
$DIMTFAC
 40
0.5142857142857143
  9
$DIMGAP
 40
1.5
  9
$LUNITS
 70
     2
  9
$LUPREC
 70
     2
  9
$SKETCHINC
 40
1.0
  9
$FILLETRAD
 40
0.0
  9
$AUNITS
 70
     0
  9
$AUPREC
 70
     0
  9
$MENU
  1
ACAD
  9
$ELEVATION
 40
0.0
  9
$PELEVATION
 40
0.0
  9
$THICKNESS
 40
0.0
  9
$LIMCHECK
 70
     0
  9
$BLIPMODE
 70
     0
  9
$CHAMFERA
 40
0.0
  9
$CHAMFERB
 40
0.0
  9
$SKPOLY
 70
     0
  9
$TDCREATE
 40
2451337.6017592591233552
  9
$TDUPDATE
 40
2458388.5869791670702398
  9
$TDINDWG
 40
0.1120722454
  9
$TDUSRTIMER
 40
0.1120722454
  9
$USRTIMER
 70
     1
  9
$ANGBASE
 50
0.0
  9
$ANGDIR
 70
     0
  9
$PDMODE
 70
     0
  9
$PDSIZE
 40
0.0
  9
$PLINEWID
 40
0.0
  9
$COORDS
 70
     1
  9
$SPLFRAME
 70
     0
  9
$SPLINETYPE
 70
     6
  9
$SPLINESEGS
 70
     8
  9
$ATTDIA
 70
     1
  9
$ATTREQ
 70
     1
  9
$HANDLING
 70
     1
  9
$HANDSEED
  5
2634
  9
$SURFTAB1
 70
     6
  9
$SURFTAB2
 70
     6
  9
$SURFTYPE
 70
     6
  9
$SURFU
 70
     6
  9
$SURFV
 70
     6
  9
$UCSNAME
  2

  9
$UCSORG
 10
0.0
 20
0.0
 30
0.0
  9
$UCSXDIR
 10
1.0
 20
0.0
 30
0.0
  9
$UCSYDIR
 10
0.0
 20
1.0
 30
0.0
  9
$PUCSNAME
  2

  9
$PUCSORG
 10
0.0
 20
0.0
 30
0.0
  9
$PUCSXDIR
 10
1.0
 20
0.0
 30
0.0
  9
$PUCSYDIR
 10
0.0
 20
1.0
 30
0.0
  9
$USERI1
 70
     0
  9
$USERI2
 70
     0
  9
$USERI3
 70
     0
  9
$USERI4
 70
     0
  9
$USERI5
 70
     0
  9
$USERR1
 40
0.0
  9
$USERR2
 40
0.0
  9
$USERR3
 40
0.0
  9
$USERR4
 40
0.0
  9
$USERR5
 40
0.0
  9
$WORLDVIEW
 70
     1
  9
$SHADEDGE
 70
     3
  9
$SHADEDIF
 70
    70
  9
$TILEMODE
 70
     1
  9
$MAXACTVP
 70
    16
  9
$PLIMCHECK
 70
     0
  9
$PEXTMIN
 10
-0.1278078343990714
 20
-0.1150431309706903
 30
-0.0000000349181948
  9
$PEXTMAX
 10
9.9304042250555185
 20
14.0619755099593409
 30
0.0000000814935746
  9
$PLIMMIN
 10
-0.2500002402958907
 20
-0.2499999962453767
  9
$PLIMMAX
 10
10.7499995194082203
 20
8.2499997634587334
  9
$UNITMODE
 70
     0
  9
$VISRETAIN
 70
     0
  9
$PLINEGEN
 70
     0
  9
$PSLTSCALE
 70
     0
  0
ENDSEC
  0
SECTION
  2
TABLES
  0
TABLE
  2
VPORT
 70
     1
  0
VPORT
  2
*ACTIVE
 70
     0
 10
0.0
 20
0.0
 11
1.0
 21
1.0
 12
-0.5421601629669796
 22
-55.5073442723430617
 13
0.0
 23
0.0
 14
1.0
 24
1.0
 15
10.0
 25
10.0
 16
-0.0000000000001645
 26
0.0
 36
740.9100904179002782
 17
0.0
 27
69.5021266937255859
 37
-0.0000000000000193
 40
373.9346572780764859
 41
1.868197278911564
 42
50.0
 43
0.0
 44
0.0
 50
0.0
 51
0.0
 71
     0
 72
  1500
 73
     1
 74
     0
 75
     0
 76
     0
 77
     0
 78
     0
  0
ENDTAB
  0
TABLE
  2
LTYPE
 70
     5
  0
LTYPE
  2
CONTINUOUS
 70
     0
  3
Solid line
 72
    65
 73
     0
 40
0.0
  0
LTYPE
  2
VERDECKT
 70
     0
  3
_ _ _ _ _ _ _ _ _ _ _ _ _ _ _ _ _ _ _ _ _ _ _
 72
    65
 73
     2
 40
0.375
 49
0.25
 49
-0.125
  0
ENDTAB
  0
TABLE
  2
LAYER
 70
    11
  0
LAYER
  2
0
 70
     0
 62
     7
  6
CONTINUOUS
  0
LAYER
  2
VOLL
 70
     0
 62
     1
  6
CONTINUOUS
  0
LAYER
  2
DEFPOINTS
 70
     0
 62
     7
  6
CONTINUOUS
  0
ENDTAB
  0
TABLE
  2
STYLE
 70
     2
  0
STYLE
  2
STANDARD
 70
     0
 40
0.0
 41
0.8
 50
0.0
 71
     0
 42
3.5
  3
simplex.shx
  4

  0
STYLE
  2
GREEKS
 70
     0
 40
0.0
 41
0.8
 50
0.0
 71
     0
 42
2.5
  3
SIMPLEX.shx
  4

  0
ENDTAB
  0
TABLE
  2
VIEW
 70
     1
  0
ENDTAB
  0
TABLE
  2
UCS
 70
     0
  0
ENDTAB
  0
TABLE
  2
APPID
 70
     9
  0
APPID
  2
ACAD
 70
     0
  0
APPID
  2
ACAD_EXEMPT_FROM_CAD_STANDARDS
 70
     0
  0
APPID
  2
ACAD_NAV_VCDISPLAY
 70
     0
  0
APPID
  2
ACAD_PSEXT
 70
     0
  0
APPID
  2
ACAECLAYERSTANDARD
 70
     0
  0
APPID
  2
ACCMTRANSPARENCY
 70
     0
  0
APPID
  2
ACAD_MLEADERVER
 70
     0
  0
APPID
  2
ACAD_OBJECT_CHANGE_GUID
 70
     0
  0
APPID
  2
ACADANNOMONITORALERTICONDI
 70
     0
  0
ENDTAB
  0
TABLE
  2
DIMSTYLE
 70
     2
  0
DIMSTYLE
  2
STANDARD
 70
     0
  3

  4

  5

  6

  7

 40
1.0
 41
0.18
 42
0.0625
 43
0.38
 44
0.18
 45
0.0
 46
0.0
 47
0.0
 48
0.0
140
0.18
141
0.09
142
0.0
143
25.3999999999999986
144
1.0
145
0.0
146
1.0
147
0.09
 71
     0
 72
     0
 73
     1
 74
     1
 75
     0
 76
     0
 77
     0
 78
     0
170
     0
171
     2
172
     0
173
     0
174
     0
175
     0
176
     0
177
     0
178
     0
  0
ENDTAB
  0
ENDSEC
  0
SECTION
  2
BLOCKS
  0
BLOCK
  8
0
  2
$MODEL_SPACE
 70
     0
 10
0.0
 20
0.0
 30
0.0
  3
$MODEL_SPACE
  1

  0
ENDBLK
  5
36
  8
0
  0
BLOCK
 67
     1
  8
0
  2
$PAPER_SPACE
 70
     0
 10
0.0
 20
0.0
 30
0.0
  3
$PAPER_SPACE
  1

  0
ENDBLK
  5
34
 67
     1
  8
0
  0
BLOCK
  8
0
  2
A$C37EE49E6
 70
     0
 10
0.0
 20
0.0
 30
0.0
  3
A$C37EE49E6
  1

  0
ARC
  5
253E
  8
0
  6
CONTINUOUS
 62
     3
 10
0.0000000000000167
 20
-0.0000000000000057
 30
0.0
 40
50.1871728448123733
 50
180.0
 51
298.2872820859324179
  0
ARC
  5
253F
  8
0
  6
CONTINUOUS
 62
     3
 10
0.0000000000000167
 20
0.0000000000000121
 30
0.0
 40
50.1871728448123875
 50
301.7127179140676958
 51
58.2872820859323184
  0
ARC
  5
2540
  8
0
  6
CONTINUOUS
 62
     3
 10
0.0000000000000309
 20
0.0000000000000156
 30
0.0
 40
50.1871728448123804
 50
61.7127179140676105
 51
180.0
  0
ARC
  5
2541
  8
0
  6
CONTINUOUS
 62
     3
 10
0.0000000000000311
 20
0.0000000000000086
 30
0.0
 40
48.9736473532500369
 50
180.0
 51
298.2448292674499726
  0
ARC
  5
2542
  8
0
  6
CONTINUOUS
 62
     3
 10
0.0000000000000311
 20
0.0000000000000228
 30
0.0
 40
48.9736473532500511
 50
301.7551707325500843
 51
58.2448292674499086
  0
ARC
  5
2543
  8
0
  6
CONTINUOUS
 62
     3
 10
0.0000000000000311
 20
0.0000000000000015
 30
0.0
 40
48.9736473532500511
 50
61.7551707325500416
 51
180.0
  0
ARC
  5
2544
  8
0
  6
CONTINUOUS
 62
     3
 10
0.0000000000000258
 20
0.0000000000000107
 30
0.0
 40
34.9000000000000483
 50
180.0
 51
297.5366718750246946
  0
ARC
  5
2545
  8
0
  6
CONTINUOUS
 62
     3
 10
-0.0000000000000026
 20
0.0000000000000071
 30
0.0
 40
34.9000000000000625
 50
302.4633281249754191
 51
57.5366718750245809
  0
ARC
  5
2546
  8
0
  6
CONTINUOUS
 62
     3
 10
0.0000000000000258
 20
0.000000000000016
 30
0.0
 40
34.9000000000000412
 50
62.4633281249751704
 51
180.0
  0
ARC
  5
2547
  8
0
  6
CONTINUOUS
 62
     3
 10
0.0000000000000004
 20
0.0000000000000037
 30
0.0
 40
34.3818495990034876
 50
180.0
 51
297.4995249682738176
  0
ARC
  5
2548
  8
0
  6
CONTINUOUS
 62
     3
 10
0.0000000000000004
 20
-0.0000000000000034
 30
0.0
 40
34.3818495990034876
 50
302.500475031726296
 51
57.49952496827364
  0
ARC
  5
2549
  8
0
  6
CONTINUOUS
 62
     3
 10
0.0000000000000004
 20
0.0000000000000037
 30
0.0
 40
34.3818495990034876
 50
62.5004750317260829
 51
180.0
  0
LINE
  5
254A
  8
0
  6
CONTINUOUS
 62
     3
 10
-15.30909404172656
 20
56.9792211215770195
 30
0.0
 11
-41.6909059582731203
 21
41.7476749098488327
 31
-0.0000000000000059
  0
LINE
  5
254B
  8
0
  6
CONTINUOUS
 62
     3
 10
-56.9999999999997797
 20
15.2315462117283698
 30
0.0
 11
-56.9999999999999005
 21
-15.2315462117279203
 31
0.0
  0
LINE
  5
254C
  8
0
  6
CONTINUOUS
 62
     3
 10
57.0000000000000426
 20
-15.2315462117279203
 30
0.0
 11
57.0000000000000426
 21
15.2315462117279097
 31
0.0
  0
LINE
  5
254D
  8
0
  6
CONTINUOUS
 62
     3
 10
-41.6909059582727721
 20
-41.747674909848989
 30
0.0
 11
-15.3090940417267891
 21
-56.9792211215768134
 31
0.0000000000000059
  0
CIRCLE
  5
254E
  8
0
  6
CONTINUOUS
 62
     3
 10
0.0000000000000444
 20
0.0000000000000122
 30
0.0
 40
61.0
  0
CIRCLE
  5
254F
  8
0
  6
CONTINUOUS
 62
     3
 10
0.0000000000000444
 20
0.0000000000000122
 30
0.0
 40
59.0000000000001066
  0
LINE
  5
2550
  8
0
  6
CONTINUOUS
 62
     3
 10
24.6914264549235902
 20
45.7668051312776427
 30
0.0
 11
17.6914264549235796
 21
33.6424494782956032
 31
-0.0000000000000018
  0
LINE
  5
2551
  8
0
  6
CONTINUOUS
 62
     3
 10
20.2895026662767286
 20
32.1424494782956032
 30
0.0
 11
17.6914264549234694
 21
33.6424494782956032
 31
-0.0000000000000006
  0
LINE
  5
2552
  8
0
  6
CONTINUOUS
 62
     3
 10
20.2895026662767286
 20
32.1424494782956032
 30
0.0
 11
27.2895026662767286
 21
44.2668051312776427
 31
0.0000000000000018
  0
LINE
  5
2553
  8
0
  6
CONTINUOUS
 62
     3
 10
27.2895026662767286
 20
44.2668051312774722
 30
0.0
 11
24.6914264549234694
 21
45.7668051312774722
 31
-0.0000000000000006
  0
LINE
  5
2554
  8
0
  6
CONTINUOUS
 62
     3
 10
17.6914264549234694
 20
33.64244947829539
 30
0.0
 11
14.1914264549234694
 21
27.5802716518043205
 31
-0.0000000000000008
  0
LINE
  5
2555
  8
0
  6
CONTINUOUS
 62
     3
 10
16.7895026662767286
 20
26.0802716518043312
 30
0.0
 11
14.1914264549234694
 21
27.5802716518043312
 31
-0.0000000000000006
  0
LINE
  5
2556
  8
0
  6
CONTINUOUS
 62
     3
 10
16.7895026662767286
 20
26.0802716518043312
 30
0.0
 11
20.2895026662767286
 21
32.1424494782953971
 31
0.0000000000000008
  0
LINE
  5
2557
  8
0
  6
CONTINUOUS
 62
     3
 10
30.7895026662767393
 20
50.328982957768531
 30
0.0
 11
28.1914264549234694
 21
51.8289829577685168
 31
-0.0000000000000006
  0
LINE
  5
2558
  8
0
  6
CONTINUOUS
 62
     3
 10
28.1914264549233593
 20
51.8289829577685524
 30
0.0
 11
24.6914264549233593
 21
45.7668051312774722
 31
-0.0000000000000008
  0
LINE
  5
2559
  8
0
  6
CONTINUOUS
 62
     3
 10
27.2895026662767286
 20
44.2668051312774722
 30
0.0
 11
30.7895026662767393
 21
50.3289829577685381
 31
0.0000000000000008
  0
LINE
  5
255A
  8
0
  6
CONTINUOUS
 62
     3
 10
24.6914264549235902
 20
-45.7668051312775717
 30
0.0
 11
17.6914264549235796
 21
-33.6424494782955321
 31
-0.0000000000000018
  0
LINE
  5
255B
  8
0
  6
CONTINUOUS
 62
     3
 10
27.2895026662767286
 20
-44.2668051312775219
 30
0.0
 11
24.6914264549234694
 21
-45.7668051312775077
 31
-0.0000000000000006
  0
LINE
  5
255C
  8
0
  6
CONTINUOUS
 62
     3
 10
20.2895026662767286
 20
-32.1424494782955179
 30
0.0
 11
27.2895026662767286
 21
-44.2668051312775717
 31
0.0000000000000018
  0
LINE
  5
255D
  8
0
  6
CONTINUOUS
 62
     3
 10
20.2895026662767286
 20
-32.1424494782955179
 30
0.0
 11
17.6914264549234694
 21
-33.6424494782955321
 31
-0.0000000000000006
  0
LINE
  5
255E
  8
0
  6
CONTINUOUS
 62
     3
 10
17.6914264549234694
 20
-33.6424494782954326
 30
0.0
 11
14.1914264549234694
 21
-27.5802716518043596
 31
-0.0000000000000008
  0
LINE
  5
255F
  8
0
  6
CONTINUOUS
 62
     3
 10
16.7895026662767286
 20
-26.0802716518043489
 30
0.0
 11
20.2895026662767286
 21
-32.1424494782954326
 31
0.0000000000000008
  0
LINE
  5
2560
  8
0
  6
CONTINUOUS
 62
     3
 10
16.7895026662767286
 20
-26.0802716518043489
 30
0.0
 11
14.1914264549234694
 21
-27.5802716518043489
 31
-0.0000000000000006
  0
LINE
  5
2561
  8
0
  6
CONTINUOUS
 62
     3
 10
30.7895026662767393
 20
-50.3289829577684529
 30
0.0
 11
28.1914264549234694
 21
-51.8289829577684529
 31
-0.0000000000000006
  0
LINE
  5
2562
  8
0
  6
CONTINUOUS
 62
     3
 10
28.1914264549233593
 20
-51.8289829577684813
 30
0.0
 11
24.6914264549233593
 21
-45.7668051312773869
 31
-0.0000000000000008
  0
LINE
  5
2563
  8
0
  6
CONTINUOUS
 62
     3
 10
27.2895026662767286
 20
-44.2668051312775219
 30
0.0
 11
30.7895026662767393
 21
-50.3289829577685879
 31
0.0000000000000008
  0
CIRCLE
  5
2564
  8
0
  6
VERDECKT
 62
     1
 10
0.0000000000000004
 20
0.0000000000000001
 30
0.0
 40
35.8875793553185076
  0
CIRCLE
  5
2565
  8
0
  6
VERDECKT
 62
     1
 10
0.0000000000000258
 20
0.0000000000000071
 30
0.0
 40
36.5000000000000568
  0
ARC
  5
2566
  8
0
  6
VERDECKT
 62
     1
 10
-0.0000000000012765
 20
0.0000000000024812
 30
0.0
 40
50.1871728448151728
 50
298.2872820859324179
 51
301.7127179140674116
  0
ARC
  5
2567
  8
0
  6
VERDECKT
 62
     1
 10
0.0000000000052747
 20
0.0000000000092811
 30
0.0
 40
50.1871728448017365
 50
58.2872820859318708
 51
61.7127179140678734
  0
ARC
  5
2568
  8
0
  6
VERDECKT
 62
     1
 10
0.0000000000041238
 20
-0.0000000000069832
 30
0.0
 40
48.9736473532419367
 50
298.2448292674495747
 51
301.7551707325504253
  0
ARC
  5
2569
  8
0
  6
VERDECKT
 62
     1
 10
0.0000000000092397
 20
0.0000000000157755
 30
0.0
 40
48.9736473532317902
 50
58.2448292674493615
 51
61.7551707325507877
  0
ARC
  5
256A
  8
0
  6
VERDECKT
 62
     1
 10
0.0000000000027969
 20
-0.0000000000048601
 30
0.0
 40
34.8999999999944492
 50
297.5366718750245241
 51
302.4633281249757033
  0
ARC
  5
256B
  8
0
  6
VERDECKT
 62
     1
 10
0.0000000000000826
 20
0.0000000000001599
 30
0.0
 40
34.899999999999892
 50
57.5366718750245596
 51
62.4633281249751704
  0
ARC
  5
256C
  8
0
  6
VERDECKT
 62
     1
 10
-0.0000000000023159
 20
0.0000000000040751
 30
0.0
 40
34.3818495990081701
 50
297.4995249682741019
 51
302.5004750317258981
  0
ARC
  5
256D
  8
0
  6
VERDECKT
 62
     1
 10
-0.0000000000024296
 20
-0.0000000000041956
 30
0.0
 40
34.3818495990083406
 50
57.4995249682740024
 51
62.5004750317257276
  0
LINE
  5
256E
  8
0
  6
VERDECKT
 62
     1
 10
-58.9999999999999005
 20
15.4919333848295793
 30
0.0
 11
-58.9999999999999005
 21
0.0000000000000124
 31
0.0
  0
LINE
  5
256F
  8
0
  6
VERDECKT
 62
     1
 10
-58.9999999999999005
 20
0.0000000000000118
 30
0.0
 11
-58.9999999999999005
 21
-15.4919333848295597
 31
0.0
  0
LINE
  5
2570
  8
0
  6
VERDECKT
 62
     1
 10
58.9999999999999289
 20
-15.4919333848299701
 30
0.0
 11
59.0000000000000426
 21
-0.0000000000002043
 31
0.0
  0
LINE
  5
2571
  8
0
  6
VERDECKT
 62
     1
 10
59.0000000000000426
 20
-0.000000000000205
 30
0.0
 11
59.0000000000000426
 21
15.4919333848295402
 31
0.0
  0
LINE
  5
2572
  8
0
  6
VERDECKT
 62
     1
 10
-16.0835921350004689
 20
58.8414655156969175
 30
0.0
 11
-29.4999999999997904
 21
51.0954988232817726
 31
-0.000000000000003
  0
LINE
  5
2573
  8
0
  6
VERDECKT
 62
     1
 10
-29.4999999999997904
 20
51.0954988232817726
 30
0.0
 11
-42.9164078649991012
 21
43.3495321308665922
 31
-0.000000000000003
  0
LINE
  5
2574
  8
0
  6
VERDECKT
 62
     1
 10
-42.9164078649986394
 20
-43.3495321308668835
 30
0.0
 11
-29.4999999999997904
 21
-51.0954988232817726
 31
0.000000000000003
  0
LINE
  5
2575
  8
0
  6
VERDECKT
 62
     1
 10
-29.4999999999997904
 20
-51.0954988232817726
 30
0.0
 11
-16.0835921350010409
 21
-58.8414655156965907
 31
0.000000000000003
  0
CIRCLE
  5
2576
  8
0
  6
VERDECKT
 62
     1
 10
0.0000000000000296
 20
0.0000000000000082
 30
0.0
 40
48.9999999999999503
  0
CIRCLE
  5
2577
  8
0
  6
VERDECKT
 62
     1
 10
0.0000000000000296
 20
0.0000000000000082
 30
0.0
 40
51.0
  0
LINE
  5
2578
  8
0
  6
VERDECKT
 62
     1
 10
29.7895026662767286
 20
48.5969321501996774
 30
0.0
 11
27.1914264549234694
 21
50.0969321501996774
 31
-0.0000000000000006
  0
LINE
  5
2579
  8
0
  6
VERDECKT
 62
     1
 10
29.7895026662767286
 20
-48.5969321501997271
 30
0.0
 11
27.1914264549234694
 21
-50.09693215019972
 31
-0.0000000000000006
  0
ENDBLK
  5
257B
  8
0
  0
BLOCK
  8
0
  2
A$C64027B82
 70
     0
 10
0.0
 20
0.0
 30
0.0
  3
A$C64027B82
  1

  0
LINE
  5
257F
  8
0
  6
CONTINUOUS
 62
     3
 10
-51.0
 20
0.0
 30
0.0
 11
51.0
 21
0.0
 31
0.0
210
0.0
220
1.0
230
-0.0000000000000002
  0
LINE
  5
2580
  8
0
  6
CONTINUOUS
 62
     3
 10
-58.9999999999999503
 20
191.9999999999998863
 30
-0.0000000000000426
 11
-58.9999999999999503
 21
184.9999999999998863
 31
-0.0000000000000411
210
0.0
220
1.0
230
-0.0000000000000002
  0
LINE
  5
2581
  8
0
  6
CONTINUOUS
 62
     3
 10
-61.0000000000003411
 20
184.9999999999998863
 30
-0.0000000000000411
 11
-59.0000000000003411
 21
184.9999999999998863
 31
-0.0000000000000411
210
0.0
220
1.0
230
-0.0000000000000002
  0
LINE
  5
2582
  8
0
  6
CONTINUOUS
 62
     3
 10
-59.0000000000003411
 20
191.9999999999998863
 30
-0.0000000000000426
 11
-61.0000000000003411
 21
191.9999999999998863
 31
-0.0000000000000426
210
0.0
220
1.0
230
-0.0000000000000002
  0
LINE
  5
2583
  8
0
  6
CONTINUOUS
 62
     3
 10
58.9999999999997726
 20
184.9999999999998863
 30
-0.0000000000000411
 11
58.9999999999997726
 21
191.9999999999998863
 31
-0.0000000000000426
210
0.0
220
1.0
230
-0.0000000000000002
  0
LINE
  5
2584
  8
0
  6
CONTINUOUS
 62
     3
 10
59.0000000000002274
 20
184.9999999999998863
 30
-0.0000000000000411
 11
61.0000000000003411
 21
184.9999999999998863
 31
-0.0000000000000411
210
0.0
220
1.0
230
-0.0000000000000002
  0
LINE
  5
2585
  8
0
  6
CONTINUOUS
 62
     3
 10
61.0000000000003411
 20
191.9999999999998863
 30
-0.0000000000000426
 11
59.0000000000002274
 21
191.9999999999998863
 31
-0.0000000000000426
210
0.0
220
1.0
230
-0.0000000000000002
  0
LINE
  5
2586
  8
0
  6
CONTINUOUS
 62
     3
 10
-42.9164078650002665
 20
184.9999999999998863
 30
-0.0000000000000411
 11
-42.9164078650002665
 21
191.9999999999998863
 31
-0.0000000000000426
210
0.0
220
1.0
230
-0.0000000000000002
  0
LINE
  5
2587
  8
0
  6
CONTINUOUS
 62
     3
 10
-16.0835921349993782
 20
191.9999999999998863
 30
-0.0000000000000426
 11
-16.0835921349993782
 21
184.9999999999998863
 31
-0.0000000000000411
210
0.0
220
1.0
230
-0.0000000000000002
  0
LINE
  5
2588
  8
0
  6
CONTINUOUS
 62
     3
 10
-16.0835921350012505
 20
191.9999999999998863
 30
-0.0000000000000426
 11
-42.9164078649990302
 21
191.9999999999998863
 31
-0.0000000000000426
210
0.0
220
1.0
230
-0.0000000000000002
  0
LINE
  5
2589
  8
0
  6
CONTINUOUS
 62
     3
 10
-42.9164078649990515
 20
184.9999999999998863
 30
-0.0000000000000411
 11
-16.0835921350012505
 21
184.9999999999998863
 31
-0.0000000000000411
210
0.0
220
1.0
230
-0.0000000000000002
  0
LINE
  5
258A
  8
0
  6
CONTINUOUS
 62
     3
 10
-61.0
 20
199.9999999999998863
 30
-0.0000000000000444
 11
61.0
 21
199.9999999999998863
 31
-0.0000000000000444
210
0.0
220
1.0
230
-0.0000000000000002
  0
LINE
  5
258B
  8
0
  6
CONTINUOUS
 62
     3
 10
61.0000000000001208
 20
199.9999999999998863
 30
-0.0000000000000444
 11
61.0000000000001208
 21
191.9999999999998863
 31
-0.0000000000000426
210
0.0
220
1.0
230
-0.0000000000000002
  0
LINE
  5
258C
  8
0
  6
CONTINUOUS
 62
     3
 10
61.0000000000001208
 20
184.9999999999998863
 30
-0.0000000000000411
 11
61.0000000000001208
 21
161.6681164997397957
 31
-0.0000000000000359
210
0.0
220
1.0
230
-0.0000000000000002
  0
LINE
  5
258D
  8
0
  6
CONTINUOUS
 62
     3
 10
-61.0000000000001208
 20
199.9999999999998863
 30
-0.0000000000000444
 11
-61.0000000000001208
 21
191.9999999999998863
 31
-0.0000000000000426
210
0.0
220
1.0
230
-0.0000000000000002
  0
LINE
  5
258E
  8
0
  6
CONTINUOUS
 62
     3
 10
-61.0000000000001208
 20
184.9999999999998863
 30
-0.0000000000000411
 11
-61.0000000000001208
 21
161.6681164997397957
 31
-0.0000000000000359
210
0.0
220
1.0
230
-0.0000000000000002
  0
ARC
  5
258F
  8
0
  6
CONTINUOUS
 62
     3
 10
46.9999999999993321
 20
161.6681164997397957
 30
0.0
 40
14.0000000000006004
210
0.0
220
-0.0000000000000002
230
-1.0
 50
336.2473682960912242
 51
0.0
  0
ARC
  5
2590
  8
0
  6
CONTINUOUS
 62
     3
 10
-46.9999999999993321
 20
161.6681164997397957
 30
0.0
 40
14.0000000000006093
210
0.0
220
-0.0000000000000002
230
-1.0
 50
180.0
 51
203.7526317039088042
  0
LINE
  5
2591
  8
0
  6
CONTINUOUS
 62
     3
 10
-52.0164842491923025
 20
138.3098483750781895
 30
-0.0000000000000307
 11
-59.8141017092756471
 21
156.0290742597543954
 31
-0.0000000000000346
210
0.0
220
1.0
230
-0.0000000000000002
  0
LINE
  5
2592
  8
0
  6
CONTINUOUS
 62
     3
 10
52.0164842491923025
 20
138.3098483750781895
 30
-0.0000000000000307
 11
59.8141017092756471
 21
156.0290742597543954
 31
-0.0000000000000346
210
0.0
220
1.0
230
-0.0000000000000002
  0
ARC
  5
2593
  8
0
  6
CONTINUOUS
 62
     3
 10
63.0000000000017266
 20
133.4763835979476028
 30
0.0
 40
12.0000000000017195
210
0.0
220
-0.0000000000000002
230
-1.0
 50
156.2473682960921906
 51
179.9999999999986073
  0
ARC
  5
2594
  8
0
  6
CONTINUOUS
 62
     3
 10
-63.0000000000017266
 20
133.4763835979476028
 30
0.0
 40
12.0000000000017195
210
0.0
220
-0.0000000000000002
230
-1.0
 50
0.0000000000013613
 51
23.7526317039077384
  0
LINE
  5
2595
  8
0
  6
CONTINUOUS
 62
     3
 10
51.0
 20
133.476383597947887
 30
-0.0000000000000296
 11
51.0
 21
0.0
 31
0.0
210
0.0
220
1.0
230
-0.0000000000000002
  0
LINE
  5
2596
  8
0
  6
CONTINUOUS
 62
     3
 10
-51.0
 20
133.476383597947887
 30
-0.0000000000000296
 11
-51.0
 21
0.0
 31
0.0
210
0.0
220
1.0
230
-0.0000000000000002
  0
LINE
  5
2597
  8
0
  6
VERDECKT
 62
     1
 10
35.8875793553185076
 20
2.0
 30
-0.0000000000000004
 11
-35.8875793553185076
 21
2.0
 31
-0.0000000000000004
210
0.0
220
1.0
230
-0.0000000000000002
  0
LINE
  5
2598
  8
0
  6
VERDECKT
 62
     1
 10
50.1871728448123804
 20
139.1183221215613059
 30
-0.0000000000000309
 11
-50.1871728448123804
 21
139.1183221215613059
 31
-0.0000000000000309
210
0.0
220
1.0
230
-0.0000000000000002
  0
LINE
  5
2599
  8
0
  6
VERDECKT
 62
     1
 10
48.9736473532500369
 20
140.0
 30
-0.0000000000000311
 11
-48.9736473532500369
 21
140.0
 31
-0.0000000000000311
210
0.0
220
1.0
230
-0.0000000000000002
  0
LINE
  5
259A
  8
0
  6
VERDECKT
 62
     1
 10
-35.8875793553185076
 20
2.0
 30
-0.0000000000000004
 11
-36.5
 21
9.0000000000000018
 31
-0.000000000000002
210
0.0
220
1.0
230
-0.0000000000000002
  0
LINE
  5
259B
  8
0
  6
VERDECKT
 62
     1
 10
35.8875793553185076
 20
2.0
 30
-0.0000000000000004
 11
36.5
 21
9.0000000000000018
 31
-0.000000000000002
210
0.0
220
1.0
230
-0.0000000000000002
  0
LINE
  5
259C
  8
0
  6
VERDECKT
 62
     1
 10
-36.5000000000000284
 20
9.0000000000000018
 30
-0.000000000000002
 11
-36.5000000000000284
 21
116.3805085208028061
 31
-0.0000000000000258
210
0.0
220
1.0
230
-0.0000000000000002
  0
LINE
  5
259D
  8
0
  6
VERDECKT
 62
     1
 10
36.5000000000000284
 20
9.0000000000000018
 30
-0.000000000000002
 11
36.5000000000000284
 21
116.3805085208028061
 31
-0.0000000000000258
210
0.0
220
1.0
230
-0.0000000000000002
  0
ARC
  5
259E
  8
0
  6
VERDECKT
 62
     1
 10
-48.4999999999999503
 20
116.3805085208028061
 30
0.0
 40
11.9999999999998899
210
0.0
220
-0.0000000000000002
230
-1.0
 50
360.0
 51
36.0000000000008313
  0
ARC
  5
259F
  8
0
  6
VERDECKT
 62
     1
 10
48.5000000000000782
 20
116.3805085208027066
 30
0.0
 40
12.0000000000000195
210
0.0
220
-0.0000000000000002
230
-1.0
 50
143.9999999999992895
 51
179.999999999999801
  0
LINE
  5
25A0
  8
0
  6
VERDECKT
 62
     1
 10
-38.7917960675007691
 20
123.4339315483126001
 30
-0.0000000000000274
 11
-50.1871728448123875
 21
139.1183221215613059
 31
-0.0000000000000309
210
0.0
220
1.0
230
-0.0000000000000002
  0
LINE
  5
25A1
  8
0
  6
VERDECKT
 62
     1
 10
38.7917960675007691
 20
123.4339315483126001
 30
-0.0000000000000274
 11
50.1871728448123875
 21
139.1183221215613059
 31
-0.0000000000000309
210
0.0
220
1.0
230
-0.0000000000000002
  0
LINE
  5
25A2
  8
0
  6
VERDECKT
 62
     1
 10
48.9736473532500298
 20
140.0
 30
-0.0000000000000311
 11
50.1871728448123733
 21
139.1183221215613059
 31
-0.0000000000000309
210
0.0
220
1.0
230
-0.0000000000000002
  0
LINE
  5
25A3
  8
0
  6
VERDECKT
 62
     1
 10
-48.9736473532500298
 20
140.0
 30
-0.0000000000000311
 11
-50.1871728448123733
 21
139.1183221215613059
 31
-0.0000000000000309
210
0.0
220
1.0
230
-0.0000000000000002
  0
LINE
  5
25A4
  8
0
  6
VERDECKT
 62
     1
 10
-37.4973688765008504
 20
124.2042577903100948
 30
-0.0000000000000276
 11
-48.9736473532500369
 21
140.0
 31
-0.0000000000000311
210
0.0
220
1.0
230
-0.0000000000000002
  0
LINE
  5
25A5
  8
0
  6
VERDECKT
 62
     1
 10
37.4973688765008504
 20
124.2042577903100948
 30
-0.0000000000000276
 11
48.9736473532500369
 21
140.0
 31
-0.0000000000000311
210
0.0
220
1.0
230
-0.0000000000000002
  0
ARC
  5
25A6
  8
0
  6
VERDECKT
 62
     1
 10
-48.5000000000002203
 20
116.2103783591323065
 30
0.0
 40
13.6000000000001595
210
0.0
220
-0.0000000000000002
230
-1.0
 50
0.0000000000005471
 51
36.0000000000003908
  0
ARC
  5
25A7
  8
0
  6
VERDECKT
 62
     1
 10
48.5000000000002203
 20
116.2103783591323065
 30
0.0
 40
13.6000000000001595
210
0.0
220
-0.0000000000000002
230
-1.0
 50
143.9999999999996021
 51
179.9999999999994031
  0
LINE
  5
25A8
  8
0
  6
VERDECKT
 62
     1
 10
-34.9000000000000483
 20
7.9224861840866661
 30
-0.0000000000000018
 11
-34.9000000000000483
 21
116.210378359132406
 31
-0.0000000000000258
210
0.0
220
1.0
230
-0.0000000000000002
  0
LINE
  5
25A9
  8
0
  6
VERDECKT
 62
     1
 10
34.9000000000000483
 20
7.9224861840866661
 30
-0.0000000000000018
 11
34.9000000000000483
 21
116.210378359132406
 31
-0.0000000000000258
210
0.0
220
1.0
230
-0.0000000000000002
  0
LINE
  5
25AA
  8
0
  6
VERDECKT
 62
     1
 10
-34.3818495990034876
 20
2.0
 30
-0.0000000000000004
 11
-34.9000000000000412
 21
7.9224861840866661
 31
-0.0000000000000018
210
0.0
220
1.0
230
-0.0000000000000002
  0
LINE
  5
25AB
  8
0
  6
VERDECKT
 62
     1
 10
34.3818495990034876
 20
2.0
 30
-0.0000000000000004
 11
34.9000000000000412
 21
7.9224861840866661
 31
-0.0000000000000018
210
0.0
220
1.0
230
-0.0000000000000002
  0
LINE
  5
25AC
  8
0
  6
VERDECKT
 62
     1
 10
-56.9999999999999432
 20
184.9999999999998863
 30
-0.0000000000000411
 11
-56.9999999999999432
 21
191.9999999999998863
 31
-0.0000000000000426
210
0.0
220
1.0
230
-0.0000000000000002
  0
LINE
  5
25AD
  8
0
  6
VERDECKT
 62
     1
 10
-57.0000000000001066
 20
184.9999999999998863
 30
-0.0000000000000411
 11
-59.0000000000001066
 21
184.9999999999998863
 31
-0.0000000000000411
210
0.0
220
1.0
230
-0.0000000000000002
  0
LINE
  5
25AE
  8
0
  6
VERDECKT
 62
     1
 10
-59.0000000000001066
 20
191.9999999999998863
 30
-0.0000000000000426
 11
-57.0000000000001066
 21
191.9999999999998863
 31
-0.0000000000000426
210
0.0
220
1.0
230
-0.0000000000000002
  0
LINE
  5
25AF
  8
0
  6
VERDECKT
 62
     1
 10
57.0
 20
191.9999999999998863
 30
-0.0000000000000426
 11
57.0
 21
184.9999999999998863
 31
-0.0000000000000411
210
0.0
220
1.0
230
-0.0000000000000002
  0
LINE
  5
25B0
  8
0
  6
VERDECKT
 62
     1
 10
59.0000000000001066
 20
184.9999999999998863
 30
-0.0000000000000411
 11
57.0000000000001066
 21
184.9999999999998863
 31
-0.0000000000000411
210
0.0
220
1.0
230
-0.0000000000000002
  0
LINE
  5
25B1
  8
0
  6
VERDECKT
 62
     1
 10
57.0000000000001208
 20
191.9999999999998863
 30
-0.0000000000000426
 11
59.0000000000001066
 21
191.9999999999998863
 31
-0.0000000000000426
210
0.0
220
1.0
230
-0.0000000000000002
  0
LINE
  5
25B2
  8
0
  6
VERDECKT
 62
     1
 10
-15.3090940417259294
 20
184.9999999999998863
 30
-0.0000000000000411
 11
-15.3090940417259294
 21
191.9999999999998863
 31
-0.0000000000000426
210
0.0
220
1.0
230
-0.0000000000000002
  0
LINE
  5
25B3
  8
0
  6
VERDECKT
 62
     1
 10
-41.6909059582734969
 20
191.9999999999998863
 30
-0.0000000000000426
 11
-41.6909059582734969
 21
184.9999999999998863
 31
-0.0000000000000411
210
0.0
220
1.0
230
-0.0000000000000002
  0
LINE
  5
25B4
  8
0
  6
VERDECKT
 62
     1
 10
-16.0835921350010906
 20
191.9999999999998863
 30
-0.0000000000000426
 11
-15.3090940417269508
 21
191.9999999999998863
 31
-0.0000000000000426
210
0.0
220
1.0
230
-0.0000000000000002
  0
LINE
  5
25B5
  8
0
  6
VERDECKT
 62
     1
 10
-15.3090940417269508
 20
184.9999999999998863
 30
-0.0000000000000411
 11
-16.08359213500108
 21
184.9999999999998863
 31
-0.0000000000000411
210
0.0
220
1.0
230
-0.0000000000000002
  0
LINE
  5
25B6
  8
0
  6
VERDECKT
 62
     1
 10
48.9999999999999503
 20
133.4763835979480007
 30
-0.0000000000000296
 11
48.9999999999999503
 21
0.0
 31
0.0
210
0.0
220
1.0
230
-0.0000000000000002
  0
LINE
  5
25B7
  8
0
  6
VERDECKT
 62
     1
 10
-48.9999999999999503
 20
133.4763835979480007
 30
-0.0000000000000296
 11
-48.9999999999999503
 21
0.0
 31
0.0
210
0.0
220
1.0
230
-0.0000000000000002
  0
ARC
  5
25B8
  8
0
  6
VERDECKT
 62
     1
 10
62.9999999999987992
 20
133.4763835979481996
 30
0.0
 40
13.9999999999988596
210
0.0
220
-0.0000000000000002
230
-1.0
 50
156.2473682960890073
 51
180.0000000000005969
  0
ARC
  5
25B9
  8
0
  6
VERDECKT
 62
     1
 10
-62.9999999999987992
 20
133.4763835979481996
 30
0.0
 40
13.9999999999988596
210
0.0
220
-0.0000000000000002
230
-1.0
 50
359.9999999999992042
 51
23.7526317039109891
  0
LINE
  5
25BA
  8
0
  6
VERDECKT
 62
     1
 10
-50.1858982907243529
 20
139.1154258379332873
 30
-0.0000000000000309
 11
-57.9835157508076975
 21
156.8346517226094079
 31
-0.0000000000000348
210
0.0
220
1.0
230
-0.0000000000000002
  0
LINE
  5
25BB
  8
0
  6
VERDECKT
 62
     1
 10
50.1858982907243529
 20
139.1154258379332873
 30
-0.0000000000000309
 11
57.9835157508076975
 21
156.8346517226094079
 31
-0.0000000000000348
210
0.0
220
1.0
230
-0.0000000000000002
  0
ARC
  5
25BC
  8
0
  6
VERDECKT
 62
     1
 10
46.9999999999983373
 20
161.6681164997399947
 30
0.0
 40
12.0000000000015898
210
0.0
220
-0.0000000000000002
230
-1.0
 50
336.2473682960920769
 51
359.9999999999985221
  0
ARC
  5
25BD
  8
0
  6
VERDECKT
 62
     1
 10
-46.9999999999980318
 20
161.6681164997401083
 30
0.0
 40
12.0000000000019007
210
0.0
220
-0.0000000000000002
230
-1.0
 50
180.0000000000017906
 51
203.7526317039076105
  0
LINE
  5
25BE
  8
0
  6
VERDECKT
 62
     1
 10
58.9999999999999503
 20
199.9999999999998863
 30
-0.0000000000000444
 11
58.9999999999999503
 21
191.9999999999998863
 31
-0.0000000000000426
210
0.0
220
1.0
230
-0.0000000000000002
  0
LINE
  5
25BF
  8
0
  6
VERDECKT
 62
     1
 10
58.9999999999999503
 20
184.9999999999998863
 30
-0.0000000000000411
 11
58.9999999999999503
 21
161.6681164997397104
 31
-0.0000000000000359
210
0.0
220
1.0
230
-0.0000000000000002
  0
LINE
  5
25C0
  8
0
  6
VERDECKT
 62
     1
 10
-58.9999999999999503
 20
199.9999999999998863
 30
-0.0000000000000444
 11
-58.9999999999999503
 21
191.9999999999998863
 31
-0.0000000000000426
210
0.0
220
1.0
230
-0.0000000000000002
  0
LINE
  5
25C1
  8
0
  6
VERDECKT
 62
     1
 10
-58.9999999999999503
 20
184.9999999999998863
 30
-0.0000000000000411
 11
-58.9999999999999503
 21
161.6681164997397104
 31
-0.0000000000000359
210
0.0
220
1.0
230
-0.0000000000000002
  0
LINE
  5
25C2
  8
0
  6
VERDECKT
 62
     1
 10
24.6914264549235405
 20
191.9999999999998863
 30
-0.0000000000000426
 11
17.6914264549235405
 21
186.9999999999998863
 31
-0.0000000000000415
210
0.0
220
1.0
230
-0.0000000000000002
  0
LINE
  5
25C3
  8
0
  6
VERDECKT
 62
     1
 10
20.2895026662766895
 20
186.9999999999998863
 30
-0.0000000000000415
 11
27.2895026662766895
 21
191.9999999999998863
 31
-0.0000000000000426
210
0.0
220
1.0
230
-0.0000000000000002
  0
LINE
  5
25C4
  8
0
  6
VERDECKT
 62
     1
 10
20.2895026662766895
 20
186.9999999999998863
 30
-0.0000000000000415
 11
17.6914264549234304
 21
186.9999999999998863
 31
-0.0000000000000415
210
0.0
220
1.0
230
-0.0000000000000002
  0
LINE
  5
25C5
  8
0
  6
VERDECKT
 62
     1
 10
17.6914264549234304
 20
186.9999999999998863
 30
-0.0000000000000415
 11
14.1914264549234304
 21
187.0
 31
-0.0000000000000415
210
0.0
220
1.0
230
-0.0000000000000002
  0
LINE
  5
25C6
  8
0
  6
VERDECKT
 62
     1
 10
14.1914264549235405
 20
187.0
 30
-0.0000000000000415
 11
14.1914264549235405
 21
179.8000000000000966
 31
-0.0000000000000399
210
0.0
220
1.0
230
-0.0000000000000002
  0
LINE
  5
25C7
  8
0
  6
VERDECKT
 62
     1
 10
16.7895026662766895
 20
179.8000000000000114
 30
-0.0000000000000399
 11
16.7895026662766895
 21
186.9999999999998863
 31
-0.0000000000000415
210
0.0
220
1.0
230
-0.0000000000000002
  0
LINE
  5
25C8
  8
0
  6
VERDECKT
 62
     1
 10
14.1914264549234304
 20
179.8000000000000966
 30
-0.0000000000000399
 11
17.6914264549235405
 21
179.8000000000000966
 31
-0.0000000000000399
210
0.0
220
1.0
230
-0.0000000000000002
  0
LINE
  5
25C9
  8
0
  6
VERDECKT
 62
     1
 10
20.2895026662767997
 20
179.8000000000000966
 30
-0.0000000000000399
 11
17.6914264549235405
 21
179.8000000000000966
 31
-0.0000000000000399
210
0.0
220
1.0
230
-0.0000000000000002
  0
LINE
  5
25CA
  8
0
  6
VERDECKT
 62
     1
 10
17.6914264549233202
 20
179.8000000000002103
 30
-0.0000000000000399
 11
24.6914264549233202
 21
174.8000000000002103
 31
-0.0000000000000388
210
0.0
220
1.0
230
-0.0000000000000002
  0
LINE
  5
25CB
  8
0
  6
VERDECKT
 62
     1
 10
27.2895026662766895
 20
174.8000000000000114
 30
-0.0000000000000388
 11
20.2895026662766895
 21
179.8000000000000114
 31
-0.0000000000000399
210
0.0
220
1.0
230
-0.0000000000000002
  0
LINE
  5
25CC
  8
0
  6
VERDECKT
 62
     1
 10
24.6914264549233202
 20
174.8000000000000966
 30
-0.0000000000000388
 11
28.1914264549233202
 21
174.8000000000000114
 31
-0.0000000000000388
210
0.0
220
1.0
230
-0.0000000000000002
  0
LINE
  5
25CD
  8
0
  6
VERDECKT
 62
     1
 10
30.7895026662765794
 20
174.8000000000000114
 30
-0.0000000000000388
 11
28.1914264549233202
 21
174.8000000000000114
 31
-0.0000000000000388
210
0.0
220
1.0
230
-0.0000000000000002
  0
LINE
  5
25CE
  8
0
  6
VERDECKT
 62
     1
 10
28.1914264549233202
 20
174.7999999999998124
 30
-0.0000000000000388
 11
28.1914264549233202
 21
177.2999999999998124
 31
-0.0000000000000394
210
0.0
220
1.0
230
-0.0000000000000002
  0
LINE
  5
25CF
  8
0
  6
VERDECKT
 62
     1
 10
30.7895026662765794
 20
177.3000000000000114
 30
-0.0000000000000394
 11
30.7895026662765794
 21
174.8000000000000114
 31
-0.0000000000000388
210
0.0
220
1.0
230
-0.0000000000000002
  0
LINE
  5
25D0
  8
0
  6
VERDECKT
 62
     1
 10
30.7895026662765794
 20
177.3000000000000114
 30
-0.0000000000000394
 11
28.1914264549233202
 21
177.3000000000000114
 31
-0.0000000000000394
210
0.0
220
1.0
230
-0.0000000000000002
  0
LINE
  5
25D1
  8
0
  6
VERDECKT
 62
     1
 10
28.1914264549233202
 20
177.3000000000000114
 30
-0.0000000000000394
 11
27.1914264549233202
 21
178.4547005383793135
 31
-0.0000000000000396
210
0.0
220
1.0
230
-0.0000000000000002
  0
LINE
  5
25D2
  8
0
  6
VERDECKT
 62
     1
 10
29.7895026662766895
 20
178.4547005383793135
 30
-0.0000000000000396
 11
30.7895026662766895
 21
177.3000000000000114
 31
-0.0000000000000394
210
0.0
220
1.0
230
-0.0000000000000002
  0
LINE
  5
25D3
  8
0
  6
VERDECKT
 62
     1
 10
29.7895026662766895
 20
178.4547005383793135
 30
-0.0000000000000396
 11
27.1914264549234304
 21
178.4547005383793135
 31
-0.0000000000000396
210
0.0
220
1.0
230
-0.0000000000000002
  0
LINE
  5
25D4
  8
0
  6
VERDECKT
 62
     1
 10
27.1914264549233202
 20
178.4547005383793135
 30
-0.0000000000000396
 11
27.1914264549233202
 21
188.3452994616206979
 31
-0.0000000000000418
210
0.0
220
1.0
230
-0.0000000000000002
  0
LINE
  5
25D5
  8
0
  6
VERDECKT
 62
     1
 10
29.7895026662766895
 20
188.3452994616206126
 30
-0.0000000000000418
 11
29.7895026662766895
 21
178.4547005383790861
 31
-0.0000000000000396
210
0.0
220
1.0
230
-0.0000000000000002
  0
LINE
  5
25D6
  8
0
  6
VERDECKT
 62
     1
 10
29.7895026662766895
 20
188.3452994616206126
 30
-0.0000000000000418
 11
27.1914264549234304
 21
188.3452994616206126
 31
-0.0000000000000418
210
0.0
220
1.0
230
-0.0000000000000002
  0
LINE
  5
25D7
  8
0
  6
VERDECKT
 62
     1
 10
27.1914264549233202
 20
188.3452994616206979
 30
-0.0000000000000418
 11
28.1914264549233202
 21
189.5
 31
-0.0000000000000421
210
0.0
220
1.0
230
-0.0000000000000002
  0
LINE
  5
25D8
  8
0
  6
VERDECKT
 62
     1
 10
30.7895026662766895
 20
189.4999999999998863
 30
-0.0000000000000421
 11
29.7895026662766895
 21
188.3452994616206126
 31
-0.0000000000000418
210
0.0
220
1.0
230
-0.0000000000000002
  0
LINE
  5
25D9
  8
0
  6
VERDECKT
 62
     1
 10
30.7895026662766895
 20
189.4999999999998863
 30
-0.0000000000000421
 11
28.1914264549234304
 21
189.4999999999998863
 31
-0.0000000000000421
210
0.0
220
1.0
230
-0.0000000000000002
  0
LINE
  5
25DA
  8
0
  6
VERDECKT
 62
     1
 10
28.1914264549233202
 20
189.5
 30
-0.0000000000000421
 11
28.1914264549233202
 21
192.0
 31
-0.0000000000000426
210
0.0
220
1.0
230
-0.0000000000000002
  0
LINE
  5
25DB
  8
0
  6
VERDECKT
 62
     1
 10
30.7895026662766895
 20
191.9999999999998863
 30
-0.0000000000000426
 11
30.7895026662766895
 21
189.4999999999998863
 31
-0.0000000000000421
210
0.0
220
1.0
230
-0.0000000000000002
  0
LINE
  5
25DC
  8
0
  6
VERDECKT
 62
     1
 10
30.7895026662766895
 20
191.9999999999998863
 30
-0.0000000000000426
 11
28.1914264549234304
 21
191.9999999999998863
 31
-0.0000000000000426
210
0.0
220
1.0
230
-0.0000000000000002
  0
LINE
  5
25DD
  8
0
  6
VERDECKT
 62
     1
 10
28.1914264549233202
 20
192.0
 30
-0.0000000000000426
 11
24.6914264549233202
 21
191.9999999999998863
 31
-0.0000000000000426
210
0.0
220
1.0
230
-0.0000000000000002
  0
ENDBLK
  5
25DF
  8
0
  0
ENDSEC
  0
SECTION
  2
ENTITIES
  0
TEXT
  5
8E
  8
VOLL
 10
78.076754716981128
 20
31.025947764705851
 30
0.0
 40
1.8
  1

  7
GREEKS
  0
INSERT
  5
257C
  8
DEFPOINTS
  2
A$C37EE49E6
 10
0.0
 20
-111.0
 30
0.0
  0
INSERT
  5
25E0
  8
DEFPOINTS
  2
A$C64027B82
 10
0.0
 20
0.0
 30
0.0
  0
VIEWPORT
  5
228B
 67
     1
  8
0
 10
4.9013672141606976
 20
6.9736404657289883
 30
0.0
 40
25.1457245740726485
 41
14.2759591705392506
 68
     1
 69
     1
1001
ACAD
1000
MVIEW
1002
{
1070
    16
1010
0.0
1020
0.0
1030
0.0
1010
0.0
1020
0.0
1030
1.0
1040
0.0
1040
14.2759591705392506
1040
4.9013672141606976
1040
6.9736404657289883
1040
50.0
1040
0.0
1040
0.0
1070
     0
1070
  1500
1070
     1
1070
     1
1070
     0
1070
     0
1070
     0
1070
     0
1040
0.0
1040
0.0
1040
0.0
1040
10.0
1040
10.0
1040
10.0
1040
10.0
1070
     0
1002
{
1002
}
1002
}
  0
VIEWPORT
  5
228F
 67
     1
  8
DEFPOINTS
 10
4.9015153329233101
 20
6.9736828531126491
 30
0.0
 40
10.0575281134729693
 41
14.1753821067748795
 68
     2
 69
     2
1001
ACAD
1000
MVIEW
1002
{
1070
    16
1010
579.0525140333461422
1020
232.0702569121638987
1030
-80.0593957951065534
1010
0.0
1020
0.0
1030
1.0
1040
0.0
1040
434.0326585690323782
1040
-430.2522584988111021
1040
-20.1374849008616117
1040
50.0
1040
0.0
1040
0.0
1070
     0
1070
  1500
1070
     1
1070
     0
1070
     0
1070
     0
1070
     0
1070
     0
1040
0.0
1040
0.0
1040
0.0
1040
1.0
1040
1.0
1040
10.0
1040
10.0
1070
     0
1002
{
1002
}
1002
}
  0
VIEWPORT
  5
2293
 67
     1
  8
DEFPOINTS
 10
7.808757148764748
 20
4.2551704021218892
 30
0.0
 40
2.9866174902936531
 41
3.9524879948725018
 68
     3
 69
     3
1001
ACAD
1000
MVIEW
1002
{
1070
    16
1010
560.1750351485050032
1020
211.2972917911087904
1030
-129.1427428243279962
1010
58.7185409341243485
1020
110.8394472514111015
1030
320.4167077389718088
1040
2.6255103945649778
1040
230.6059631606215987
1040
0.0
1040
0.0
1040
50.0
1040
0.0
1040
0.0
1070
     0
1070
  1500
1070
     1
1070
     0
1070
     0
1070
     0
1070
     0
1070
     0
1040
0.0
1040
0.0
1040
0.0
1040
1.0
1040
1.0
1040
10.0
1040
10.0
1070
     0
1002
{
1002
}
1002
}
  0
ENDSEC
  0
EOF
