  0
SECTION
  2
HEADER
  9
$ACADVER
  1
AC1009
  9
$INSBASE
 10
0.0
 20
0.0
 30
0.0
  9
$EXTMIN
 10
-51.6719135736353792
 20
-151.2171743144016034
 30
-0.006103049970875
  9
$EXTMAX
 10
50.622659930229581
 20
200.0309792331781864
 30
0.0091555062787734
  9
$LIMMIN
 10
0.0
 20
0.0
  9
$LIMMAX
 10
297.0
 20
420.0
  9
$ORTHOMODE
 70
     1
  9
$REGENMODE
 70
     1
  9
$FILLMODE
 70
     1
  9
$QTEXTMODE
 70
     0
  9
$MIRRTEXT
 70
     1
  9
$DRAGMODE
 70
     2
  9
$LTSCALE
 40
10.0
  9
$OSMODE
 70
  2559
  9
$ATTMODE
 70
     1
  9
$TEXTSIZE
 40
3.5
  9
$TRACEWID
 40
0.5
  9
$TEXTSTYLE
  7
STANDARD
  9
$CLAYER
  8
DEFPOINTS
  9
$CELTYPE
  6
BYLAYER
  9
$CECOLOR
 62
   256
  9
$DIMSCALE
 40
1.0
  9
$DIMASZ
 40
3.5
  9
$DIMEXO
 40
1.0
  9
$DIMDLI
 40
7.0
  9
$DIMRND
 40
0.0
  9
$DIMDLE
 40
0.0
  9
$DIMEXE
 40
1.0
  9
$DIMTP
 40
1.0
  9
$DIMTM
 40
1.0
  9
$DIMTXT
 40
3.5
  9
$DIMCEN
 40
1.5
  9
$DIMTSZ
 40
0.0
  9
$DIMTOL
 70
     0
  9
$DIMLIM
 70
     0
  9
$DIMTIH
 70
     0
  9
$DIMTOH
 70
     0
  9
$DIMSE1
 70
     0
  9
$DIMSE2
 70
     0
  9
$DIMTAD
 70
     1
  9
$DIMZIN
 70
     8
  9
$DIMBLK
  1

  9
$DIMASO
 70
     1
  9
$DIMSHO
 70
     0
  9
$DIMPOST
  1

  9
$DIMAPOST
  1

  9
$DIMALT
 70
     0
  9
$DIMALTD
 70
     2
  9
$DIMALTF
 40
25.3999999999999986
  9
$DIMLFAC
 40
1.0
  9
$DIMTOFL
 70
     1
  9
$DIMTVP
 40
0.0
  9
$DIMTIX
 70
     0
  9
$DIMSOXD
 70
     0
  9
$DIMSAH
 70
     0
  9
$DIMBLK1
  1

  9
$DIMBLK2
  1

  9
$DIMSTYLE
  2
STANDARD
  9
$DIMCLRD
 70
     0
  9
$DIMCLRE
 70
     0
  9
$DIMCLRT
 70
     1
  9
$DIMTFAC
 40
0.5142857142857143
  9
$DIMGAP
 40
1.5
  9
$LUNITS
 70
     2
  9
$LUPREC
 70
     2
  9
$SKETCHINC
 40
1.0
  9
$FILLETRAD
 40
0.0
  9
$AUNITS
 70
     0
  9
$AUPREC
 70
     0
  9
$MENU
  1
ACAD
  9
$ELEVATION
 40
0.0
  9
$PELEVATION
 40
0.0
  9
$THICKNESS
 40
0.0
  9
$LIMCHECK
 70
     0
  9
$BLIPMODE
 70
     0
  9
$CHAMFERA
 40
0.0
  9
$CHAMFERB
 40
0.0
  9
$SKPOLY
 70
     0
  9
$TDCREATE
 40
2452545.4519097218289971
  9
$TDUPDATE
 40
2458388.5853703701868653
  9
$TDINDWG
 40
0.1593124537
  9
$TDUSRTIMER
 40
0.1593124537
  9
$USRTIMER
 70
     1
  9
$ANGBASE
 50
0.0
  9
$ANGDIR
 70
     0
  9
$PDMODE
 70
     0
  9
$PDSIZE
 40
0.0
  9
$PLINEWID
 40
0.0
  9
$COORDS
 70
     1
  9
$SPLFRAME
 70
     0
  9
$SPLINETYPE
 70
     6
  9
$SPLINESEGS
 70
     8
  9
$ATTDIA
 70
     1
  9
$ATTREQ
 70
     1
  9
$HANDLING
 70
     1
  9
$HANDSEED
  5
13B8
  9
$SURFTAB1
 70
     6
  9
$SURFTAB2
 70
     6
  9
$SURFTYPE
 70
     6
  9
$SURFU
 70
     6
  9
$SURFV
 70
     6
  9
$UCSNAME
  2

  9
$UCSORG
 10
0.0
 20
0.0
 30
0.0
  9
$UCSXDIR
 10
1.0
 20
0.0
 30
0.0
  9
$UCSYDIR
 10
0.0
 20
1.0
 30
0.0
  9
$PUCSNAME
  2

  9
$PUCSORG
 10
0.0
 20
0.0
 30
0.0
  9
$PUCSXDIR
 10
1.0
 20
0.0
 30
0.0
  9
$PUCSYDIR
 10
0.0
 20
1.0
 30
0.0
  9
$USERI1
 70
     0
  9
$USERI2
 70
     0
  9
$USERI3
 70
     0
  9
$USERI4
 70
     0
  9
$USERI5
 70
     0
  9
$USERR1
 40
0.0
  9
$USERR2
 40
0.0
  9
$USERR3
 40
0.0
  9
$USERR4
 40
0.0
  9
$USERR5
 40
0.0
  9
$WORLDVIEW
 70
     1
  9
$SHADEDGE
 70
     3
  9
$SHADEDIF
 70
    70
  9
$TILEMODE
 70
     1
  9
$MAXACTVP
 70
    16
  9
$PLIMCHECK
 70
     0
  9
$PEXTMIN
 10
-0.1482709866687273
 20
-0.1455257278359774
 30
0.0
  9
$PEXTMAX
 10
18.2325492987276512
 20
25.6614339588649791
 30
0.0
  9
$PLIMMIN
 10
-0.2500002402958907
 20
-0.2499999962453767
  9
$PLIMMAX
 10
10.7499995194082203
 20
8.2499997634587334
  9
$UNITMODE
 70
     0
  9
$VISRETAIN
 70
     0
  9
$PLINEGEN
 70
     0
  9
$PSLTSCALE
 70
     0
  0
ENDSEC
  0
SECTION
  2
TABLES
  0
TABLE
  2
VPORT
 70
     1
  0
VPORT
  2
*ACTIVE
 70
     0
 10
0.0
 20
0.0
 11
1.0
 21
1.0
 12
-0.5246268217028957
 22
-50.2948626010365203
 13
0.0
 23
0.0
 14
1.0
 24
1.0
 15
10.0
 25
10.0
 16
-0.0000000000001543
 26
0.0
 36
695.0237777362053748
 17
0.0
 27
74.7017650604248047
 37
-0.0000000000000222
 40
353.0387133787485254
 41
1.868197278911564
 42
50.0
 43
0.0
 44
0.0
 50
0.0
 51
0.0
 71
     0
 72
  1500
 73
     1
 74
     0
 75
     0
 76
     0
 77
     0
 78
     0
  0
ENDTAB
  0
TABLE
  2
LTYPE
 70
     4
  0
LTYPE
  2
CONTINUOUS
 70
     0
  3
Solid line
 72
    65
 73
     0
 40
0.0
  0
LTYPE
  2
VERDECKT
 70
     0
  3
_ _ _ _ _ _ _ _ _ _ _ _ _ _ _ _ _ _ _ _ _ _ _
 72
    65
 73
     2
 40
0.375
 49
0.25
 49
-0.125
  0
ENDTAB
  0
TABLE
  2
LAYER
 70
    11
  0
LAYER
  2
0
 70
     0
 62
     7
  6
CONTINUOUS
  0
LAYER
  2
DEFPOINTS
 70
     0
 62
     7
  6
CONTINUOUS
  0
ENDTAB
  0
TABLE
  2
STYLE
 70
     2
  0
STYLE
  2
STANDARD
 70
     0
 40
0.0
 41
0.8
 50
0.0
 71
     0
 42
3.5
  3
simplex.shx
  4

  0
ENDTAB
  0
TABLE
  2
VIEW
 70
     2
  0
ENDTAB
  0
TABLE
  2
UCS
 70
     0
  0
ENDTAB
  0
TABLE
  2
APPID
 70
     9
  0
APPID
  2
ACAD
 70
     0
  0
APPID
  2
ACAD_NAV_VCDISPLAY
 70
     0
  0
APPID
  2
ACAD_PSEXT
 70
     0
  0
APPID
  2
ACAECLAYERSTANDARD
 70
     0
  0
APPID
  2
ACCMTRANSPARENCY
 70
     0
  0
APPID
  2
ACAD_EXEMPT_FROM_CAD_STANDARDS
 70
     0
  0
APPID
  2
ACAD_MLEADERVER
 70
     0
  0
APPID
  2
ACAD_OBJECT_CHANGE_GUID
 70
     0
  0
APPID
  2
ACADANNOMONITORALERTICONDI
 70
     0
  0
ENDTAB
  0
TABLE
  2
DIMSTYLE
 70
     2
  0
DIMSTYLE
  2
STANDARD
 70
     0
  3

  4

  5

  6

  7

 40
1.0
 41
0.18
 42
0.0625
 43
0.38
 44
0.18
 45
0.0
 46
0.0
 47
0.0
 48
0.0
140
0.18
141
0.09
142
0.0
143
25.3999999999999986
144
1.0
145
0.0
146
1.0
147
0.09
 71
     0
 72
     0
 73
     1
 74
     1
 75
     0
 76
     0
 77
     0
 78
     0
170
     0
171
     2
172
     0
173
     0
174
     0
175
     0
176
     0
177
     0
178
     0
  0
ENDTAB
  0
ENDSEC
  0
SECTION
  2
BLOCKS
  0
BLOCK
  8
0
  2
$MODEL_SPACE
 70
     0
 10
0.0
 20
0.0
 30
0.0
  3
$MODEL_SPACE
  1

  0
ENDBLK
  5
53
  8
0
  0
BLOCK
 67
     1
  8
0
  2
$PAPER_SPACE
 70
     0
 10
0.0
 20
0.0
 30
0.0
  3
$PAPER_SPACE
  1

  0
ENDBLK
  5
51
 67
     1
  8
0
  0
BLOCK
  8
0
  2
A$C34AC70EE
 70
     0
 10
0.0
 20
0.0
 30
0.0
  3
A$C34AC70EE
  1

  0
ARC
  5
1293
  8
0
  6
CONTINUOUS
 62
     3
 10
0.0
 20
0.0000000000000001
 30
0.0
 40
24.3818495990035409
 50
63.5271309306104186
 51
180.0
  0
ARC
  5
1294
  8
0
  6
CONTINUOUS
 62
     3
 10
-0.0000000000000568
 20
0.0000000000000019
 30
0.0
 40
24.38184959900358
 50
303.5271309306100989
 51
56.4728690693898727
  0
ARC
  5
1295
  8
0
  6
CONTINUOUS
 62
     3
 10
0.0
 20
0.0000000000000019
 30
0.0
 40
24.3818495990035515
 50
180.0
 51
296.4728690693895032
  0
ARC
  5
1296
  8
0
  6
CONTINUOUS
 62
     3
 10
-0.0000000000000568
 20
-0.0000000000000181
 30
0.0
 40
25.0000000000001705
 50
63.4398127675153418
 51
180.0
  0
ARC
  5
1297
  8
0
  6
CONTINUOUS
 62
     3
 10
-0.0000000000001137
 20
0.0000000000000032
 30
0.0
 40
25.000000000000199
 50
303.4398127675149794
 51
56.5601872324849708
  0
ARC
  5
1298
  8
0
  6
CONTINUOUS
 62
     3
 10
-0.0000000000000568
 20
0.0000000000000281
 30
0.0
 40
25.0000000000001812
 50
180.0
 51
296.5601872324846795
  0
ARC
  5
1299
  8
0
  6
CONTINUOUS
 62
     3
 10
-0.0000000000000568
 20
-0.0000000000000132
 30
0.0
 40
37.835690297649478
 50
62.2720927772251471
 51
179.9999999999998863
  0
ARC
  5
129A
  8
0
  6
CONTINUOUS
 62
     3
 10
-0.0000000000000568
 20
0.0000000000000152
 30
0.0
 40
37.8356902976494567
 50
302.2720927772251116
 51
57.7279072227749666
  0
ARC
  5
129B
  8
0
  6
CONTINUOUS
 62
     3
 10
-0.0000000000000568
 20
0.0000000000000223
 30
0.0
 40
37.835690297649478
 50
180.0
 51
297.7279072227747747
  0
ARC
  5
129C
  8
0
  6
CONTINUOUS
 62
     3
 10
-0.0000000000000568
 20
0.0000000000000435
 30
0.0
 40
38.4063667010279772
 50
62.2383146604248694
 51
180.0
  0
ARC
  5
129D
  8
0
  6
CONTINUOUS
 62
     3
 10
-0.0000000000001137
 20
0.0000000000000151
 30
0.0
 40
38.4063667010280128
 50
302.2383146604246917
 51
57.7616853395752372
  0
ARC
  5
129E
  8
0
  6
CONTINUOUS
 62
     3
 10
-0.0000000000000568
 20
0.0000000000000471
 30
0.0
 40
38.4063667010279985
 50
180.0
 51
297.7616853395750809
  0
LINE
  5
129F
  8
0
  6
CONTINUOUS
 62
     3
 10
22.2990381056764591
 20
-35.6230669589463602
 30
0.0
 11
15.2990381056765692
 21
-23.49871130596431
 31
0.0
  0
LINE
  5
12A0
  8
0
  6
CONTINUOUS
 62
     3
 10
12.70096189432331
 20
-24.99871130596431
 30
0.0
 11
15.2990381056766793
 21
-23.49871130596431
 31
0.0
  0
LINE
  5
12A1
  8
0
  6
CONTINUOUS
 62
     3
 10
12.70096189432331
 20
-24.99871130596431
 30
0.0
 11
19.7009618943231999
 21
-37.1230669589463602
 31
0.0
  0
LINE
  5
12A2
  8
0
  6
CONTINUOUS
 62
     3
 10
19.7009618943231999
 20
-37.1230669589463602
 30
0.0
 11
22.2990381056765692
 21
-35.6230669589463602
 31
0.0
  0
LINE
  5
12A3
  8
0
  6
CONTINUOUS
 62
     3
 10
15.2990381056765692
 20
-23.4987113059644486
 30
0.0
 11
11.7990381056765692
 21
-17.4365334794733684
 31
0.0
  0
LINE
  5
12A4
  8
0
  6
CONTINUOUS
 62
     3
 10
9.2009618943233136
 20
-18.9365334794732583
 30
0.0
 11
11.7990381056766793
 21
-17.4365334794732583
 31
0.0
  0
LINE
  5
12A5
  8
0
  6
CONTINUOUS
 62
     3
 10
9.2009618943233136
 20
-18.9365334794732583
 30
0.0
 11
12.70096189432331
 21
-24.9987113059643313
 31
0.0
  0
LINE
  5
12A6
  8
0
  6
CONTINUOUS
 62
     3
 10
25.7875558231702406
 20
-41.6653568887496135
 30
0.0
 11
22.2990381056765692
 21
-35.6230669589463602
 31
0.0
  0
LINE
  5
12A7
  8
0
  6
CONTINUOUS
 62
     3
 10
19.7009618943231999
 20
-37.1230669589463602
 30
0.0
 11
23.1894796118168607
 21
-43.1653568887496206
 31
0.0
  0
LINE
  5
12A8
  8
0
  6
CONTINUOUS
 62
     3
 10
19.70096189432331
 20
37.1230669589464881
 30
0.0
 11
12.70096189432331
 21
24.9987113059644415
 31
0.0
  0
LINE
  5
12A9
  8
0
  6
CONTINUOUS
 62
     3
 10
15.2990381056765692
 20
23.4987113059644486
 30
0.0
 11
12.70096189432331
 21
24.9987113059644415
 31
0.0
  0
LINE
  5
12AA
  8
0
  6
CONTINUOUS
 62
     3
 10
15.2990381056765692
 20
23.4987113059644486
 30
0.0
 11
22.2990381056765692
 21
35.6230669589465023
 31
0.0
  0
LINE
  5
12AB
  8
0
  6
CONTINUOUS
 62
     3
 10
22.2990381056765692
 20
35.6230669589464313
 30
0.0
 11
19.70096189432331
 21
37.1230669589464313
 31
0.0
  0
LINE
  5
12AC
  8
0
  6
CONTINUOUS
 62
     3
 10
12.70096189432331
 20
24.9987113059644592
 30
0.0
 11
9.2009618943233136
 21
18.9365334794733897
 31
0.0
  0
LINE
  5
12AD
  8
0
  6
CONTINUOUS
 62
     3
 10
11.7990381056765692
 20
17.4365334794733897
 30
0.0
 11
9.2009618943233136
 21
18.9365334794733897
 31
0.0
  0
LINE
  5
12AE
  8
0
  6
CONTINUOUS
 62
     3
 10
11.7990381056765692
 20
17.4365334794733897
 30
0.0
 11
15.2990381056765692
 21
23.4987113059644592
 31
0.0
  0
LINE
  5
12AF
  8
0
  6
CONTINUOUS
 62
     3
 10
23.1894796118168607
 20
43.165356888749649
 30
0.0
 11
19.7009618943231999
 21
37.1230669589464313
 31
0.0
  0
LINE
  5
12B0
  8
0
  6
CONTINUOUS
 62
     3
 10
22.2990381056765692
 20
35.6230669589464313
 30
0.0
 11
25.7875558231702406
 21
41.6653568887496206
 31
0.0
  0
LINE
  5
12B1
  8
0
  6
CONTINUOUS
 62
     3
 10
46.9999999999996589
 20
-13.8564064605510602
 30
0.0
 11
46.9999999999996589
 21
13.85640646055041
 31
0.0
  0
LINE
  5
12B2
  8
0
  6
CONTINUOUS
 62
     3
 10
-35.5000000000003411
 20
-33.7749907475934918
 30
0.0
 11
-11.5000000000003393
 21
-47.6313972081444916
 31
0.0
  0
LINE
  5
12B3
  8
0
  6
CONTINUOUS
 62
     3
 10
-47.0000000000003268
 20
13.8564064605508399
 30
0.0
 11
-47.0000000000003268
 21
-13.8564064605514901
 31
0.0
  0
LINE
  5
12B4
  8
0
  6
CONTINUOUS
 62
     3
 10
-11.5000000000004494
 20
47.6313972081437811
 30
0.0
 11
-35.5000000000002274
 21
33.7749907475929021
 31
0.0
  0
CIRCLE
  5
12B5
  8
0
  6
CONTINUOUS
 62
     3
 10
-0.0000000000001137
 20
0.0000000000000162
 30
0.0
 40
50.6000000000000014
  0
CIRCLE
  5
12B6
  8
0
  6
CONTINUOUS
 62
     3
 10
-0.0000000000001137
 20
0.0000000000000122
 30
0.0
 40
49.0
  0
ARC
  5
12B7
  8
0
  6
CONTINUOUS
 62
     3
 10
-0.0000000000001137
 20
0.0000000000000239
 30
0.0
 40
43.3999999999998565
 50
61.9806633431357099
 51
180.0
  0
ARC
  5
12B8
  8
0
  6
CONTINUOUS
 62
     3
 10
-0.0000000000001137
 20
0.0000000000000168
 30
0.0
 40
43.399999999999892
 50
301.9806633431358023
 51
58.0193366568641835
  0
ARC
  5
12B9
  8
0
  6
CONTINUOUS
 62
     3
 10
-0.0000000000001137
 20
-0.0000000000000045
 30
0.0
 40
43.3999999999998778
 50
180.0
 51
298.0193366568643114
  0
ARC
  5
12BA
  8
0
  6
VERDECKT
 62
     1
 10
-0.0000000000047748
 20
-0.0000000000083878
 30
0.0
 40
24.38184959901319
 50
56.4728690693915212
 51
63.527130930609168
  0
ARC
  5
12BB
  8
0
  6
VERDECKT
 62
     1
 10
-0.0000000000051728
 20
0.0000000000090702
 30
0.0
 40
24.3818495990139716
 50
296.4728690693909243
 51
303.5271309306083936
  0
ARC
  5
12BC
  8
0
  6
VERDECKT
 62
     1
 10
0.0000000000060254
 20
0.0000000000105157
 30
0.0
 40
24.9999999999880487
 50
56.5601872324834289
 51
63.439812767516969
  0
ARC
  5
12BD
  8
0
  6
VERDECKT
 62
     1
 10
0.0000000000056843
 20
-0.0000000000098271
 30
0.0
 40
24.9999999999887983
 50
296.5601872324829742
 51
303.4398127675164005
  0
ARC
  5
12BE
  8
0
  6
VERDECKT
 62
     1
 10
0.000000000008697
 20
0.0000000000151284
 30
0.0
 40
37.8356902976320129
 50
57.7279072227739789
 51
62.2720927772262414
  0
ARC
  5
12BF
  8
0
  6
VERDECKT
 62
     1
 10
0.0000000000056275
 20
-0.0000000000099182
 30
0.0
 40
37.8356902976380383
 50
297.72790722277432
 51
302.2720927772257937
  0
ARC
  5
12C0
  8
0
  6
VERDECKT
 62
     1
 10
0.0000000000040927
 20
0.0000000000071418
 30
0.0
 40
38.4063667010197278
 50
57.761685339574889
 51
62.2383146604254094
  0
ARC
  5
12C1
  8
0
  6
VERDECKT
 62
     1
 10
0.0000000000040927
 20
-0.0000000000071187
 30
0.0
 40
38.4063667010197278
 50
297.7616853395746261
 51
302.2383146604250896
  0
CIRCLE
  5
12C2
  8
0
  6
VERDECKT
 62
     1
 10
-0.0000000000000568
 20
0.0000000000000068
 30
0.0
 40
26.5000000000000604
  0
CIRCLE
  5
12C3
  8
0
  6
VERDECKT
 62
     1
 10
0.0
 20
0.0000000000000001
 30
0.0
 40
25.8875793553185716
  0
LINE
  5
12C4
  8
0
  6
VERDECKT
 62
     1
 10
22.2009618943231999
 20
-41.4531939778685725
 30
0.0
 11
24.7990381056765798
 21
-39.9531939778685725
 31
0.0
  0
LINE
  5
12C5
  8
0
  6
VERDECKT
 62
     1
 10
23.2009618943231999
 20
-43.1852447854374617
 30
0.0
 11
25.7990381056765692
 21
-41.6852447854374688
 31
0.0
  0
LINE
  5
12C6
  8
0
  6
VERDECKT
 62
     1
 10
25.7990381056765692
 20
-41.6852447854374333
 30
0.0
 11
25.7875558231702406
 21
-41.6653568887496135
 31
0.0
  0
LINE
  5
12C7
  8
0
  6
VERDECKT
 62
     1
 10
23.1894796118168607
 20
-43.1653568887496206
 30
0.0
 11
23.2009618943231999
 21
-43.1852447854374333
 31
0.0
  0
LINE
  5
12C8
  8
0
  6
VERDECKT
 62
     1
 10
24.7990381056765798
 20
39.9531939778686507
 30
0.0
 11
22.20096189432331
 21
41.4531939778686365
 31
0.0
  0
LINE
  5
12C9
  8
0
  6
VERDECKT
 62
     1
 10
25.7990381056765692
 20
41.685244785437483
 30
0.0
 11
23.20096189432331
 21
43.185244785437483
 31
0.0
  0
LINE
  5
12CA
  8
0
  6
VERDECKT
 62
     1
 10
23.2009618943231999
 20
43.1852447854374901
 30
0.0
 11
23.1894796118168607
 21
43.165356888749649
 31
0.0
  0
LINE
  5
12CB
  8
0
  6
VERDECKT
 62
     1
 10
25.7875558231702406
 20
41.6653568887496206
 30
0.0
 11
25.7990381056765692
 21
41.6852447854374972
 31
0.0
  0
LINE
  5
12CC
  8
0
  6
VERDECKT
 62
     1
 10
-24.5000000000001208
 20
-42.4352447854374617
 30
0.0
 11
-13.5674797050269298
 21
-48.7471383206612785
 31
0.0
  0
LINE
  5
12CD
  8
0
  6
VERDECKT
 62
     1
 10
-35.4325202949733011
 20
-36.1233512502136591
 30
0.0
 11
-24.5000000000001208
 21
-42.4352447854374617
 31
0.0
  0
LINE
  5
12CE
  8
0
  6
VERDECKT
 62
     1
 10
-24.5000000000001208
 20
42.4352447854374972
 30
0.0
 11
-35.4325202949733011
 21
36.1233512502136875
 31
0.0
  0
LINE
  5
12CF
  8
0
  6
VERDECKT
 62
     1
 10
-13.5674797050269298
 20
48.7471383206613211
 30
0.0
 11
-24.5000000000001208
 21
42.4352447854374972
 31
0.0
  0
LINE
  5
12D0
  8
0
  6
VERDECKT
 62
     1
 10
49.0
 20
0.0000000000000118
 30
0.0
 11
49.0
 21
12.62378707044717
 31
0.0
  0
LINE
  5
12D1
  8
0
  6
VERDECKT
 62
     1
 10
49.0
 20
-12.6237870704471398
 30
0.0
 11
49.0
 21
0.0000000000000124
 31
0.0
  0
LINE
  5
12D2
  8
0
  6
VERDECKT
 62
     1
 10
-49.0000000000001066
 20
12.6237870704476194
 30
0.0
 11
-49.0000000000001066
 21
0.0000000000000124
 31
0.0
  0
LINE
  5
12D3
  8
0
  6
VERDECKT
 62
     1
 10
-49.0000000000001066
 20
0.0000000000000118
 30
0.0
 11
-49.0000000000001066
 21
-12.6237870704475892
 31
0.0
  0
CIRCLE
  5
12D4
  8
0
  6
VERDECKT
 62
     1
 10
0.0
 20
0.0
 30
0.0
 40
43.5000000000001066
  0
CIRCLE
  5
12D5
  8
0
  6
VERDECKT
 62
     1
 10
-0.0000000000000568
 20
0.000000000000008
 30
0.0
 40
38.4000000000000199
  0
ARC
  5
12D6
  8
0
  6
VERDECKT
 62
     1
 10
-0.0000000000257501
 20
-0.0000000000446266
 30
0.0
 40
43.4000000000513424
 50
58.0193366568666775
 51
61.9806633431335214
  0
ARC
  5
12D7
  8
0
  6
VERDECKT
 62
     1
 10
0.0000000000228511
 20
-0.0000000000397168
 30
0.0
 40
43.3999999999540265
 50
298.0193366568622082
 51
301.9806633431379055
  0
CIRCLE
  5
12D8
  8
0
  6
VERDECKT
 62
     1
 10
-0.0000000000001137
 20
0.0000000000000097
 30
0.0
 40
44.9999999999999218
  0
CIRCLE
  5
12D9
  8
0
  6
VERDECKT
 62
     1
 10
-0.0000000000000568
 20
0.000000000000008
 30
0.0
 40
39.9999999999999289
  0
CIRCLE
  5
12DA
  8
0
  6
VERDECKT
 62
     1
 10
0.0
 20
0.0
 30
0.0
 40
45.1538342168696474
  0
ENDBLK
  5
12DC
  8
0
  0
BLOCK
  8
0
  2
A$C5F144539
 70
     0
 10
0.0
 20
0.0
 30
0.0
  3
A$C5F144539
  1

  0
LINE
  5
12E0
  8
0
  6
CONTINUOUS
 62
     3
 10
-13.5674797050269298
 20
184.999999999999801
 30
-0.0000000000000411
 11
-35.4325202949733082
 21
184.999999999999801
 31
-0.0000000000000411
210
0.0
220
1.0
230
-0.0000000000000002
  0
LINE
  5
12E1
  8
0
  6
CONTINUOUS
 62
     3
 10
-35.4325202949733011
 20
191.9999999999996874
 30
-0.0000000000000426
 11
-35.4325202949733011
 21
184.999999999999801
 31
-0.0000000000000411
210
0.0
220
1.0
230
-0.0000000000000002
  0
LINE
  5
12E2
  8
0
  6
CONTINUOUS
 62
     3
 10
-13.5674797050269298
 20
184.999999999999801
 30
-0.0000000000000411
 11
-13.5674797050269298
 21
191.9999999999996874
 31
-0.0000000000000426
210
0.0
220
1.0
230
-0.0000000000000002
  0
LINE
  5
12E3
  8
0
  6
CONTINUOUS
 62
     3
 10
50.5999999999999019
 20
184.999999999999801
 30
-0.0000000000000411
 11
48.9999999999999929
 21
184.999999999999801
 31
-0.0000000000000411
210
0.0
220
1.0
230
-0.0000000000000002
  0
LINE
  5
12E4
  8
0
  6
CONTINUOUS
 62
     3
 10
49.0
 20
191.9999999999996874
 30
-0.0000000000000426
 11
49.0
 21
184.999999999999801
 31
-0.0000000000000411
210
0.0
220
1.0
230
-0.0000000000000002
  0
LINE
  5
12E5
  8
0
  6
CONTINUOUS
 62
     3
 10
-50.6000000000001435
 20
191.9999999999996874
 30
-0.0000000000000426
 11
-49.0000000000001208
 21
191.9999999999996874
 31
-0.0000000000000426
210
0.0
220
1.0
230
-0.0000000000000002
  0
LINE
  5
12E6
  8
0
  6
CONTINUOUS
 62
     3
 10
-49.0000000000001066
 20
184.999999999999801
 30
-0.0000000000000411
 11
-49.0000000000001066
 21
191.9999999999996874
 31
-0.0000000000000426
210
0.0
220
1.0
230
-0.0000000000000002
  0
LINE
  5
12E7
  8
0
  6
CONTINUOUS
 62
     3
 10
-35.4325202949733082
 20
191.9999999999996874
 30
-0.0000000000000426
 11
-13.5674797050269298
 21
191.9999999999996874
 31
-0.0000000000000426
210
0.0
220
1.0
230
-0.0000000000000002
  0
LINE
  5
12E8
  8
0
  6
CONTINUOUS
 62
     3
 10
48.9999999999999787
 20
191.9999999999996874
 30
-0.0000000000000426
 11
50.5999999999999019
 21
191.9999999999996874
 31
-0.0000000000000426
210
0.0
220
1.0
230
-0.0000000000000002
  0
LINE
  5
12E9
  8
0
  6
CONTINUOUS
 62
     3
 10
-49.0000000000001066
 20
184.999999999999801
 30
-0.0000000000000411
 11
-50.6000000000001293
 21
184.999999999999801
 31
-0.0000000000000411
210
0.0
220
1.0
230
-0.0000000000000002
  0
LINE
  5
12EA
  8
0
  6
CONTINUOUS
 62
     3
 10
50.5999999999999019
 20
199.9999999999998863
 30
-0.0000000000000444
 11
-50.6000000000001222
 21
199.9999999999998863
 31
-0.0000000000000444
210
0.0
220
1.0
230
-0.0000000000000002
  0
LINE
  5
12EB
  8
0
  6
CONTINUOUS
 62
     3
 10
-45.1538342168696474
 20
-0.0000000000000853
 30
0.0
 11
45.1538342168696474
 21
0.0000000000000284
 31
0.0
210
0.0
220
1.0
230
-0.0000000000000002
  0
LINE
  5
12EC
  8
0
  6
CONTINUOUS
 62
     3
 10
50.5999999999998877
 20
199.9999999999998863
 30
-0.0000000000000444
 11
50.5999999999999019
 21
191.9999999999996874
 31
-0.0000000000000426
210
0.0
220
1.0
230
-0.0000000000000002
  0
LINE
  5
12ED
  8
0
  6
CONTINUOUS
 62
     3
 10
50.5999999999999019
 20
184.999999999999801
 30
-0.0000000000000411
 11
50.5999999999999091
 21
172.5049811865980018
 31
-0.0000000000000383
210
0.0
220
1.0
230
-0.0000000000000002
  0
LINE
  5
12EE
  8
0
  6
CONTINUOUS
 62
     3
 10
-50.6000000000001506
 20
199.9999999999998863
 30
-0.0000000000000444
 11
-50.6000000000001435
 21
191.9999999999996874
 31
-0.0000000000000426
210
0.0
220
1.0
230
-0.0000000000000002
  0
LINE
  5
12EF
  8
0
  6
CONTINUOUS
 62
     3
 10
-50.6000000000001435
 20
184.999999999999801
 30
-0.0000000000000411
 11
-50.6000000000001293
 21
172.5049811865978882
 31
-0.0000000000000383
210
0.0
220
1.0
230
-0.0000000000000002
  0
ARC
  5
12F0
  8
0
  6
CONTINUOUS
 62
     3
 10
41.0000000000000995
 20
172.5049811865980018
 30
0.0
 40
9.6000000000000743
210
0.0
220
-0.0000000000000002
230
-1.0
 50
330.751173663451425
 51
359.9999999999997726
  0
ARC
  5
12F1
  8
0
  6
CONTINUOUS
 62
     3
 10
-40.999999999999801
 20
172.5049811865980018
 30
0.0
 40
9.6000000000001364
210
0.0
220
-0.0000000000000002
230
-1.0
 50
180.0
 51
209.2488263365484045
  0
LINE
  5
12F2
  8
0
  6
CONTINUOUS
 62
     3
 10
-46.0199518724023378
 20
161.8213426292896884
 30
-0.0000000000000359
 11
-49.3760577531173226
 21
167.8143888448520045
 31
-0.0000000000000373
210
0.0
220
1.0
230
-0.0000000000000002
  0
LINE
  5
12F3
  8
0
  6
CONTINUOUS
 62
     3
 10
46.0199518724021175
 20
161.8213426292898021
 30
-0.0000000000000359
 11
49.3760577531170881
 21
167.8143888448520897
 31
-0.0000000000000373
210
0.0
220
1.0
230
-0.0000000000000002
  0
ARC
  5
12F4
  8
0
  6
CONTINUOUS
 62
     3
 10
52.9999999999990123
 20
157.9125156778351879
 30
0.0
 40
7.9999999999989821
210
0.0
220
-0.0000000000000002
230
-1.0
 50
150.7511736634500039
 51
180.0000000000015064
  0
ARC
  5
12F5
  8
0
  6
CONTINUOUS
 62
     3
 10
-52.99999999999865
 20
157.9125156778353016
 30
0.0
 40
7.999999999998848
210
0.0
220
-0.0000000000000002
230
-1.0
 50
359.9999999999984084
 51
29.2488263365500494
  0
LINE
  5
12F6
  8
0
  6
CONTINUOUS
 62
     3
 10
44.9999999999998792
 20
157.912515677834989
 30
-0.0000000000000351
 11
44.9999999999998792
 21
146.782505492193394
 31
-0.0000000000000326
210
0.0
220
1.0
230
-0.0000000000000002
  0
LINE
  5
12F7
  8
0
  6
CONTINUOUS
 62
     3
 10
-45.0
 20
157.9125156778349037
 30
-0.0000000000000351
 11
-45.0
 21
146.7825054921933088
 31
-0.0000000000000326
210
0.0
220
1.0
230
-0.0000000000000002
  0
ARC
  5
12F8
  8
0
  6
CONTINUOUS
 62
     3
 10
35.3999999999970498
 20
146.7825054921943035
 30
0.0
 40
9.6000000000029928
210
0.0
220
-0.0000000000000002
230
-1.0
 50
338.9624889745787186
 51
359.9999999999940883
  0
ARC
  5
12F9
  8
0
  6
CONTINUOUS
 62
     3
 10
-35.3999999999969575
 20
146.7825054921943035
 30
0.0
 40
9.6000000000029644
210
0.0
220
-0.0000000000000002
230
-1.0
 50
180.0000000000052864
 51
201.0375110254207982
  0
LINE
  5
12FA
  8
0
  6
CONTINUOUS
 62
     3
 10
-40.5332351503756101
 20
133.3864113909766047
 30
-0.0000000000000296
 11
-44.3601178195492523
 21
143.3363063308281937
 31
-0.0000000000000318
210
0.0
220
1.0
230
-0.0000000000000002
  0
LINE
  5
12FB
  8
0
  6
CONTINUOUS
 62
     3
 10
40.5332351503755106
 20
133.3864113909766047
 30
-0.0000000000000296
 11
44.3601178195491315
 21
143.3363063308283074
 31
-0.0000000000000318
210
0.0
220
1.0
230
-0.0000000000000002
  0
ARC
  5
12FC
  8
0
  6
CONTINUOUS
 62
     3
 10
47.9999999999971223
 20
130.5145787565058129
 30
0.0
 40
7.9999999999971321
210
0.0
220
-0.0000000000000002
230
-1.0
 50
158.9624889745722101
 51
180.0000000000017906
  0
ARC
  5
12FD
  8
0
  6
CONTINUOUS
 62
     3
 10
-47.9999999999970797
 20
130.5145787565058981
 30
0.0
 40
7.9999999999972067
210
0.0
220
-0.0000000000000002
230
-1.0
 50
359.9999999999984084
 51
21.0375110254276407
  0
LINE
  5
12FE
  8
0
  6
CONTINUOUS
 62
     3
 10
39.9999999999998579
 20
130.5145787565056992
 30
-0.000000000000029
 11
39.9999999999999218
 21
21.2047241222027516
 31
-0.0000000000000047
210
0.0
220
1.0
230
-0.0000000000000002
  0
LINE
  5
12FF
  8
0
  6
CONTINUOUS
 62
     3
 10
-40.0000000000000213
 20
130.5145787565056139
 30
-0.000000000000029
 11
-39.9999999999999716
 21
21.2047241222026912
 31
-0.0000000000000047
210
0.0
220
1.0
230
-0.0000000000000002
  0
ARC
  5
1300
  8
0
  6
CONTINUOUS
 62
     3
 10
47.9918107374202023
 20
21.2036964344765195
 30
0.0
 40
7.991810803496735
210
0.0
220
-0.0000000000000002
230
-1.0
 50
179.9926321867498871
 51
194.3129196598748081
  0
ARC
  5
1301
  8
0
  6
CONTINUOUS
 62
     3
 10
-47.9918107374202521
 20
21.2036964344765693
 30
0.0
 40
7.991810803496791
210
0.0
220
-0.0000000000000002
230
-1.0
 50
345.6870803401251919
 51
0.0073678132499513
  0
LINE
  5
1302
  8
0
  6
CONTINUOUS
 62
     3
 10
40.2480656548268385
 20
19.2279808641835288
 30
-0.0000000000000043
 11
45.1538342168696616
 21
0.0000000000000284
 31
0.0
210
0.0
220
1.0
230
-0.0000000000000002
  0
LINE
  5
1303
  8
0
  6
CONTINUOUS
 62
     3
 10
-40.2480656548268598
 20
19.2279808641834791
 30
-0.0000000000000043
 11
-45.1538342168696474
 21
-0.0000000000000284
 31
0.0
210
0.0
220
1.0
230
-0.0000000000000002
  0
LINE
  5
1304
  8
0
  6
VERDECKT
 62
     1
 10
-37.8356902976495419
 20
132.0504073814836943
 30
-0.0000000000000293
 11
37.8356902976494212
 21
132.0504073814836943
 31
-0.0000000000000293
210
0.0
220
1.0
230
-0.0000000000000002
  0
LINE
  5
1305
  8
0
  6
VERDECKT
 62
     1
 10
-38.406366701028098
 20
130.5855823354031031
 30
-0.000000000000029
 11
38.4063667010278706
 21
130.5855823354031031
 31
-0.000000000000029
210
0.0
220
1.0
230
-0.0000000000000002
  0
LINE
  5
1306
  8
0
  6
VERDECKT
 62
     1
 10
-25.8875793553186213
 20
1.9999999999999709
 30
-0.0000000000000004
 11
25.8875793553186213
 21
1.9999999999999709
 31
-0.0000000000000004
210
0.0
220
1.0
230
-0.0000000000000002
  0
LINE
  5
1307
  8
0
  6
VERDECKT
 62
     1
 10
-24.3818495990035515
 20
1.9999999999999709
 30
-0.0000000000000004
 11
-25.0000000000001208
 21
9.0654914143626701
 31
-0.000000000000002
210
0.0
220
1.0
230
-0.0000000000000002
  0
LINE
  5
1308
  8
0
  6
VERDECKT
 62
     1
 10
24.3818495990035515
 20
1.999999999999984
 30
-0.0000000000000004
 11
25.0000000000001101
 21
9.0654914143626844
 31
-0.000000000000002
210
0.0
220
1.0
230
-0.0000000000000002
  0
LINE
  5
1309
  8
0
  6
VERDECKT
 62
     1
 10
25.0000000000000284
 20
110.825849309572007
 30
-0.0000000000000246
 11
25.0000000000000888
 21
9.0654914143626844
 31
-0.000000000000002
210
0.0
220
1.0
230
-0.0000000000000002
  0
LINE
  5
130A
  8
0
  6
VERDECKT
 62
     1
 10
-25.000000000000199
 20
110.825849309572007
 30
-0.0000000000000246
 11
-25.0000000000001386
 21
9.0654914143626701
 31
-0.000000000000002
210
0.0
220
1.0
230
-0.0000000000000002
  0
ARC
  5
130B
  8
0
  6
VERDECKT
 62
     1
 10
34.5000000000019824
 20
110.8258493095718933
 30
0.0
 40
9.5000000000017426
210
0.0
220
-0.0000000000000002
230
-1.0
 50
163.3007557660097007
 51
179.9999999999996021
  0
ARC
  5
130C
  8
0
  6
VERDECKT
 62
     1
 10
-34.5000000000021814
 20
110.8258493095718933
 30
0.0
 40
9.5000000000020606
210
0.0
220
-0.0000000000000002
230
-1.0
 50
0.0000000000004326
 51
16.6992442339897416
  0
LINE
  5
130D
  8
0
  6
VERDECKT
 62
     1
 10
-25.4006502903991986
 20
113.5556542224521053
 30
-0.0000000000000252
 11
-27.9908517430631107
 21
122.1896590646657046
 31
-0.0000000000000271
210
0.0
220
1.0
230
-0.0000000000000002
  0
LINE
  5
130E
  8
0
  6
VERDECKT
 62
     1
 10
25.4006502903990885
 20
113.5556542224522047
 30
-0.0000000000000252
 11
27.99085174306299
 21
122.1896590646657046
 31
-0.0000000000000271
210
0.0
220
1.0
230
-0.0000000000000002
  0
ARC
  5
130F
  8
0
  6
VERDECKT
 62
     1
 10
37.1859840811863194
 20
119.4311193632287029
 30
0.0
 40
9.6000000000001826
210
0.0
220
-0.0000000000000002
230
-1.0
 50
127.6119684579458067
 51
163.3007557660060058
  0
ARC
  5
1310
  8
0
  6
VERDECKT
 62
     1
 10
-37.1859840811862981
 20
119.4311193632287029
 30
0.0
 40
9.6000000000002785
210
0.0
220
-0.0000000000000002
230
-1.0
 50
16.6992442339940084
 51
52.3880315420537812
  0
LINE
  5
1311
  8
0
  6
VERDECKT
 62
     1
 10
-31.3270018298802917
 20
127.035876228433807
 30
-0.0000000000000282
 11
-37.8356902976495704
 21
132.050407381483609
 31
-0.0000000000000293
210
0.0
220
1.0
230
-0.0000000000000002
  0
LINE
  5
1312
  8
0
  6
VERDECKT
 62
     1
 10
31.3270018298801496
 20
127.035876228433807
 30
-0.0000000000000282
 11
37.8356902976494496
 21
132.0504073814836943
 31
-0.0000000000000293
210
0.0
220
1.0
230
-0.0000000000000002
  0
LINE
  5
1313
  8
0
  6
VERDECKT
 62
     1
 10
37.8356902976493714
 20
132.050407381483808
 30
-0.0000000000000293
 11
38.406366701027892
 21
130.5855823354031884
 31
-0.000000000000029
210
0.0
220
1.0
230
-0.0000000000000002
  0
LINE
  5
1314
  8
0
  6
VERDECKT
 62
     1
 10
-37.8356902976494993
 20
132.0504073814836943
 30
-0.0000000000000293
 11
-38.4063667010280128
 21
130.5855823354031031
 31
-0.000000000000029
210
0.0
220
1.0
230
-0.0000000000000002
  0
LINE
  5
1315
  8
0
  6
VERDECKT
 62
     1
 10
-32.2310530965338273
 20
125.8388137528873045
 30
-0.0000000000000279
 11
-38.4063667010280483
 21
130.5855823354031031
 31
-0.000000000000029
210
0.0
220
1.0
230
-0.0000000000000002
  0
LINE
  5
1316
  8
0
  6
VERDECKT
 62
     1
 10
32.2310530965336923
 20
125.8388137528873045
 30
-0.0000000000000279
 11
38.4063667010279417
 21
130.5855823354031031
 31
-0.000000000000029
210
0.0
220
1.0
230
-0.0000000000000002
  0
ARC
  5
1317
  8
0
  6
VERDECKT
 62
     1
 10
37.0994517492980904
 20
119.4906884738954034
 30
0.0
 40
8.0000000000007763
210
0.0
220
-0.0000000000000002
230
-1.0
 50
127.4847200510417053
 51
163.3007557660060058
  0
ARC
  5
1318
  8
0
  6
VERDECKT
 62
     1
 10
-37.099451749298062
 20
119.4906884738954034
 30
0.0
 40
8.0000000000008704
210
0.0
220
-0.0000000000000002
230
-1.0
 50
16.699244233994019
 51
52.515279948957982
  0
LINE
  5
1319
  8
0
  6
VERDECKT
 62
     1
 10
-26.8373897182308987
 20
113.1246323941025054
 30
-0.0000000000000251
 11
-29.4368414675281613
 21
121.7894715584264986
 31
-0.000000000000027
210
0.0
220
1.0
230
-0.0000000000000002
  0
LINE
  5
131A
  8
0
  6
VERDECKT
 62
     1
 10
26.8373897182307886
 20
113.1246323941025054
 30
-0.0000000000000251
 11
29.4368414675280299
 21
121.7894715584264986
 31
-0.000000000000027
210
0.0
220
1.0
230
-0.0000000000000002
  0
ARC
  5
131B
  8
0
  6
VERDECKT
 62
     1
 10
34.5000000000000497
 20
110.8258493095717938
 30
0.0
 40
7.9999999999999281
210
0.0
220
-0.0000000000000002
230
-1.0
 50
163.300755766006489
 51
180.0
  0
ARC
  5
131C
  8
0
  6
VERDECKT
 62
     1
 10
-34.4999999999999574
 20
110.8258493095717938
 30
0.0
 40
7.9999999999999574
210
0.0
220
-0.0000000000000002
230
-1.0
 50
359.9999999999998863
 51
16.6992442339933298
  0
LINE
  5
131D
  8
0
  6
VERDECKT
 62
     1
 10
26.4999999999999716
 20
110.8258493095717938
 30
-0.0000000000000246
 11
26.5000000000000284
 21
9.0000000000000444
 31
-0.000000000000002
210
0.0
220
1.0
230
-0.0000000000000002
  0
LINE
  5
131E
  8
0
  6
VERDECKT
 62
     1
 10
-26.5000000000001492
 20
110.8258493095717938
 30
-0.0000000000000246
 11
-26.5000000000000888
 21
9.0000000000000018
 31
-0.000000000000002
210
0.0
220
1.0
230
-0.0000000000000002
  0
LINE
  5
131F
  8
0
  6
VERDECKT
 62
     1
 10
-25.8875793553185396
 20
1.999999999999974
 30
-0.0000000000000004
 11
-26.5000000000000888
 21
9.0000000000000036
 31
-0.000000000000002
210
0.0
220
1.0
230
-0.0000000000000002
  0
LINE
  5
1320
  8
0
  6
VERDECKT
 62
     1
 10
25.8875793553185396
 20
1.999999999999988
 30
-0.0000000000000004
 11
26.5000000000000888
 21
9.0000000000000462
 31
-0.000000000000002
210
0.0
220
1.0
230
-0.0000000000000002
  0
LINE
  5
1321
  8
0
  6
VERDECKT
 62
     1
 10
22.2990381056764591
 20
191.9999999999996874
 30
-0.0000000000000426
 11
15.2990381056765692
 21
186.9999999999996874
 31
-0.0000000000000415
210
0.0
220
1.0
230
-0.0000000000000002
  0
LINE
  5
1322
  8
0
  6
VERDECKT
 62
     1
 10
12.70096189432331
 20
186.9999999999996874
 30
-0.0000000000000415
 11
15.2990381056766793
 21
186.9999999999996874
 31
-0.0000000000000415
210
0.0
220
1.0
230
-0.0000000000000002
  0
LINE
  5
1323
  8
0
  6
VERDECKT
 62
     1
 10
12.70096189432331
 20
186.9999999999996874
 30
-0.0000000000000415
 11
19.7009618943231999
 21
191.9999999999996874
 31
-0.0000000000000426
210
0.0
220
1.0
230
-0.0000000000000002
  0
LINE
  5
1324
  8
0
  6
VERDECKT
 62
     1
 10
9.2009618943233136
 20
186.999999999999801
 30
-0.0000000000000415
 11
12.70096189432331
 21
186.9999999999996874
 31
-0.0000000000000415
210
0.0
220
1.0
230
-0.0000000000000002
  0
LINE
  5
1325
  8
0
  6
VERDECKT
 62
     1
 10
11.7990381056766793
 20
186.999999999999801
 30
-0.0000000000000415
 11
11.7990381056765692
 21
179.7999999999998124
 31
-0.0000000000000399
210
0.0
220
1.0
230
-0.0000000000000002
  0
LINE
  5
1326
  8
0
  6
VERDECKT
 62
     1
 10
9.2009618943231999
 20
179.7999999999998124
 30
-0.0000000000000399
 11
9.2009618943233136
 21
186.999999999999801
 31
-0.0000000000000415
210
0.0
220
1.0
230
-0.0000000000000002
  0
LINE
  5
1327
  8
0
  6
VERDECKT
 62
     1
 10
12.70096189432331
 20
179.7999999999998124
 30
-0.0000000000000399
 11
15.2990381056766793
 21
179.7999999999998124
 31
-0.0000000000000399
210
0.0
220
1.0
230
-0.0000000000000002
  0
LINE
  5
1328
  8
0
  6
VERDECKT
 62
     1
 10
12.70096189432331
 20
179.7999999999998124
 30
-0.0000000000000399
 11
9.2009618943233136
 21
179.7999999999998124
 31
-0.0000000000000399
210
0.0
220
1.0
230
-0.0000000000000002
  0
LINE
  5
1329
  8
0
  6
VERDECKT
 62
     1
 10
15.2990381056766793
 20
179.7999999999998124
 30
-0.0000000000000399
 11
22.2990381056765692
 21
174.7999999999998124
 31
-0.0000000000000388
210
0.0
220
1.0
230
-0.0000000000000002
  0
LINE
  5
132A
  8
0
  6
VERDECKT
 62
     1
 10
19.7009618943231999
 20
174.7999999999998124
 30
-0.0000000000000388
 11
12.70096189432331
 21
179.7999999999998124
 31
-0.0000000000000399
210
0.0
220
1.0
230
-0.0000000000000002
  0
LINE
  5
132B
  8
0
  6
VERDECKT
 62
     1
 10
23.2009618943231999
 20
174.7999999999996987
 30
-0.0000000000000388
 11
25.7990381056765692
 21
174.7999999999996987
 31
-0.0000000000000388
210
0.0
220
1.0
230
-0.0000000000000002
  0
LINE
  5
132C
  8
0
  6
VERDECKT
 62
     1
 10
23.2009618943231999
 20
174.7999999999996987
 30
-0.0000000000000388
 11
19.7009618943231999
 21
174.7999999999998124
 31
-0.0000000000000388
210
0.0
220
1.0
230
-0.0000000000000002
  0
LINE
  5
132D
  8
0
  6
VERDECKT
 62
     1
 10
25.7990381056765692
 20
174.7999999999996987
 30
-0.0000000000000388
 11
25.7990381056765692
 21
177.2999999999996987
 31
-0.0000000000000394
210
0.0
220
1.0
230
-0.0000000000000002
  0
LINE
  5
132E
  8
0
  6
VERDECKT
 62
     1
 10
23.2009618943231999
 20
177.2999999999996987
 30
-0.0000000000000394
 11
25.7990381056765692
 21
177.2999999999996987
 31
-0.0000000000000394
210
0.0
220
1.0
230
-0.0000000000000002
  0
LINE
  5
132F
  8
0
  6
VERDECKT
 62
     1
 10
23.2009618943231999
 20
177.2999999999996987
 30
-0.0000000000000394
 11
23.2009618943231999
 21
174.7999999999996987
 31
-0.0000000000000388
210
0.0
220
1.0
230
-0.0000000000000002
  0
LINE
  5
1330
  8
0
  6
VERDECKT
 62
     1
 10
25.7990381056765692
 20
177.2999999999996987
 30
-0.0000000000000394
 11
24.7990381056765798
 21
178.4547005383790008
 31
-0.0000000000000396
210
0.0
220
1.0
230
-0.0000000000000002
  0
LINE
  5
1331
  8
0
  6
VERDECKT
 62
     1
 10
22.2009618943231999
 20
178.4547005383790008
 30
-0.0000000000000396
 11
24.7990381056765798
 21
178.4547005383790008
 31
-0.0000000000000396
210
0.0
220
1.0
230
-0.0000000000000002
  0
LINE
  5
1332
  8
0
  6
VERDECKT
 62
     1
 10
22.2009618943231999
 20
178.4547005383790008
 30
-0.0000000000000396
 11
23.2009618943231999
 21
177.2999999999996987
 31
-0.0000000000000394
210
0.0
220
1.0
230
-0.0000000000000002
  0
LINE
  5
1333
  8
0
  6
VERDECKT
 62
     1
 10
24.7990381056765798
 20
178.4547005383790008
 30
-0.0000000000000396
 11
24.7990381056765798
 21
188.345299461620499
 31
-0.0000000000000418
210
0.0
220
1.0
230
-0.0000000000000002
  0
LINE
  5
1334
  8
0
  6
VERDECKT
 62
     1
 10
22.2009618943231999
 20
188.345299461620499
 30
-0.0000000000000418
 11
24.7990381056765798
 21
188.345299461620499
 31
-0.0000000000000418
210
0.0
220
1.0
230
-0.0000000000000002
  0
LINE
  5
1335
  8
0
  6
VERDECKT
 62
     1
 10
22.2009618943231999
 20
188.345299461620499
 30
-0.0000000000000418
 11
22.2009618943231999
 21
178.4547005383790008
 31
-0.0000000000000396
210
0.0
220
1.0
230
-0.0000000000000002
  0
LINE
  5
1336
  8
0
  6
VERDECKT
 62
     1
 10
24.7990381056765798
 20
188.345299461620499
 30
-0.0000000000000418
 11
25.7990381056765692
 21
189.499999999999801
 31
-0.0000000000000421
210
0.0
220
1.0
230
-0.0000000000000002
  0
LINE
  5
1337
  8
0
  6
VERDECKT
 62
     1
 10
23.2009618943231999
 20
189.499999999999801
 30
-0.0000000000000421
 11
25.7990381056765692
 21
189.499999999999801
 31
-0.0000000000000421
210
0.0
220
1.0
230
-0.0000000000000002
  0
LINE
  5
1338
  8
0
  6
VERDECKT
 62
     1
 10
23.2009618943231999
 20
189.499999999999801
 30
-0.0000000000000421
 11
22.2009618943231999
 21
188.345299461620499
 31
-0.0000000000000418
210
0.0
220
1.0
230
-0.0000000000000002
  0
LINE
  5
1339
  8
0
  6
VERDECKT
 62
     1
 10
25.7990381056765692
 20
189.499999999999801
 30
-0.0000000000000421
 11
25.7990381056765692
 21
191.999999999999801
 31
-0.0000000000000426
210
0.0
220
1.0
230
-0.0000000000000002
  0
LINE
  5
133A
  8
0
  6
VERDECKT
 62
     1
 10
23.2009618943231999
 20
191.999999999999801
 30
-0.0000000000000426
 11
25.7990381056765692
 21
191.999999999999801
 31
-0.0000000000000426
210
0.0
220
1.0
230
-0.0000000000000002
  0
LINE
  5
133B
  8
0
  6
VERDECKT
 62
     1
 10
23.2009618943231999
 20
191.999999999999801
 30
-0.0000000000000426
 11
23.2009618943231999
 21
189.499999999999801
 31
-0.0000000000000421
210
0.0
220
1.0
230
-0.0000000000000002
  0
LINE
  5
133C
  8
0
  6
VERDECKT
 62
     1
 10
19.7009618943231999
 20
191.9999999999996874
 30
-0.0000000000000426
 11
23.2009618943231999
 21
191.999999999999801
 31
-0.0000000000000426
210
0.0
220
1.0
230
-0.0000000000000002
  0
LINE
  5
133D
  8
0
  6
VERDECKT
 62
     1
 10
46.9999999999996589
 20
192.0
 30
-0.0000000000000426
 11
46.9999999999996589
 21
185.0
 31
-0.0000000000000411
210
0.0
220
1.0
230
-0.0000000000000002
  0
LINE
  5
133E
  8
0
  6
VERDECKT
 62
     1
 10
48.9999999999998792
 20
185.0
 30
-0.0000000000000411
 11
46.9999999999998792
 21
185.0
 31
-0.0000000000000411
210
0.0
220
1.0
230
-0.0000000000000002
  0
LINE
  5
133F
  8
0
  6
VERDECKT
 62
     1
 10
46.9999999999998792
 20
192.0
 30
-0.0000000000000426
 11
48.9999999999998792
 21
192.0
 31
-0.0000000000000426
210
0.0
220
1.0
230
-0.0000000000000002
  0
LINE
  5
1340
  8
0
  6
VERDECKT
 62
     1
 10
-11.5000000000017
 20
185.0
 30
-0.0000000000000411
 11
-11.5000000000017
 21
192.0
 31
-0.0000000000000426
210
0.0
220
1.0
230
-0.0000000000000002
  0
LINE
  5
1341
  8
0
  6
VERDECKT
 62
     1
 10
-35.4999999999989768
 20
192.0
 30
-0.0000000000000426
 11
-35.4999999999989768
 21
185.0
 31
-0.0000000000000411
210
0.0
220
1.0
230
-0.0000000000000002
  0
LINE
  5
1342
  8
0
  6
VERDECKT
 62
     1
 10
-13.5674797050269191
 20
192.0
 30
-0.0000000000000426
 11
-11.5000000000002292
 21
192.0
 31
-0.0000000000000426
210
0.0
220
1.0
230
-0.0000000000000002
  0
LINE
  5
1343
  8
0
  6
VERDECKT
 62
     1
 10
-35.4999999999999929
 20
192.0
 30
-0.0000000000000426
 11
-35.4325202949733011
 21
192.0
 31
-0.0000000000000426
210
0.0
220
1.0
230
-0.0000000000000002
  0
LINE
  5
1344
  8
0
  6
VERDECKT
 62
     1
 10
-11.5000000000002292
 20
185.0
 30
-0.0000000000000411
 11
-13.5674797050269298
 21
185.0
 31
-0.0000000000000411
210
0.0
220
1.0
230
-0.0000000000000002
  0
LINE
  5
1345
  8
0
  6
VERDECKT
 62
     1
 10
-35.4325202949733011
 20
185.0
 30
-0.0000000000000411
 11
-35.5
 21
185.0
 31
-0.0000000000000411
210
0.0
220
1.0
230
-0.0000000000000002
  0
LINE
  5
1346
  8
0
  6
VERDECKT
 62
     1
 10
-47.0000000000003268
 20
185.0
 30
-0.0000000000000411
 11
-47.0000000000003268
 21
192.0
 31
-0.0000000000000426
210
0.0
220
1.0
230
-0.0000000000000002
  0
LINE
  5
1347
  8
0
  6
VERDECKT
 62
     1
 10
-47.0000000000000071
 20
185.0
 30
-0.0000000000000411
 11
-49.0000000000001066
 21
185.0
 31
-0.0000000000000411
210
0.0
220
1.0
230
-0.0000000000000002
  0
LINE
  5
1348
  8
0
  6
VERDECKT
 62
     1
 10
-49.0000000000001066
 20
192.0
 30
-0.0000000000000426
 11
-47.0
 21
192.0
 31
-0.0000000000000426
210
0.0
220
1.0
230
-0.0000000000000002
  0
LINE
  5
1349
  8
0
  6
VERDECKT
 62
     1
 10
38.6976787857922702
 20
18.8326322125803003
 30
-0.0000000000000042
 11
43.5000000000001279
 21
0.0000000000000284
 31
0.0
210
0.0
220
1.0
230
-0.0000000000000002
  0
LINE
  5
134A
  8
0
  6
VERDECKT
 62
     1
 10
-38.6976787857922773
 20
18.8326322125802506
 30
-0.0000000000000042
 11
-43.5000000000001208
 21
-0.0000000000000284
 31
0.0
210
0.0
220
1.0
230
-0.0000000000000002
  0
ARC
  5
134B
  8
0
  6
VERDECKT
 62
     1
 10
47.9999999999973781
 20
21.2047241222030003
 30
0.0
 40
9.5999999999973085
210
0.0
220
-0.0000000000000002
230
-1.0
 50
179.9999999999984084
 51
194.3055518466244109
  0
ARC
  5
134C
  8
0
  6
VERDECKT
 62
     1
 10
-47.9999999999973781
 20
21.2047241222030394
 30
0.0
 40
9.5999999999973102
210
0.0
220
-0.0000000000000002
230
-1.0
 50
345.6944481533755038
 51
0.0000000000016157
  0
LINE
  5
134D
  8
0
  6
VERDECKT
 62
     1
 10
38.3999999999999488
 20
130.2360109909621997
 30
-0.0000000000000289
 11
38.4000000000000128
 21
21.20472412220332
 31
-0.0000000000000047
210
0.0
220
1.0
230
-0.0000000000000002
  0
LINE
  5
134E
  8
0
  6
VERDECKT
 62
     1
 10
-38.4000000000001194
 20
130.236010990962086
 30
-0.0000000000000289
 11
-38.4000000000000625
 21
21.2047241222032596
 31
-0.0000000000000047
210
0.0
220
1.0
230
-0.0000000000000002
  0
ARC
  5
134F
  8
0
  6
VERDECKT
 62
     1
 10
47.9999999999883116
 20
130.2360109909666903
 30
0.0
 40
9.5999999999882526
210
0.0
220
-0.0000000000000002
230
-1.0
 50
158.962488974573688
 51
180.0000000000270859
  0
ARC
  5
1350
  8
0
  6
VERDECKT
 62
     1
 10
-47.9999999999882192
 20
130.2360109909666903
 30
0.0
 40
9.5999999999882704
210
0.0
220
-0.0000000000000002
230
-1.0
 50
359.9999999999729994
 51
21.0375110254264008
  0
LINE
  5
1351
  8
0
  6
VERDECKT
 62
     1
 10
-39.0398821804502205
 20
133.6822101523283095
 30
-0.0000000000000297
 11
-42.8667648496245377
 21
143.6321050921789038
 31
-0.0000000000000319
210
0.0
220
1.0
230
-0.0000000000000002
  0
LINE
  5
1352
  8
0
  6
VERDECKT
 62
     1
 10
39.0398821804501068
 20
133.6822101523283095
 30
-0.0000000000000297
 11
42.8667648496244311
 21
143.632105092178989
 31
-0.0000000000000319
210
0.0
220
1.0
230
-0.0000000000000002
  0
ARC
  5
1353
  8
0
  6
VERDECKT
 62
     1
 10
35.4000000000021089
 20
146.5039377266496956
 30
0.0
 40
7.999999999998014
210
0.0
220
-0.0000000000000002
230
-1.0
 50
338.962488974574228
 51
0.0000000000024427
  0
ARC
  5
1354
  8
0
  6
VERDECKT
 62
     1
 10
-35.400000000002251
 20
146.5039377266496956
 30
0.0
 40
7.9999999999977609
210
0.0
220
-0.0000000000000002
230
-1.0
 50
179.9999999999974989
 51
201.0375110254261131
  0
LINE
  5
1355
  8
0
  6
VERDECKT
 62
     1
 10
43.3999999999999773
 20
157.91251567783479
 30
-0.0000000000000351
 11
43.3999999999999773
 21
146.5039377266500935
 31
-0.0000000000000325
210
0.0
220
1.0
230
-0.0000000000000002
  0
LINE
  5
1356
  8
0
  6
VERDECKT
 62
     1
 10
-43.4000000000000909
 20
157.9125156778347048
 30
-0.0000000000000351
 11
-43.4000000000000909
 21
146.5039377266500082
 31
-0.0000000000000325
210
0.0
220
1.0
230
-0.0000000000000002
  0
ARC
  5
1357
  8
0
  6
VERDECKT
 62
     1
 10
53.000000000001279
 20
157.9125156778343921
 30
0.0
 40
9.6000000000012751
210
0.0
220
-0.0000000000000002
230
-1.0
 50
150.7511736634550061
 51
179.9999999999978968
  0
ARC
  5
1358
  8
0
  6
VERDECKT
 62
     1
 10
-53.0000000000009308
 20
157.9125156778345058
 30
0.0
 40
9.6000000000011525
210
0.0
220
-0.0000000000000002
230
-1.0
 50
0.0000000000020356
 51
29.2488263365450116
  0
LINE
  5
1359
  8
0
  6
VERDECKT
 62
     1
 10
-44.6239422468826703
 20
162.6031080195803895
 30
-0.0000000000000361
 11
-47.9800481275977333
 21
168.5961542351431035
 31
-0.0000000000000374
210
0.0
220
1.0
230
-0.0000000000000002
  0
LINE
  5
135A
  8
0
  6
VERDECKT
 62
     1
 10
44.62394224688245
 20
162.6031080195805032
 30
-0.0000000000000361
 11
47.9800481275975201
 21
168.5961542351431888
 31
-0.0000000000000374
210
0.0
220
1.0
230
-0.0000000000000002
  0
ARC
  5
135B
  8
0
  6
VERDECKT
 62
     1
 10
41.0000000000009095
 20
172.5049811865976892
 30
0.0
 40
7.99999999999911
210
0.0
220
-0.0000000000000002
230
-1.0
 50
330.7511736634510271
 51
0.0000000000008142
  0
ARC
  5
135C
  8
0
  6
VERDECKT
 62
     1
 10
-41.0000000000006892
 20
172.5049811865978029
 30
0.0
 40
7.9999999999990967
210
0.0
220
-0.0000000000000002
230
-1.0
 50
179.9999999999990052
 51
209.2488263365488024
  0
LINE
  5
135D
  8
0
  6
VERDECKT
 62
     1
 10
48.9999999999997584
 20
200.0
 30
-0.0000000000000444
 11
48.9999999999997726
 21
192.0
 31
-0.0000000000000426
210
0.0
220
1.0
230
-0.0000000000000002
  0
LINE
  5
135E
  8
0
  6
VERDECKT
 62
     1
 10
48.9999999999997726
 20
185.0
 30
-0.0000000000000411
 11
48.9999999999997726
 21
172.5049811865978882
 31
-0.0000000000000383
210
0.0
220
1.0
230
-0.0000000000000002
  0
LINE
  5
135F
  8
0
  6
VERDECKT
 62
     1
 10
-49.0000000000000213
 20
200.0
 30
-0.0000000000000444
 11
-49.0000000000000071
 21
192.0
 31
-0.0000000000000426
210
0.0
220
1.0
230
-0.0000000000000002
  0
LINE
  5
1360
  8
0
  6
VERDECKT
 62
     1
 10
-49.0000000000000071
 20
185.0
 30
-0.0000000000000411
 11
-49.0
 21
172.5049811865978029
 31
-0.0000000000000383
210
0.0
220
1.0
230
-0.0000000000000002
  0
ENDBLK
  5
1362
  8
0
  0
ENDSEC
  0
SECTION
  2
ENTITIES
  0
INSERT
  5
12DD
  8
DEFPOINTS
  2
A$C34AC70EE
 10
0.0000000000001106
 20
-100.5999999999999943
 30
0.0
  0
INSERT
  5
1363
  8
DEFPOINTS
  2
A$C5F144539
 10
0.0
 20
0.0
 30
0.0
  0
VIEWPORT
  5
F0F
 67
     1
  8
0
 10
9.0424168189510858
 20
12.7582753906246094
 30
0.0
 40
45.7810132673298966
 41
25.9912127115319187
 68
     1
 69
     1
1001
ACAD
1000
MVIEW
1002
{
1070
    16
1010
0.0
1020
0.0
1030
0.0
1010
0.0
1020
0.0
1030
1.0
1040
0.0
1040
25.9912127115319187
1040
9.0424168189510858
1040
12.7582753906246094
1040
50.0
1040
0.0
1040
0.0
1070
     0
1070
  1500
1070
     1
1070
     1
1070
     0
1070
     0
1070
     0
1070
     0
1040
0.0
1040
0.0
1040
0.0
1040
10.0
1040
10.0
1040
10.0
1040
10.0
1070
     0
1002
{
1002
}
1002
}
  0
VIEWPORT
  5
F13
 67
     1
  8
DEFPOINTS
 10
9.0421391560294602
 20
12.7579541155145009
 30
0.0
 40
18.3808202853963714
 41
25.8069596867009601
 68
     2
 69
     2
1001
ACAD
1000
MVIEW
1002
{
1070
    16
1010
551.9151312377084651
1020
228.847588262958709
1030
-66.6192173064172835
1010
0.0
1020
0.0
1030
1.0
1040
0.0
1040
426.6832039254330198
1040
-401.6289658178690729
1040
-18.8189887734409389
1040
50.0
1040
0.0
1040
0.0
1070
     0
1070
  1500
1070
     1
1070
     0
1070
     0
1070
     0
1070
     0
1070
     0
1040
0.0
1040
0.0
1040
0.0
1040
1.0
1040
1.0
1040
10.0
1040
10.0
1070
     0
1002
{
1002
}
1002
}
  0
VIEWPORT
  5
F7F
 67
     1
  8
DEFPOINTS
 10
14.8976617181997195
 20
4.8479290880793364
 30
0.0
 40
4.7995985490768334
 41
6.5885248616837151
 68
     3
 69
     3
1001
ACAD
1000
MVIEW
1002
{
1070
    16
1010
495.4544504778438068
1020
239.2022552112098026
1030
-51.5841986410031197
1010
85.2837103567132999
1020
117.2783367699667991
1030
379.6264300097108162
1040
2.4910920847570441
1040
228.0250981443184912
1040
0.0
1040
0.0
1040
50.0
1040
0.0
1040
0.0
1070
     0
1070
  1500
1070
     1
1070
     0
1070
     0
1070
     0
1070
     0
1070
     0
1040
0.0
1040
0.0
1040
0.0
1040
1.0
1040
1.0
1040
10.0
1040
10.0
1070
     0
1002
{
1002
}
1002
}
  0
ENDSEC
  0
EOF
