  0
SECTION
  2
HEADER
  9
$ACADVER
  1
AC1009
  9
$INSBASE
 10
0.0
 20
0.0
 30
0.0
  9
$EXTMIN
 10
-72.9224403964725525
 20
-195.0087727996387912
 30
-0.0048824399767113
  9
$EXTMAX
 10
72.5062022152993677
 20
160.0352104998138998
 30
0.0073244050229846
  9
$LIMMIN
 10
0.0
 20
0.0
  9
$LIMMAX
 10
296.9999999999998863
 20
420.0000000000001137
  9
$ORTHOMODE
 70
     1
  9
$REGENMODE
 70
     1
  9
$FILLMODE
 70
     1
  9
$QTEXTMODE
 70
     0
  9
$MIRRTEXT
 70
     1
  9
$DRAGMODE
 70
     2
  9
$LTSCALE
 40
10.0
  9
$OSMODE
 70
  2559
  9
$ATTMODE
 70
     1
  9
$TEXTSIZE
 40
3.5
  9
$TRACEWID
 40
0.5
  9
$TEXTSTYLE
  7
STANDARD
  9
$CLAYER
  8
STEMPEL
  9
$CELTYPE
  6
BYLAYER
  9
$CECOLOR
 62
   256
  9
$DIMSCALE
 40
1.0
  9
$DIMASZ
 40
3.5
  9
$DIMEXO
 40
1.0
  9
$DIMDLI
 40
7.0
  9
$DIMRND
 40
0.0
  9
$DIMDLE
 40
0.0
  9
$DIMEXE
 40
1.0
  9
$DIMTP
 40
0.0
  9
$DIMTM
 40
0.0
  9
$DIMTXT
 40
3.5
  9
$DIMCEN
 40
1.5
  9
$DIMTSZ
 40
0.0
  9
$DIMTOL
 70
     0
  9
$DIMLIM
 70
     0
  9
$DIMTIH
 70
     0
  9
$DIMTOH
 70
     0
  9
$DIMSE1
 70
     0
  9
$DIMSE2
 70
     0
  9
$DIMTAD
 70
     1
  9
$DIMZIN
 70
     8
  9
$DIMBLK
  1

  9
$DIMASO
 70
     1
  9
$DIMSHO
 70
     0
  9
$DIMPOST
  1

  9
$DIMAPOST
  1

  9
$DIMALT
 70
     0
  9
$DIMALTD
 70
     2
  9
$DIMALTF
 40
25.3999999999999986
  9
$DIMLFAC
 40
1.0
  9
$DIMTOFL
 70
     1
  9
$DIMTVP
 40
0.0
  9
$DIMTIX
 70
     0
  9
$DIMSOXD
 70
     0
  9
$DIMSAH
 70
     0
  9
$DIMBLK1
  1

  9
$DIMBLK2
  1

  9
$DIMSTYLE
  2
STANDARD
  9
$DIMCLRD
 70
     0
  9
$DIMCLRE
 70
     0
  9
$DIMCLRT
 70
     1
  9
$DIMTFAC
 40
0.5142857142857143
  9
$DIMGAP
 40
1.5
  9
$LUNITS
 70
     2
  9
$LUPREC
 70
     2
  9
$SKETCHINC
 40
1.0
  9
$FILLETRAD
 40
0.0
  9
$AUNITS
 70
     0
  9
$AUPREC
 70
     0
  9
$MENU
  1
ACAD
  9
$ELEVATION
 40
0.0
  9
$PELEVATION
 40
0.0
  9
$THICKNESS
 40
0.0
  9
$LIMCHECK
 70
     0
  9
$BLIPMODE
 70
     0
  9
$CHAMFERA
 40
0.0
  9
$CHAMFERB
 40
0.0
  9
$SKPOLY
 70
     0
  9
$TDCREATE
 40
2451337.6017592591233552
  9
$TDUPDATE
 40
2458388.3590856487862766
  9
$TDINDWG
 40
0.1911167477
  9
$TDUSRTIMER
 40
0.1911167477
  9
$USRTIMER
 70
     1
  9
$ANGBASE
 50
0.0
  9
$ANGDIR
 70
     0
  9
$PDMODE
 70
     0
  9
$PDSIZE
 40
0.0
  9
$PLINEWID
 40
0.0
  9
$COORDS
 70
     1
  9
$SPLFRAME
 70
     0
  9
$SPLINETYPE
 70
     6
  9
$SPLINESEGS
 70
     8
  9
$ATTDIA
 70
     1
  9
$ATTREQ
 70
     1
  9
$HANDLING
 70
     1
  9
$HANDSEED
  5
2911
  9
$SURFTAB1
 70
     6
  9
$SURFTAB2
 70
     6
  9
$SURFTYPE
 70
     6
  9
$SURFU
 70
     6
  9
$SURFV
 70
     6
  9
$UCSNAME
  2

  9
$UCSORG
 10
0.0
 20
0.0
 30
0.0
  9
$UCSXDIR
 10
1.0
 20
0.0
 30
0.0
  9
$UCSYDIR
 10
0.0
 20
1.0
 30
0.0
  9
$PUCSNAME
  2

  9
$PUCSORG
 10
0.0
 20
0.0
 30
0.0
  9
$PUCSXDIR
 10
1.0
 20
0.0
 30
0.0
  9
$PUCSYDIR
 10
0.0
 20
1.0
 30
0.0
  9
$USERI1
 70
     0
  9
$USERI2
 70
     0
  9
$USERI3
 70
     0
  9
$USERI4
 70
     0
  9
$USERI5
 70
     0
  9
$USERR1
 40
0.0
  9
$USERR2
 40
0.0
  9
$USERR3
 40
0.0
  9
$USERR4
 40
0.0
  9
$USERR5
 40
0.0
  9
$WORLDVIEW
 70
     1
  9
$SHADEDGE
 70
     3
  9
$SHADEDIF
 70
    70
  9
$TILEMODE
 70
     1
  9
$MAXACTVP
 70
    16
  9
$PLIMCHECK
 70
     0
  9
$PEXTMIN
 10
1.0000000000000000E+20
 20
1.0000000000000000E+20
 30
1.0000000000000000E+20
  9
$PEXTMAX
 10
-1.0000000000000000E+20
 20
-1.0000000000000000E+20
 30
-1.0000000000000000E+20
  9
$PLIMMIN
 10
-0.2500002402958907
 20
-0.2499999962453767
  9
$PLIMMAX
 10
10.7499995194082203
 20
8.2499997634587334
  9
$UNITMODE
 70
     0
  9
$VISRETAIN
 70
     0
  9
$PLINEGEN
 70
     0
  9
$PSLTSCALE
 70
     0
  0
ENDSEC
  0
SECTION
  2
TABLES
  0
TABLE
  2
VPORT
 70
     1
  0
VPORT
  2
*ACTIVE
 70
     0
 10
0.0
 20
0.0
 11
1.0
 21
1.0
 12
-0.2081190905865924
 22
-61.2393102941995267
 13
0.0
 23
0.0
 14
1.0
 24
1.0
 15
10.0
 25
10.0
 16
-0.0000000000001565
 26
0.0
 36
704.657592061764376
 17
0.0
 27
43.7525291442871094
 37
-0.0000000000000036
 40
356.853893154845025
 41
1.868197278911564
 42
50.0
 43
0.0
 44
0.0
 50
0.0
 51
0.0
 71
     0
 72
  1500
 73
     1
 74
     0
 75
     0
 76
     0
 77
     0
 78
     0
  0
ENDTAB
  0
TABLE
  2
LTYPE
 70
     4
  0
LTYPE
  2
CONTINUOUS
 70
     0
  3
Solid line
 72
    65
 73
     0
 40
0.0
  0
LTYPE
  2
VERDECKT
 70
     0
  3
_ _ _ _ _ _ _ _ _ _ _ _ _ _ _ _ _ _ _ _ _ _ _
 72
    65
 73
     2
 40
0.375
 49
0.25
 49
-0.125
  0
ENDTAB
  0
TABLE
  2
LAYER
 70
    11
  0
LAYER
  2
0
 70
     0
 62
     7
  6
CONTINUOUS
  0
LAYER
  2
VOLL
 70
     0
 62
     1
  6
CONTINUOUS
  0
LAYER
  2
STEMPEL
 70
     0
 62
     3
  6
CONTINUOUS
  0
LAYER
  2
DEFPOINTS
 70
     0
 62
     7
  6
CONTINUOUS
  0
ENDTAB
  0
TABLE
  2
STYLE
 70
     2
  0
STYLE
  2
STANDARD
 70
     0
 40
0.0
 41
0.8
 50
0.0
 71
     0
 42
3.5
  3
simplex.shx
  4

  0
STYLE
  2
GREEKS
 70
     0
 40
0.0
 41
0.8
 50
0.0
 71
     0
 42
2.5
  3
SIMPLEX.shx
  4

  0
ENDTAB
  0
TABLE
  2
VIEW
 70
     3
  0
ENDTAB
  0
TABLE
  2
UCS
 70
     0
  0
ENDTAB
  0
TABLE
  2
APPID
 70
    10
  0
APPID
  2
ACAD
 70
     0
  0
APPID
  2
ACAD_NAV_VCDISPLAY
 70
     0
  0
APPID
  2
ACAECLAYERSTANDARD
 70
     0
  0
APPID
  2
ACCMTRANSPARENCY
 70
     0
  0
APPID
  2
ACAD_PSEXT
 70
     0
  0
APPID
  2
ACAD_STEPID
 70
     0
  0
APPID
  2
ACAD_EXEMPT_FROM_CAD_STANDARDS
 70
     0
  0
APPID
  2
ACAD_MLEADERVER
 70
     0
  0
APPID
  2
ACAD_OBJECT_CHANGE_GUID
 70
     0
  0
APPID
  2
ACADANNOMONITORALERTICONDI
 70
     0
  0
ENDTAB
  0
TABLE
  2
DIMSTYLE
 70
     2
  0
DIMSTYLE
  2
STANDARD
 70
     0
  3

  4

  5

  6

  7

 40
1.0
 41
0.18
 42
0.0625
 43
0.38
 44
0.18
 45
0.0
 46
0.0
 47
0.0
 48
0.0
140
0.18
141
0.09
142
0.0
143
25.3999999999999986
144
1.0
145
0.0
146
1.0
147
0.09
 71
     0
 72
     0
 73
     1
 74
     1
 75
     0
 76
     0
 77
     0
 78
     0
170
     0
171
     2
172
     0
173
     0
174
     0
175
     0
176
     0
177
     0
178
     0
  0
ENDTAB
  0
ENDSEC
  0
SECTION
  2
BLOCKS
  0
BLOCK
  8
0
  2
$MODEL_SPACE
 70
     0
 10
0.0
 20
0.0
 30
0.0
  3
$MODEL_SPACE
  1

  0
ENDBLK
  5
36
  8
0
  0
BLOCK
 67
     1
  8
0
  2
$PAPER_SPACE
 70
     0
 10
0.0
 20
0.0
 30
0.0
  3
$PAPER_SPACE
  1

  0
ENDBLK
  5
34
 67
     1
  8
0
  0
BLOCK
  8
0
  2
A$C1B2A3747
 70
     0
 10
0.0
 20
0.0
 30
0.0
  3
A$C1B2A3747
  1

  0
LINE
  5
27EB
  8
0
  6
CONTINUOUS
 62
     3
 10
30.2009618943234592
 20
-55.3096004384196007
 30
0.0
 11
23.2009618943234592
 21
-43.1852447854375612
 31
-0.0000000000000018
  0
LINE
  5
27EC
  8
0
  6
CONTINUOUS
 62
     3
 10
32.7990381056766083
 20
-53.8096004384194373
 30
0.0
 11
30.2009618943233491
 21
-55.3096004384194302
 31
-0.0000000000000006
  0
LINE
  5
27ED
  8
0
  6
CONTINUOUS
 62
     3
 10
25.7990381056768285
 20
-41.6852447854375612
 30
0.0
 11
32.7990381056768427
 21
-53.8096004384196007
 31
0.0000000000000018
  0
LINE
  5
27EE
  8
0
  6
CONTINUOUS
 62
     3
 10
25.7990381056768285
 20
-41.6852447854375612
 30
0.0
 11
23.2009618943235694
 21
-43.1852447854375612
 31
-0.0000000000000006
  0
LINE
  5
27EF
  8
0
  6
CONTINUOUS
 62
     3
 10
23.2009618943234592
 20
-43.1852447854375683
 30
0.0
 11
19.7009618943234592
 21
-37.1230669589465094
 31
-0.0000000000000008
  0
LINE
  5
27F0
  8
0
  6
CONTINUOUS
 62
     3
 10
22.2990381056766083
 20
-35.6230669589465094
 30
0.0
 11
25.7990381056766083
 21
-41.6852447854375825
 31
0.0000000000000008
  0
LINE
  5
27F1
  8
0
  6
CONTINUOUS
 62
     3
 10
22.2990381056766083
 20
-35.6230669589465094
 30
0.0
 11
19.7009618943233384
 21
-37.1230669589465094
 31
-0.0000000000000006
  0
LINE
  5
27F2
  8
0
  6
CONTINUOUS
 62
     3
 10
33.69292525735856
 20
-61.3578584013657533
 30
0.0
 11
30.200961894323239
 21
-55.3096004384194302
 31
-0.0000000000000008
  0
LINE
  5
27F3
  8
0
  6
CONTINUOUS
 62
     3
 10
32.7990381056766083
 20
-53.8096004384194373
 30
0.0
 11
36.29100146871194
 21
-59.8578584013656965
 31
0.0000000000000008
  0
LINE
  5
27F4
  8
0
  6
CONTINUOUS
 62
     3
 10
30.2009618943234592
 20
55.3096004384196576
 30
0.0
 11
23.2009618943234592
 21
43.1852447854376109
 31
-0.0000000000000018
  0
LINE
  5
27F5
  8
0
  6
CONTINUOUS
 62
     3
 10
25.7990381056768285
 20
41.6852447854376109
 30
0.0
 11
23.2009618943235694
 21
43.1852447854376109
 31
-0.0000000000000006
  0
LINE
  5
27F6
  8
0
  6
CONTINUOUS
 62
     3
 10
25.7990381056768285
 20
41.6852447854376109
 30
0.0
 11
32.7990381056768427
 21
53.8096004384196576
 31
0.0000000000000018
  0
LINE
  5
27F7
  8
0
  6
CONTINUOUS
 62
     3
 10
32.7990381056766083
 20
53.809600438419487
 30
0.0
 11
30.2009618943233491
 21
55.309600438419487
 31
-0.0000000000000006
  0
LINE
  5
27F8
  8
0
  6
CONTINUOUS
 62
     3
 10
23.2009618943234592
 20
43.1852447854376322
 30
0.0
 11
19.7009618943234592
 21
37.1230669589465734
 31
-0.0000000000000008
  0
LINE
  5
27F9
  8
0
  6
CONTINUOUS
 62
     3
 10
22.2990381056766083
 20
35.6230669589465734
 30
0.0
 11
19.7009618943233384
 21
37.1230669589465734
 31
-0.0000000000000006
  0
LINE
  5
27FA
  8
0
  6
CONTINUOUS
 62
     3
 10
22.2990381056766083
 20
35.6230669589465734
 30
0.0
 11
25.7990381056766083
 21
41.6852447854376322
 31
0.0000000000000008
  0
LINE
  5
27FB
  8
0
  6
CONTINUOUS
 62
     3
 10
33.69292525735856
 20
61.3578584013658102
 30
0.0
 11
30.200961894323239
 21
55.309600438419487
 31
-0.0000000000000008
  0
LINE
  5
27FC
  8
0
  6
CONTINUOUS
 62
     3
 10
32.7990381056766083
 20
53.809600438419487
 30
0.0
 11
36.29100146871194
 21
59.8578584013657604
 31
0.0000000000000008
  0
LINE
  5
27FD
  8
0
  6
CONTINUOUS
 62
     3
 10
-67.5000000000000853
 20
18.5404962177389585
 30
-0.0000000000000284
 11
-67.5000000000000853
 21
-18.5404962177394417
 31
-0.0000000000000284
  0
LINE
  5
27FE
  8
0
  6
CONTINUOUS
 62
     3
 10
-49.8065407233314801
 20
-49.1864666465802998
 30
0.0
 11
-17.6934592766685483
 21
-67.7269628643194324
 31
0.0000000000000071
  0
LINE
  5
27FF
  8
0
  6
CONTINUOUS
 62
     3
 10
67.5000000000000284
 20
-18.5404962177388093
 30
0.0000000000000284
 11
67.5000000000000284
 21
18.5404962177387205
 31
0.0000000000000284
  0
LINE
  5
2800
  8
0
  6
CONTINUOUS
 62
     3
 10
-17.6934592766683316
 20
67.7269628643190345
 30
0.0
 11
-49.8065407233314872
 21
49.1864666465797669
 31
-0.0000000000000071
  0
CIRCLE
  5
2801
  8
0
  6
CONTINUOUS
 62
     3
 10
0.0000000000000355
 20
0.0000000000000213
 30
0.0
 40
72.5
  0
CIRCLE
  5
2802
  8
0
  6
CONTINUOUS
 62
     3
 10
0.0000000000000355
 20
0.0000000000000213
 30
0.0
 40
70.0
  0
ARC
  5
2803
  8
0
  6
CONTINUOUS
 62
     3
 10
0.0000000000001334
 20
-0.0000000000000399
 30
0.0
 40
56.2430984176012316
 50
61.5282561481630808
 51
179.9999999999998863
  0
ARC
  5
2804
  8
0
  6
CONTINUOUS
 62
     3
 10
0.0000000000000197
 20
0.0000000000000205
 30
0.0
 40
56.2430984176011179
 50
301.5282561481629955
 51
58.4717438518369406
  0
ARC
  5
2805
  8
0
  6
CONTINUOUS
 62
     3
 10
0.0000000000001334
 20
0.0000000000000667
 30
0.0
 40
56.2430984176010966
 50
180.0
 51
298.4717438518368908
  0
ARC
  5
2806
  8
0
  6
CONTINUOUS
 62
     3
 10
0.0000000000000004
 20
0.0000000000000116
 30
0.0
 40
48.3799396802318
 50
61.7767166553239377
 51
180.0
  0
ARC
  5
2807
  8
0
  6
CONTINUOUS
 62
     3
 10
0.0000000000000004
 20
0.0000000000000116
 30
0.0
 40
48.3799396802318071
 50
301.7767166553239235
 51
58.2232833446760694
  0
ARC
  5
2808
  8
0
  6
CONTINUOUS
 62
     3
 10
0.0000000000000004
 20
0.0000000000000187
 30
0.0
 40
48.3799396802318284
 50
180.0
 51
298.2232833446760196
  0
ARC
  5
2809
  8
0
  6
CONTINUOUS
 62
     3
 10
0.0000000000001278
 20
-0.000000000000077
 30
0.0
 40
49.0000000000001066
 50
61.7542264905850828
 51
179.9999999999998863
  0
ARC
  5
280A
  8
0
  6
CONTINUOUS
 62
     3
 10
-0.0000000000000995
 20
0.0000000000000119
 30
0.0
 40
49.0000000000000568
 50
301.7542264905849265
 51
58.2457735094150877
  0
ARC
  5
280B
  8
0
  6
CONTINUOUS
 62
     3
 10
0.0000000000001278
 20
0.0000000000001042
 30
0.0
 40
49.0000000000000213
 50
180.0000000000001137
 51
298.2457735094149029
  0
LINE
  5
280C
  8
0
  6
VERDECKT
 62
     1
 10
35.2990381056766083
 20
-58.1397274573416496
 30
0.0
 11
32.7009618943233491
 21
-59.6397274573416496
 31
-0.0000000000000006
  0
LINE
  5
280D
  8
0
  6
VERDECKT
 62
     1
 10
36.299038105677063
 20
-59.8717782649104819
 30
0.0
 11
33.700961894323811
 21
-61.371778264910489
 31
-0.0000000000000006
  0
LINE
  5
280E
  8
0
  6
VERDECKT
 62
     1
 10
33.7009618943232425
 20
-61.3717782649105104
 30
0.0
 11
33.69292525735856
 21
-61.3578584013657533
 31
0.0
  0
LINE
  5
280F
  8
0
  6
VERDECKT
 62
     1
 10
36.29100146871194
 20
-59.8578584013656965
 30
0.0
 11
36.2990381056766083
 21
-59.8717782649105033
 31
0.0
  0
LINE
  5
2810
  8
0
  6
VERDECKT
 62
     1
 10
35.2990381056766083
 20
58.1397274573416993
 30
0.0
 11
32.7009618943233491
 21
59.6397274573417135
 31
-0.0000000000000006
  0
LINE
  5
2811
  8
0
  6
VERDECKT
 62
     1
 10
36.299038105677063
 20
59.871778264910553
 30
0.0
 11
33.700961894323811
 21
61.3717782649105388
 31
-0.0000000000000006
  0
LINE
  5
2812
  8
0
  6
VERDECKT
 62
     1
 10
33.7009618943232425
 20
61.3717782649105601
 30
0.0
 11
33.69292525735856
 21
61.3578584013658102
 31
0.0
  0
LINE
  5
2813
  8
0
  6
VERDECKT
 62
     1
 10
36.29100146871194
 20
59.8578584013657604
 30
0.0
 11
36.2990381056766083
 21
59.8717782649105601
 31
0.0
  0
LINE
  5
2814
  8
0
  6
VERDECKT
 62
     1
 10
-18.6541289617218489
 20
70.05907130900016
 30
0.0
 11
-35.0000000000003126
 21
60.621778264911157
 31
-0.0000000000000036
  0
LINE
  5
2815
  8
0
  6
VERDECKT
 62
     1
 10
-35.0000000000003126
 20
60.6217782649111712
 30
0.0
 11
-51.3458710382767194
 21
51.1844852208233618
 31
-0.0000000000000036
  0
LINE
  5
2816
  8
0
  6
VERDECKT
 62
     1
 10
70.0000000000007105
 20
-18.8745860881761409
 30
0.0000000000000284
 11
70.0000000000007105
 21
0.0000000000000213
 31
0.0000000000000284
  0
LINE
  5
2817
  8
0
  6
VERDECKT
 62
     1
 10
70.0000000000007105
 20
0.0000000000000207
 30
0.0000000000000284
 11
70.0000000000007105
 21
18.8745860881782086
 31
0.0000000000000284
  0
LINE
  5
2818
  8
0
  6
VERDECKT
 62
     1
 10
-51.3458710382767194
 20
-51.1844852208212515
 30
0.0
 11
-34.9999999999992824
 21
-60.6217782649096222
 31
0.0000000000000036
  0
LINE
  5
2819
  8
0
  6
VERDECKT
 62
     1
 10
-34.9999999999992824
 20
-60.6217782649096222
 30
0.0
 11
-18.6541289617216215
 21
-70.0590713089981421
 31
0.0000000000000036
  0
LINE
  5
281A
  8
0
  6
VERDECKT
 62
     1
 10
-69.9999999999992752
 20
18.8745860881777787
 30
-0.0000000000000284
 11
-69.9999999999992752
 21
0.0000000000000213
 31
-0.0000000000000284
  0
LINE
  5
281B
  8
0
  6
VERDECKT
 62
     1
 10
-69.9999999999992752
 20
0.0000000000000207
 30
-0.0000000000000284
 11
-69.9999999999992752
 21
-18.8745860881756791
 31
-0.0000000000000284
  0
ARC
  5
281C
  8
0
  6
VERDECKT
 62
     1
 10
0.0000000000130937
 20
0.0000000000224062
 30
0.0
 40
56.2430984175751902
 50
58.4717438518363792
 51
61.5282561481637913
  0
ARC
  5
281D
  8
0
  6
VERDECKT
 62
     1
 10
0.0000000000130937
 20
-0.0000000000223794
 30
0.0
 40
56.2430984175751902
 50
298.4717438518362087
 51
301.5282561481636208
  0
CIRCLE
  5
281E
  8
0
  6
VERDECKT
 62
     1
 10
0.0000000000000195
 20
0.0000000000000169
 30
0.0
 40
58.616779199767052
  0
CIRCLE
  5
281F
  8
0
  6
VERDECKT
 62
     1
 10
0.0000000000000133
 20
0.0000000000000152
 30
0.0
 40
66.5
  0
CIRCLE
  5
2820
  8
0
  6
VERDECKT
 62
     1
 10
0.0000000000000174
 20
0.0000000000000163
 30
0.0
 40
57.0343736014411888
  0
CIRCLE
  5
2821
  8
0
  6
VERDECKT
 62
     1
 10
0.0000000000000171
 20
0.0000000000000162
 30
0.0
 40
54.9408528155665792
  0
CIRCLE
  5
2822
  8
0
  6
VERDECKT
 62
     1
 10
0.0000000000000133
 20
0.0000000000000152
 30
0.0
 40
64.0000000000001137
  0
CIRCLE
  5
2823
  8
0
  6
VERDECKT
 62
     1
 10
0.0000000000000169
 20
0.0000000000000162
 30
0.0
 40
58.4994094163024485
  0
CIRCLE
  5
2824
  8
0
  6
VERDECKT
 62
     1
 10
0.0000000000000178
 20
0.0000000000000164
 30
0.0
 40
56.0912105298726829
  0
CIRCLE
  5
2825
  8
0
  6
VERDECKT
 62
     1
 10
0.0000000000000174
 20
0.0000000000000163
 30
0.0
 40
57.0343736014411888
  0
CIRCLE
  5
2826
  8
0
  6
VERDECKT
 62
     1
 10
0.0000000000000171
 20
0.0000000000000162
 30
0.0
 40
54.9408528155665792
  0
CIRCLE
  5
2827
  8
0
  6
VERDECKT
 62
     1
 10
0.0000000000000171
 20
0.0000000000000162
 30
0.0
 40
58.6061539715965125
  0
CIRCLE
  5
2828
  8
0
  6
VERDECKT
 62
     1
 10
0.0000000000000189
 20
0.0000000000000167
 30
0.0
 40
57.6439527329506518
  0
CIRCLE
  5
2829
  8
0
  6
VERDECKT
 62
     1
 10
0.0000000000000203
 20
0.0000000000000171
 30
0.0
 40
59.7182675581577769
  0
CIRCLE
  5
282A
  8
0
  6
VERDECKT
 62
     1
 10
0.0000000000000197
 20
0.000000000000017
 30
0.0
 40
60.6150586136506391
  0
ARC
  5
282B
  8
0
  6
VERDECKT
 62
     1
 10
-0.0000000000186442
 20
-0.0000000000322683
 30
0.0
 40
48.379939680269068
 50
58.2232833446774194
 51
61.7767166553225877
  0
ARC
  5
282C
  8
0
  6
VERDECKT
 62
     1
 10
-0.0000000000186442
 20
0.0000000000322916
 30
0.0
 40
48.379939680269068
 50
298.2232833446773839
 51
301.7767166553226161
  0
ARC
  5
282D
  8
0
  6
VERDECKT
 62
     1
 10
0.0000000000215009
 20
0.0000000000368855
 30
0.0
 40
48.9999999999573532
 50
58.2457735094138584
 51
61.7542264905866318
  0
ARC
  5
282E
  8
0
  6
VERDECKT
 62
     1
 10
0.0000000000215009
 20
-0.0000000000368475
 30
0.0
 40
48.9999999999573532
 50
298.245773509413425
 51
301.7542264905861202
  0
CIRCLE
  5
282F
  8
0
  6
VERDECKT
 62
     1
 10
0.0000000000000197
 20
0.0000000000000169
 30
0.0
 40
56.7178345740343204
  0
CIRCLE
  5
2830
  8
0
  6
VERDECKT
 62
     1
 10
0.0000000000000195
 20
0.0000000000000169
 30
0.0
 40
58.6167791997664835
  0
CIRCLE
  5
2831
  8
0
  6
VERDECKT
 62
     1
 10
0.0000000000000141
 20
0.0000000000000154
 30
0.0
 40
51.0000000000001208
  0
CIRCLE
  5
2832
  8
0
  6
VERDECKT
 62
     1
 10
0.0000000000000004
 20
0.0000000000000116
 30
0.0
 40
50.3875793553185076
  0
ENDBLK
  5
2834
  8
0
  0
BLOCK
  8
0
  2
A$C74736405
 70
     0
 10
0.0
 20
0.0
 30
0.0
  3
A$C74736405
  1

  0
LINE
  5
2838
  8
0
  6
CONTINUOUS
 62
     3
 10
70.0000000000006821
 20
142.9999999999998863
 30
-0.0000000000000318
 11
70.0000000000006821
 21
150.0
 31
-0.0000000000000333
210
0.0
220
1.0
230
-0.0000000000000002
  0
LINE
  5
2839
  8
0
  6
CONTINUOUS
 62
     3
 10
70.0000000000002274
 20
142.9999999999998863
 30
-0.0000000000000318
 11
72.5
 21
142.9999999999998863
 31
-0.0000000000000318
210
0.0
220
1.0
230
-0.0000000000000002
  0
LINE
  5
283A
  8
0
  6
CONTINUOUS
 62
     3
 10
72.4999999999999716
 20
150.0
 30
-0.0000000000000333
 11
70.0000000000002132
 21
150.0
 31
-0.0000000000000333
210
0.0
220
1.0
230
-0.0000000000000002
  0
LINE
  5
283B
  8
0
  6
CONTINUOUS
 62
     3
 10
-51.3458710382809613
 20
142.9999999999998863
 30
-0.0000000000000318
 11
-51.3458710382809613
 21
150.0
 31
-0.0000000000000333
210
0.0
220
1.0
230
-0.0000000000000002
  0
LINE
  5
283C
  8
0
  6
CONTINUOUS
 62
     3
 10
-18.6541289617176709
 20
150.0
 30
-0.0000000000000333
 11
-18.6541289617176709
 21
142.9999999999998863
 31
-0.0000000000000318
210
0.0
220
1.0
230
-0.0000000000000002
  0
LINE
  5
283D
  8
0
  6
CONTINUOUS
 62
     3
 10
-51.3458710382776502
 20
142.9999999999998863
 30
-0.0000000000000318
 11
-18.654128961721991
 21
142.9999999999998863
 31
-0.0000000000000318
210
0.0
220
1.0
230
-0.0000000000000002
  0
LINE
  5
283E
  8
0
  6
CONTINUOUS
 62
     3
 10
-18.6541289617219803
 20
150.0
 30
-0.0000000000000333
 11
-51.3458710382776715
 21
150.0
 31
-0.0000000000000333
210
0.0
220
1.0
230
-0.0000000000000002
  0
LINE
  5
283F
  8
0
  6
CONTINUOUS
 62
     3
 10
-69.9999999999993179
 20
150.0
 30
-0.0000000000000333
 11
-69.9999999999993179
 21
142.9999999999998863
 31
-0.0000000000000318
210
0.0
220
1.0
230
-0.0000000000000002
  0
LINE
  5
2840
  8
0
  6
CONTINUOUS
 62
     3
 10
-72.5
 20
142.9999999999998863
 30
-0.0000000000000318
 11
-70.0000000000002274
 21
142.9999999999998863
 31
-0.0000000000000318
210
0.0
220
1.0
230
-0.0000000000000002
  0
LINE
  5
2841
  8
0
  6
CONTINUOUS
 62
     3
 10
-70.0000000000002416
 20
150.0
 30
-0.0000000000000333
 11
-72.5
 21
150.0
 31
-0.0000000000000333
210
0.0
220
1.0
230
-0.0000000000000002
  0
LINE
  5
2842
  8
0
  6
CONTINUOUS
 62
     3
 10
-72.5
 20
159.9999999999998863
 30
-0.0000000000000355
 11
72.5
 21
159.9999999999998863
 31
-0.0000000000000355
210
0.0
220
1.0
230
-0.0000000000000002
  0
LINE
  5
2843
  8
0
  6
CONTINUOUS
 62
     3
 10
72.5
 20
159.9999999999998863
 30
-0.0000000000000355
 11
72.5
 21
150.0
 31
-0.0000000000000333
210
0.0
220
1.0
230
-0.0000000000000002
  0
LINE
  5
2844
  8
0
  6
CONTINUOUS
 62
     3
 10
72.5
 20
142.9999999999998863
 30
-0.0000000000000318
 11
72.5
 21
131.3684379180091923
 31
-0.0000000000000292
210
0.0
220
1.0
230
-0.0000000000000002
  0
LINE
  5
2845
  8
0
  6
CONTINUOUS
 62
     3
 10
-72.5
 20
159.9999999999998863
 30
-0.0000000000000355
 11
-72.5
 21
150.0
 31
-0.0000000000000333
210
0.0
220
1.0
230
-0.0000000000000002
  0
LINE
  5
2846
  8
0
  6
CONTINUOUS
 62
     3
 10
-72.5
 20
142.9999999999998863
 30
-0.0000000000000318
 11
-72.5
 21
131.3684379180091923
 31
-0.0000000000000292
210
0.0
220
1.0
230
-0.0000000000000002
  0
ARC
  5
2847
  8
0
  6
CONTINUOUS
 62
     3
 10
64.0000000000013785
 20
131.3684379180091923
 30
0.0
 40
8.4999999999986251
210
0.0
220
-0.0000000000000002
230
-1.0
 50
341.7085481866585042
 51
0.0000000000001895
  0
ARC
  5
2848
  8
0
  6
CONTINUOUS
 62
     3
 10
-64.0000000000013785
 20
131.3684379180091071
 30
0.0
 40
8.4999999999986215
210
0.0
220
-0.0000000000000002
230
-1.0
 50
179.9999999999996021
 51
198.2914518133412969
  0
LINE
  5
2849
  8
0
  6
CONTINUOUS
 62
     3
 10
-59.7182675581577627
 20
91.3322606993064738
 30
-0.0000000000000203
 11
-72.0705146593640933
 21
128.7007060849742004
 31
-0.0000000000000286
210
0.0
220
1.0
230
-0.0000000000000002
  0
LINE
  5
284A
  8
0
  6
CONTINUOUS
 62
     3
 10
59.7182675581577627
 20
91.3322606993064738
 30
-0.0000000000000203
 11
72.0705146593640933
 21
128.7007060849742004
 31
-0.0000000000000286
210
0.0
220
1.0
230
-0.0000000000000002
  0
LINE
  5
284B
  8
0
  6
CONTINUOUS
 62
     3
 10
66.5
 20
0.0
 30
0.0
 11
-66.5
 21
0.0
 31
0.0
210
0.0
220
1.0
230
-0.0000000000000002
  0
LINE
  5
284C
  8
0
  6
CONTINUOUS
 62
     3
 10
-66.5
 20
0.0
 30
0.0
 11
-66.5
 21
60.0252783917180892
 31
-0.0000000000000133
210
0.0
220
1.0
230
-0.0000000000000002
  0
LINE
  5
284D
  8
0
  6
CONTINUOUS
 62
     3
 10
66.5
 20
0.0
 30
0.0
 11
66.5
 21
60.0252783917180892
 31
-0.0000000000000133
210
0.0
220
1.0
230
-0.0000000000000002
  0
ARC
  5
284E
  8
0
  6
CONTINUOUS
 62
     3
 10
-54.0000000000010871
 20
60.0252783917184303
 30
0.0
 40
12.4999999999989004
210
0.0
220
-0.0000000000000002
230
-1.0
 50
146.8674474812065966
 51
180.0000000000015064
  0
ARC
  5
284F
  8
0
  6
CONTINUOUS
 62
     3
 10
54.0000000000010871
 20
60.0252783917184303
 30
0.0
 40
12.4999999999989004
210
0.0
220
-0.0000000000000002
230
-1.0
 50
359.9999999999984084
 51
33.1325525187934176
  0
LINE
  5
2850
  8
0
  6
CONTINUOUS
 62
     3
 10
58.4994094163024627
 20
76.0013330359923458
 30
-0.0000000000000169
 11
64.4676039293728849
 21
66.8575011616353407
 31
-0.0000000000000148
210
0.0
220
1.0
230
-0.0000000000000002
  0
LINE
  5
2851
  8
0
  6
CONTINUOUS
 62
     3
 10
-58.4994094163024627
 20
76.0013330359923458
 30
-0.0000000000000169
 11
-64.4676039293728849
 21
66.8575011616353407
 31
-0.0000000000000148
210
0.0
220
1.0
230
-0.0000000000000002
  0
LINE
  5
2852
  8
0
  6
CONTINUOUS
 62
     3
 10
-58.4994094163024485
 20
76.0013330359927437
 30
-0.0000000000000169
 11
58.4994094163024485
 21
76.0013330359927437
 31
-0.0000000000000169
210
0.0
220
1.0
230
-0.0000000000000002
  0
LINE
  5
2853
  8
0
  6
CONTINUOUS
 62
     3
 10
-56.0912105298726829
 20
80.359562261389172
 30
-0.0000000000000178
 11
56.0912105298726829
 21
80.359562261389172
 31
-0.0000000000000178
210
0.0
220
1.0
230
-0.0000000000000002
  0
ARC
  5
2854
  8
0
  6
CONTINUOUS
 62
     3
 10
54.9408528155670268
 20
76.8794602954220068
 30
0.0
 40
3.6653011560294759
210
0.0
220
-0.0000000000000002
230
-1.0
 50
346.1383370713983822
 51
71.7085481866644443
  0
ARC
  5
2855
  8
0
  6
CONTINUOUS
 62
     3
 10
-54.9408528155670268
 20
76.879460295422021
 30
0.0
 40
3.6653011560294679
210
0.0
220
-0.0000000000000002
230
-1.0
 50
108.2914518133355983
 51
193.8616629286017883
  0
LINE
  5
2856
  8
0
  6
CONTINUOUS
 62
     3
 10
-57.6439527329506518
 20
85.0569717074868237
 30
-0.0000000000000189
 11
57.6439527329506518
 21
85.0569717074868237
 31
-0.0000000000000189
210
0.0
220
1.0
230
-0.0000000000000002
  0
LINE
  5
2857
  8
0
  6
CONTINUOUS
 62
     3
 10
-59.7182675581577769
 20
91.332260699306417
 30
-0.0000000000000203
 11
59.7182675581577769
 21
91.332260699306417
 31
-0.0000000000000203
210
0.0
220
1.0
230
-0.0000000000000002
  0
ARC
  5
2858
  8
0
  6
CONTINUOUS
 62
     3
 10
56.7155773839724517
 20
88.844328710994958
 30
0.0
 40
3.8994812296781869
210
0.0
220
-0.0000000000000002
230
-1.0
 50
283.7730492523401722
 51
39.6440471209833873
  0
ARC
  5
2859
  8
0
  6
CONTINUOUS
 62
     3
 10
-56.7155773839724588
 20
88.844328710994958
 30
0.0
 40
3.899481229678182
210
0.0
220
-0.0000000000000002
230
-1.0
 50
140.3559528790165132
 51
256.2269507476598847
  0
LINE
  5
285A
  8
0
  6
CONTINUOUS
 62
     3
 10
-56.0912105298722281
 20
80.3595622613893283
 30
-0.0000000000000178
 11
-57.643952732949991
 21
85.0569717074866531
 31
-0.0000000000000189
210
0.0
220
1.0
230
-0.0000000000000002
  0
LINE
  5
285B
  8
0
  6
CONTINUOUS
 62
     3
 10
56.0912105298722281
 20
80.3595622613893283
 30
-0.0000000000000178
 11
57.643952732949991
 21
85.0569717074866531
 31
-0.0000000000000189
210
0.0
220
1.0
230
-0.0000000000000002
  0
LINE
  5
285C
  8
0
  6
VERDECKT
 62
     1
 10
30.2009618943234308
 20
150.0000000000001137
 30
-0.0000000000000333
 11
23.2009618943234308
 21
145.0000000000001137
 31
-0.0000000000000322
210
0.0
220
1.0
230
-0.0000000000000002
  0
LINE
  5
285D
  8
0
  6
VERDECKT
 62
     1
 10
25.7990381056768001
 20
145.0000000000001137
 30
-0.0000000000000322
 11
32.7990381056768001
 21
150.0000000000001137
 31
-0.0000000000000333
210
0.0
220
1.0
230
-0.0000000000000002
  0
LINE
  5
285E
  8
0
  6
VERDECKT
 62
     1
 10
25.7990381056768001
 20
145.0000000000001137
 30
-0.0000000000000322
 11
23.2009618943235409
 21
145.0000000000001137
 31
-0.0000000000000322
210
0.0
220
1.0
230
-0.0000000000000002
  0
LINE
  5
285F
  8
0
  6
VERDECKT
 62
     1
 10
23.2009618943234308
 20
145.0000000000001137
 30
-0.0000000000000322
 11
19.7009618943234308
 21
145.000000000000199
 31
-0.0000000000000322
210
0.0
220
1.0
230
-0.0000000000000002
  0
LINE
  5
2860
  8
0
  6
VERDECKT
 62
     1
 10
19.700961894322969
 20
145.000000000000199
 30
-0.0000000000000322
 11
19.700961894322969
 21
137.8000000000002956
 31
-0.0000000000000306
210
0.0
220
1.0
230
-0.0000000000000002
  0
LINE
  5
2861
  8
0
  6
VERDECKT
 62
     1
 10
22.2990381056765692
 20
137.8000000000002956
 30
-0.0000000000000306
 11
22.2990381056765692
 21
145.000000000000199
 31
-0.0000000000000322
210
0.0
220
1.0
230
-0.0000000000000002
  0
LINE
  5
2862
  8
0
  6
VERDECKT
 62
     1
 10
19.70096189432331
 20
137.8000000000002956
 30
-0.0000000000000306
 11
23.2009618943234308
 21
137.8000000000002956
 31
-0.0000000000000306
210
0.0
220
1.0
230
-0.0000000000000002
  0
LINE
  5
2863
  8
0
  6
VERDECKT
 62
     1
 10
25.7990381056768001
 20
137.8000000000002956
 30
-0.0000000000000306
 11
23.2009618943235409
 21
137.8000000000002956
 31
-0.0000000000000306
210
0.0
220
1.0
230
-0.0000000000000002
  0
LINE
  5
2864
  8
0
  6
VERDECKT
 62
     1
 10
23.2009618943231999
 20
137.8000000000002956
 30
-0.0000000000000306
 11
30.2009618943231999
 21
132.8000000000002956
 31
-0.0000000000000295
210
0.0
220
1.0
230
-0.0000000000000002
  0
LINE
  5
2865
  8
0
  6
VERDECKT
 62
     1
 10
32.7990381056765727
 20
132.8000000000002956
 30
-0.0000000000000295
 11
25.7990381056765692
 21
137.8000000000002956
 31
-0.0000000000000306
210
0.0
220
1.0
230
-0.0000000000000002
  0
LINE
  5
2866
  8
0
  6
VERDECKT
 62
     1
 10
30.200961894322969
 20
132.8000000000002956
 30
-0.0000000000000295
 11
33.7009618943229796
 21
132.8000000000002103
 31
-0.0000000000000295
210
0.0
220
1.0
230
-0.0000000000000002
  0
LINE
  5
2867
  8
0
  6
VERDECKT
 62
     1
 10
36.2990381056770275
 20
132.8000000000002103
 30
-0.0000000000000295
 11
33.7009618943237683
 21
132.8000000000002103
 31
-0.0000000000000295
210
0.0
220
1.0
230
-0.0000000000000002
  0
LINE
  5
2868
  8
0
  6
VERDECKT
 62
     1
 10
33.7009618943229796
 20
132.8000000000002103
 30
-0.0000000000000295
 11
33.7009618943229796
 21
135.3000000000002103
 31
-0.00000000000003
210
0.0
220
1.0
230
-0.0000000000000002
  0
LINE
  5
2869
  8
0
  6
VERDECKT
 62
     1
 10
36.2990381056770275
 20
135.3000000000002103
 30
-0.00000000000003
 11
36.2990381056770275
 21
132.8000000000002103
 31
-0.0000000000000295
210
0.0
220
1.0
230
-0.0000000000000002
  0
LINE
  5
286A
  8
0
  6
VERDECKT
 62
     1
 10
36.2990381056770275
 20
135.3000000000002103
 30
-0.00000000000003
 11
33.7009618943237683
 21
135.3000000000002103
 31
-0.00000000000003
210
0.0
220
1.0
230
-0.0000000000000002
  0
LINE
  5
286B
  8
0
  6
VERDECKT
 62
     1
 10
33.7009618943229796
 20
135.3000000000002103
 30
-0.00000000000003
 11
32.7009618943229725
 21
136.4547005383795124
 31
-0.0000000000000303
210
0.0
220
1.0
230
-0.0000000000000002
  0
LINE
  5
286C
  8
0
  6
VERDECKT
 62
     1
 10
35.2990381056765727
 20
136.4547005383795124
 30
-0.0000000000000303
 11
36.2990381056765727
 21
135.3000000000002103
 31
-0.00000000000003
210
0.0
220
1.0
230
-0.0000000000000002
  0
LINE
  5
286D
  8
0
  6
VERDECKT
 62
     1
 10
35.2990381056765727
 20
136.4547005383795124
 30
-0.0000000000000303
 11
32.7009618943233207
 21
136.4547005383795124
 31
-0.0000000000000303
210
0.0
220
1.0
230
-0.0000000000000002
  0
LINE
  5
286E
  8
0
  6
VERDECKT
 62
     1
 10
32.7009618943229725
 20
136.4547005383795124
 30
-0.0000000000000303
 11
32.7009618943229725
 21
146.3452994616208969
 31
-0.0000000000000325
210
0.0
220
1.0
230
-0.0000000000000002
  0
LINE
  5
286F
  8
0
  6
VERDECKT
 62
     1
 10
35.2990381056765727
 20
146.3452994616208969
 30
-0.0000000000000325
 11
35.2990381056765727
 21
136.4547005383795124
 31
-0.0000000000000303
210
0.0
220
1.0
230
-0.0000000000000002
  0
LINE
  5
2870
  8
0
  6
VERDECKT
 62
     1
 10
35.2990381056765727
 20
146.3452994616208969
 30
-0.0000000000000325
 11
32.7009618943233207
 21
146.3452994616208969
 31
-0.0000000000000325
210
0.0
220
1.0
230
-0.0000000000000002
  0
LINE
  5
2871
  8
0
  6
VERDECKT
 62
     1
 10
32.7009618943229725
 20
146.3452994616208969
 30
-0.0000000000000325
 11
33.7009618943229796
 21
147.500000000000199
 31
-0.0000000000000328
210
0.0
220
1.0
230
-0.0000000000000002
  0
LINE
  5
2872
  8
0
  6
VERDECKT
 62
     1
 10
36.2990381056770275
 20
147.500000000000199
 30
-0.0000000000000328
 11
35.2990381056770275
 21
146.3452994616208969
 31
-0.0000000000000325
210
0.0
220
1.0
230
-0.0000000000000002
  0
LINE
  5
2873
  8
0
  6
VERDECKT
 62
     1
 10
36.2990381056770275
 20
147.500000000000199
 30
-0.0000000000000328
 11
33.7009618943237683
 21
147.500000000000199
 31
-0.0000000000000328
210
0.0
220
1.0
230
-0.0000000000000002
  0
LINE
  5
2874
  8
0
  6
VERDECKT
 62
     1
 10
33.7009618943229796
 20
147.500000000000199
 30
-0.0000000000000328
 11
33.7009618943229796
 21
150.000000000000199
 31
-0.0000000000000333
210
0.0
220
1.0
230
-0.0000000000000002
  0
LINE
  5
2875
  8
0
  6
VERDECKT
 62
     1
 10
36.2990381056770275
 20
150.000000000000199
 30
-0.0000000000000333
 11
36.2990381056770275
 21
147.500000000000199
 31
-0.0000000000000328
210
0.0
220
1.0
230
-0.0000000000000002
  0
LINE
  5
2876
  8
0
  6
VERDECKT
 62
     1
 10
36.2990381056770275
 20
150.000000000000199
 30
-0.0000000000000333
 11
33.7009618943237683
 21
150.000000000000199
 31
-0.0000000000000333
210
0.0
220
1.0
230
-0.0000000000000002
  0
LINE
  5
2877
  8
0
  6
VERDECKT
 62
     1
 10
33.7009618943231999
 20
150.000000000000199
 30
-0.0000000000000333
 11
30.2009618943231999
 21
150.0000000000001137
 31
-0.0000000000000333
210
0.0
220
1.0
230
-0.0000000000000002
  0
LINE
  5
2878
  8
0
  6
VERDECKT
 62
     1
 10
-67.5000000000001137
 20
143.0000000000001137
 30
-0.0000000000000318
 11
-67.5000000000001137
 21
150.0000000000001137
 31
-0.0000000000000333
210
0.0
220
1.0
230
-0.0000000000000002
  0
LINE
  5
2879
  8
0
  6
VERDECKT
 62
     1
 10
-67.4999999999999005
 20
143.0000000000001137
 30
-0.0000000000000318
 11
-70.0
 21
143.0000000000001137
 31
-0.0000000000000318
210
0.0
220
1.0
230
-0.0000000000000002
  0
LINE
  5
287A
  8
0
  6
VERDECKT
 62
     1
 10
-70.0
 20
150.0000000000001137
 30
-0.0000000000000333
 11
-67.4999999999998863
 21
150.0000000000001137
 31
-0.0000000000000333
210
0.0
220
1.0
230
-0.0000000000000002
  0
LINE
  5
287B
  8
0
  6
VERDECKT
 62
     1
 10
-17.6934592766693903
 20
143.0000000000001137
 30
-0.0000000000000318
 11
-17.6934592766693903
 21
150.0000000000001137
 31
-0.0000000000000333
210
0.0
220
1.0
230
-0.0000000000000002
  0
LINE
  5
287C
  8
0
  6
VERDECKT
 62
     1
 10
-49.8065407233306132
 20
150.0000000000001137
 30
-0.0000000000000333
 11
-49.8065407233306132
 21
143.0000000000001137
 31
-0.0000000000000318
210
0.0
220
1.0
230
-0.0000000000000002
  0
LINE
  5
287D
  8
0
  6
VERDECKT
 62
     1
 10
-17.6934592766684808
 20
143.0000000000001137
 30
-0.0000000000000318
 11
-18.6541289617216499
 21
143.0000000000001137
 31
-0.0000000000000318
210
0.0
220
1.0
230
-0.0000000000000002
  0
LINE
  5
287E
  8
0
  6
VERDECKT
 62
     1
 10
-18.6541289617216606
 20
150.0000000000001137
 30
-0.0000000000000333
 11
-17.6934592766684702
 21
150.0000000000001137
 31
-0.0000000000000333
210
0.0
220
1.0
230
-0.0000000000000002
  0
LINE
  5
287F
  8
0
  6
VERDECKT
 62
     1
 10
67.5
 20
150.0000000000001137
 30
-0.0000000000000333
 11
67.5
 21
143.0000000000001137
 31
-0.0000000000000318
210
0.0
220
1.0
230
-0.0000000000000002
  0
LINE
  5
2880
  8
0
  6
VERDECKT
 62
     1
 10
70.0
 20
143.0000000000001137
 30
-0.0000000000000318
 11
67.5000000000001137
 21
143.0000000000001137
 31
-0.0000000000000318
210
0.0
220
1.0
230
-0.0000000000000002
  0
LINE
  5
2881
  8
0
  6
VERDECKT
 62
     1
 10
67.5000000000001137
 20
150.0000000000001137
 30
-0.0000000000000333
 11
70.0
 21
150.0000000000001137
 31
-0.0000000000000333
210
0.0
220
1.0
230
-0.0000000000000002
  0
LINE
  5
2882
  8
0
  6
VERDECKT
 62
     1
 10
-56.2430984176011179
 20
88.7846270097162034
 30
-0.0000000000000197
 11
56.2430984176011179
 21
88.7846270097162034
 31
-0.0000000000000197
210
0.0
220
1.0
230
-0.0000000000000002
  0
LINE
  5
2883
  8
0
  6
VERDECKT
 62
     1
 10
-58.616779199767052
 20
88.0000000000000142
 30
-0.0000000000000195
 11
58.616779199767052
 21
88.0000000000000142
 31
-0.0000000000000195
210
0.0
220
1.0
230
-0.0000000000000002
  0
LINE
  5
2884
  8
0
  6
VERDECKT
 62
     1
 10
-56.2430984176007698
 20
88.784627009716317
 30
-0.0000000000000197
 11
-69.6968338771982872
 21
129.4853330946905885
 31
-0.0000000000000288
210
0.0
220
1.0
230
-0.0000000000000002
  0
LINE
  5
2885
  8
0
  6
VERDECKT
 62
     1
 10
56.2430984176007698
 20
88.784627009716317
 30
-0.0000000000000197
 11
69.6968338771982872
 21
129.4853330946905885
 31
-0.0000000000000288
210
0.0
220
1.0
230
-0.0000000000000002
  0
ARC
  5
2886
  8
0
  6
VERDECKT
 62
     1
 10
64.0000000000043627
 20
131.3684379180089081
 30
0.0
 40
5.9999999999957483
210
0.0
220
-0.0000000000000002
230
-1.0
 50
341.7085481866528767
 51
0.0000000000051652
  0
ARC
  5
2887
  8
0
  6
VERDECKT
 62
     1
 10
-64.0000000000043627
 20
131.3684379180089081
 30
0.0
 40
5.9999999999957501
210
0.0
220
-0.0000000000000002
230
-1.0
 50
179.9999999999947988
 51
198.291451813346896
  0
LINE
  5
2888
  8
0
  6
VERDECKT
 62
     1
 10
70.0000000000001137
 20
160.0000000000001137
 30
-0.0000000000000355
 11
70.0000000000001137
 21
150.0000000000001137
 31
-0.0000000000000333
210
0.0
220
1.0
230
-0.0000000000000002
  0
LINE
  5
2889
  8
0
  6
VERDECKT
 62
     1
 10
70.0000000000001137
 20
143.0000000000001137
 30
-0.0000000000000318
 11
70.0000000000001137
 21
131.3684379180093913
 31
-0.0000000000000292
210
0.0
220
1.0
230
-0.0000000000000002
  0
LINE
  5
288A
  8
0
  6
VERDECKT
 62
     1
 10
-70.0000000000001137
 20
160.0000000000001137
 30
-0.0000000000000355
 11
-70.0000000000001137
 21
150.0000000000001137
 31
-0.0000000000000333
210
0.0
220
1.0
230
-0.0000000000000002
  0
LINE
  5
288B
  8
0
  6
VERDECKT
 62
     1
 10
-70.0000000000001137
 20
143.0000000000001137
 30
-0.0000000000000318
 11
-70.0000000000001137
 21
131.3684379180093913
 31
-0.0000000000000292
210
0.0
220
1.0
230
-0.0000000000000002
  0
LINE
  5
288C
  8
0
  6
VERDECKT
 62
     1
 10
-58.6167791997670378
 20
88.0000000000000142
 30
-0.0000000000000195
 11
-59.7182675581577627
 21
91.3322606993064738
 31
-0.0000000000000203
210
0.0
220
1.0
230
-0.0000000000000002
  0
LINE
  5
288D
  8
0
  6
VERDECKT
 62
     1
 10
58.6167791997670378
 20
88.0000000000000142
 30
-0.0000000000000195
 11
59.7182675581577627
 21
91.3322606993064738
 31
-0.0000000000000203
210
0.0
220
1.0
230
-0.0000000000000002
  0
LINE
  5
288E
  8
0
  6
VERDECKT
 62
     1
 10
56.2430984176011322
 20
88.784627009716246
 30
-0.0000000000000197
 11
58.6167791997670591
 21
88.0000000000000568
 31
-0.0000000000000195
210
0.0
220
1.0
230
-0.0000000000000002
  0
LINE
  5
288F
  8
0
  6
VERDECKT
 62
     1
 10
-56.2430984176011322
 20
88.784627009716246
 30
-0.0000000000000197
 11
-58.6167791997670591
 21
88.0000000000000568
 31
-0.0000000000000195
210
0.0
220
1.0
230
-0.0000000000000002
  0
LINE
  5
2890
  8
0
  6
VERDECKT
 62
     1
 10
57.0343736014411817
 20
78.2459048494053064
 30
-0.0000000000000174
 11
-57.0343736014411817
 21
78.2459048494053064
 31
-0.0000000000000174
210
0.0
220
1.0
230
-0.0000000000000002
  0
LINE
  5
2891
  8
0
  6
VERDECKT
 62
     1
 10
54.9408528155665792
 20
76.879460295422021
 30
-0.0000000000000171
 11
-54.9408528155665792
 21
76.879460295422021
 31
-0.0000000000000171
210
0.0
220
1.0
230
-0.0000000000000002
  0
LINE
  5
2892
  8
0
  6
VERDECKT
 62
     1
 10
57.0343736014411391
 20
78.245904849405278
 30
-0.0000000000000174
 11
58.4994094163024627
 21
76.0013330359923458
 31
-0.0000000000000169
210
0.0
220
1.0
230
-0.0000000000000002
  0
LINE
  5
2893
  8
0
  6
VERDECKT
 62
     1
 10
-57.0343736014411391
 20
78.245904849405278
 30
-0.0000000000000174
 11
-58.4994094163024627
 21
76.0013330359923458
 31
-0.0000000000000169
210
0.0
220
1.0
230
-0.0000000000000002
  0
LINE
  5
2894
  8
0
  6
VERDECKT
 62
     1
 10
-54.9408528155665792
 20
76.879460295422021
 30
-0.0000000000000171
 11
-57.0343736014411817
 21
78.2459048494053064
 31
-0.0000000000000174
210
0.0
220
1.0
230
-0.0000000000000002
  0
LINE
  5
2895
  8
0
  6
VERDECKT
 62
     1
 10
54.9408528155665792
 20
76.879460295422021
 30
-0.0000000000000171
 11
57.0343736014411817
 21
78.2459048494053064
 31
-0.0000000000000174
210
0.0
220
1.0
230
-0.0000000000000002
  0
LINE
  5
2896
  8
0
  6
VERDECKT
 62
     1
 10
54.9408528155665792
 20
76.879460295422021
 30
-0.0000000000000171
 11
62.3740831434984102
 21
65.4910566076518563
 31
-0.0000000000000145
210
0.0
220
1.0
230
-0.0000000000000002
  0
LINE
  5
2897
  8
0
  6
VERDECKT
 62
     1
 10
-54.9408528155665792
 20
76.879460295422021
 30
-0.0000000000000171
 11
-62.3740831434984102
 21
65.4910566076518563
 31
-0.0000000000000145
210
0.0
220
1.0
230
-0.0000000000000002
  0
ARC
  5
2898
  8
0
  6
VERDECKT
 62
     1
 10
-54.0000000000010303
 20
60.0252783917182526
 30
0.0
 40
9.9999999999990692
210
0.0
220
-0.0000000000000002
230
-1.0
 50
146.8674474812059998
 51
180.0000000000013927
  0
ARC
  5
2899
  8
0
  6
VERDECKT
 62
     1
 10
54.0000000000010303
 20
60.0252783917182526
 30
0.0
 40
9.9999999999990692
210
0.0
220
-0.0000000000000002
230
-1.0
 50
359.9999999999984084
 51
33.1325525187939718
  0
LINE
  5
289A
  8
0
  6
VERDECKT
 62
     1
 10
-64.0000000000001137
 20
0.0
 30
0.0
 11
-64.0000000000001137
 21
60.0252783917179684
 31
-0.0000000000000133
210
0.0
220
1.0
230
-0.0000000000000002
  0
LINE
  5
289B
  8
0
  6
VERDECKT
 62
     1
 10
64.0000000000001137
 20
0.0
 30
0.0
 11
64.0000000000001137
 21
60.0252783917179684
 31
-0.0000000000000133
210
0.0
220
1.0
230
-0.0000000000000002
  0
LINE
  5
289C
  8
0
  6
VERDECKT
 62
     1
 10
-57.0343736014411817
 20
78.2459048494053064
 30
-0.0000000000000174
 11
57.0343736014411817
 21
78.2459048494053064
 31
-0.0000000000000174
210
0.0
220
1.0
230
-0.0000000000000002
  0
LINE
  5
289D
  8
0
  6
VERDECKT
 62
     1
 10
-54.9408528155665792
 20
76.8794602954219073
 30
-0.0000000000000171
 11
54.9408528155665792
 21
76.8794602954219073
 31
-0.0000000000000171
210
0.0
220
1.0
230
-0.0000000000000002
  0
LINE
  5
289E
  8
0
  6
VERDECKT
 62
     1
 10
57.0343736014412315
 20
78.2459048494053349
 30
-0.0000000000000174
 11
58.4994094163025835
 21
76.0013330359928148
 31
-0.0000000000000169
210
0.0
220
1.0
230
-0.0000000000000002
  0
LINE
  5
289F
  8
0
  6
VERDECKT
 62
     1
 10
-57.0343736014412315
 20
78.2459048494053349
 30
-0.0000000000000174
 11
-58.4994094163025835
 21
76.0013330359928148
 31
-0.0000000000000169
210
0.0
220
1.0
230
-0.0000000000000002
  0
LINE
  5
28A0
  8
0
  6
VERDECKT
 62
     1
 10
-54.9408528155665579
 20
76.8794602954219499
 30
-0.0000000000000171
 11
-57.0343736014411604
 21
78.2459048494053491
 31
-0.0000000000000174
210
0.0
220
1.0
230
-0.0000000000000002
  0
LINE
  5
28A1
  8
0
  6
VERDECKT
 62
     1
 10
54.9408528155665579
 20
76.8794602954219499
 30
-0.0000000000000171
 11
57.0343736014411604
 21
78.2459048494053491
 31
-0.0000000000000174
210
0.0
220
1.0
230
-0.0000000000000002
  0
LINE
  5
28A2
  8
0
  6
VERDECKT
 62
     1
 10
-54.9408528155665294
 20
76.8794602954219215
 30
-0.0000000000000171
 11
-56.0912105298726331
 21
80.3595622613891862
 31
-0.0000000000000178
210
0.0
220
1.0
230
-0.0000000000000002
  0
LINE
  5
28A3
  8
0
  6
VERDECKT
 62
     1
 10
54.9408528155665294
 20
76.8794602954219215
 30
-0.0000000000000171
 11
56.0912105298726331
 21
80.3595622613891862
 31
-0.0000000000000178
210
0.0
220
1.0
230
-0.0000000000000002
  0
LINE
  5
28A4
  8
0
  6
VERDECKT
 62
     1
 10
-57.6439527329505594
 20
85.0569717074868521
 30
-0.0000000000000189
 11
-59.7182675581577698
 21
91.332260699306417
 31
-0.0000000000000203
210
0.0
220
1.0
230
-0.0000000000000002
  0
LINE
  5
28A5
  8
0
  6
VERDECKT
 62
     1
 10
57.6439527329505594
 20
85.0569717074868521
 30
-0.0000000000000189
 11
59.7182675581577698
 21
91.332260699306417
 31
-0.0000000000000203
210
0.0
220
1.0
230
-0.0000000000000002
  0
LINE
  5
28A6
  8
0
  6
VERDECKT
 62
     1
 10
-56.7178345740343204
 20
88.6277016077729769
 30
-0.0000000000000197
 11
56.7178345740343204
 21
88.6277016077729769
 31
-0.0000000000000197
210
0.0
220
1.0
230
-0.0000000000000002
  0
LINE
  5
28A7
  8
0
  6
VERDECKT
 62
     1
 10
-58.6167791997664693
 20
88.0000000000001279
 30
-0.0000000000000195
 11
58.6167791997664693
 21
88.0000000000001279
 31
-0.0000000000000195
210
0.0
220
1.0
230
-0.0000000000000002
  0
LINE
  5
28A8
  8
0
  6
VERDECKT
 62
     1
 10
-50.3875793553185076
 20
2.0000000000000568
 30
-0.0000000000000004
 11
50.3875793553185076
 21
2.0000000000000568
 31
-0.0000000000000004
210
0.0
220
1.0
230
-0.0000000000000002
  0
LINE
  5
28A9
  8
0
  6
VERDECKT
 62
     1
 10
-48.3799396802318071
 20
2.0
 30
-0.0000000000000004
 11
-49.0000000000001066
 21
9.0873218858170066
 31
-0.000000000000002
210
0.0
220
1.0
230
-0.0000000000000002
  0
LINE
  5
28AA
  8
0
  6
VERDECKT
 62
     1
 10
48.3799396802318071
 20
2.0
 30
-0.0000000000000004
 11
49.0000000000001066
 21
9.0873218858170066
 31
-0.000000000000002
210
0.0
220
1.0
230
-0.0000000000000002
  0
LINE
  5
28AB
  8
0
  6
VERDECKT
 62
     1
 10
49.0000000000001066
 20
63.6695144128849577
 30
-0.0000000000000141
 11
49.0000000000001066
 21
9.0873218858170066
 31
-0.000000000000002
210
0.0
220
1.0
230
-0.0000000000000002
  0
LINE
  5
28AC
  8
0
  6
VERDECKT
 62
     1
 10
-49.0000000000001066
 20
63.6695144128849577
 30
-0.0000000000000141
 11
-49.0000000000001066
 21
9.0873218858170066
 31
-0.000000000000002
210
0.0
220
1.0
230
-0.0000000000000002
  0
ARC
  5
28AD
  8
0
  6
VERDECKT
 62
     1
 10
58.9999999999949978
 20
63.669514412885917
 30
0.0
 40
9.9999999999949978
210
0.0
220
-0.0000000000000002
230
-1.0
 50
161.7085481866567989
 51
180.0000000000054001
  0
ARC
  5
28AE
  8
0
  6
VERDECKT
 62
     1
 10
-58.9999999999950617
 20
63.6695144128859098
 30
0.0
 40
9.9999999999950617
210
0.0
220
-0.0000000000000002
230
-1.0
 50
359.9999999999944862
 51
18.2914518133430697
  0
LINE
  5
28AF
  8
0
  6
VERDECKT
 62
     1
 10
-49.505276871336207
 20
66.8080224517497641
 30
-0.0000000000000148
 11
-56.7178345740342706
 21
88.6277016077730053
 31
-0.0000000000000197
210
0.0
220
1.0
230
-0.0000000000000002
  0
LINE
  5
28B0
  8
0
  6
VERDECKT
 62
     1
 10
49.505276871336207
 20
66.8080224517497641
 30
-0.0000000000000148
 11
56.7178345740342706
 21
88.6277016077730053
 31
-0.0000000000000197
210
0.0
220
1.0
230
-0.0000000000000002
  0
LINE
  5
28B1
  8
0
  6
VERDECKT
 62
     1
 10
56.7178345740343204
 20
88.6277016077729343
 30
-0.0000000000000197
 11
58.6167791997664693
 21
88.0000000000000853
 31
-0.0000000000000195
210
0.0
220
1.0
230
-0.0000000000000002
  0
LINE
  5
28B2
  8
0
  6
VERDECKT
 62
     1
 10
-56.7178345740343204
 20
88.6277016077729343
 30
-0.0000000000000197
 11
-58.6167791997664693
 21
88.0000000000000853
 31
-0.0000000000000195
210
0.0
220
1.0
230
-0.0000000000000002
  0
LINE
  5
28B3
  8
0
  6
VERDECKT
 62
     1
 10
-51.4042214970691518
 20
66.1803208439773414
 30
-0.0000000000000147
 11
-56.0912105298722281
 21
80.3595622613893283
 31
-0.0000000000000178
210
0.0
220
1.0
230
-0.0000000000000002
  0
LINE
  5
28B4
  8
0
  6
VERDECKT
 62
     1
 10
-57.643952732949991
 20
85.0569717074866531
 30
-0.0000000000000189
 11
-58.6167791997665333
 21
88.0000000000001137
 31
-0.0000000000000195
210
0.0
220
1.0
230
-0.0000000000000002
  0
LINE
  5
28B5
  8
0
  6
VERDECKT
 62
     1
 10
51.4042214970691518
 20
66.1803208439773414
 30
-0.0000000000000147
 11
56.0912105298722281
 21
80.3595622613893283
 31
-0.0000000000000178
210
0.0
220
1.0
230
-0.0000000000000002
  0
LINE
  5
28B6
  8
0
  6
VERDECKT
 62
     1
 10
57.643952732949991
 20
85.0569717074866531
 30
-0.0000000000000189
 11
58.6167791997665333
 21
88.0000000000001137
 31
-0.0000000000000195
210
0.0
220
1.0
230
-0.0000000000000002
  0
ARC
  5
28B7
  8
0
  6
VERDECKT
 62
     1
 10
59.0000000000022666
 20
63.6695144128853698
 30
0.0
 40
8.00000000000216
210
0.0
220
-0.0000000000000002
230
-1.0
 50
161.7085481866645011
 51
179.9999999999988063
  0
ARC
  5
28B8
  8
0
  6
VERDECKT
 62
     1
 10
-59.0000000000022666
 20
63.6695144128853698
 30
0.0
 40
8.00000000000216
210
0.0
220
-0.0000000000000002
230
-1.0
 50
0.0000000000011704
 51
18.2914518133355415
  0
LINE
  5
28B9
  8
0
  6
VERDECKT
 62
     1
 10
51.0000000000001208
 20
63.6695144128855333
 30
-0.0000000000000141
 11
51.0000000000001208
 21
9.0000000000000018
 31
-0.000000000000002
210
0.0
220
1.0
230
-0.0000000000000002
  0
LINE
  5
28BA
  8
0
  6
VERDECKT
 62
     1
 10
-51.0000000000001208
 20
63.6695144128855333
 30
-0.0000000000000141
 11
-51.0000000000001208
 21
9.0000000000000018
 31
-0.000000000000002
210
0.0
220
1.0
230
-0.0000000000000002
  0
LINE
  5
28BB
  8
0
  6
VERDECKT
 62
     1
 10
-50.3875793553185076
 20
2.0000000000000568
 30
-0.0000000000000004
 11
-51.0000000000001208
 21
9.0000000000000018
 31
-0.000000000000002
210
0.0
220
1.0
230
-0.0000000000000002
  0
LINE
  5
28BC
  8
0
  6
VERDECKT
 62
     1
 10
50.3875793553185076
 20
2.0000000000000568
 30
-0.0000000000000004
 11
51.0000000000001208
 21
9.0000000000000018
 31
-0.000000000000002
210
0.0
220
1.0
230
-0.0000000000000002
  0
ENDBLK
  5
28BE
  8
0
  0
ENDSEC
  0
SECTION
  2
ENTITIES
  0
TEXT
  5
8E
  8
VOLL
 10
78.076754716981128
 20
31.025947764705851
 30
0.0
 40
1.8
  1

  7
GREEKS
  0
INSERT
  5
2835
  8
STEMPEL
  2
A$C1B2A3747
 10
0.0
 20
-122.5
 30
0.0
  0
INSERT
  5
28BF
  8
STEMPEL
  2
A$C74736405
 10
0.0
 20
0.0
 30
0.0
  0
VIEWPORT
  5
2492
 67
     1
  8
0
 10
5.2499996395561643
 20
3.999999883606677
 30
0.0
 40
15.9606263441144591
 41
8.5433302597535778
 68
     1
 69
     1
1001
ACAD
1000
MVIEW
1002
{
1070
    16
1010
0.0
1020
0.0
1030
0.0
1010
0.0
1020
0.0
1030
1.0
1040
0.0
1040
8.5433302597535778
1040
5.2499996395561643
1040
3.999999883606677
1040
50.0
1040
0.0
1040
0.0
1070
     0
1070
  1500
1070
     1
1070
     1
1070
     0
1070
     0
1070
     0
1070
     0
1040
0.0
1040
0.0
1040
0.0
1040
10.0
1040
10.0
1040
10.0
1040
10.0
1070
     0
1002
{
1002
}
1002
}
  0
ENDSEC
  0
EOF
