  0
SECTION
  2
HEADER
  9
$ACADVER
  1
AC1009
  9
$INSBASE
 10
0.0
 20
0.0
 30
0.0
  9
$EXTMIN
 10
-51.6719135736353792
 20
-151.2179196567286112
 30
-0.0048824399767113
  9
$EXTMAX
 10
50.622659930229581
 20
160.0198457299692052
 30
0.0073244050229846
  9
$LIMMIN
 10
0.0
 20
0.0
  9
$LIMMAX
 10
297.0
 20
420.0
  9
$ORTHOMODE
 70
     1
  9
$REGENMODE
 70
     1
  9
$FILLMODE
 70
     1
  9
$QTEXTMODE
 70
     0
  9
$MIRRTEXT
 70
     1
  9
$DRAGMODE
 70
     2
  9
$LTSCALE
 40
10.0
  9
$OSMODE
 70
  2559
  9
$ATTMODE
 70
     1
  9
$TEXTSIZE
 40
3.5
  9
$TRACEWID
 40
0.5
  9
$TEXTSTYLE
  7
STANDARD
  9
$CLAYER
  8
STEMPEL
  9
$CELTYPE
  6
BYLAYER
  9
$CECOLOR
 62
   256
  9
$DIMSCALE
 40
1.0
  9
$DIMASZ
 40
3.5
  9
$DIMEXO
 40
1.0
  9
$DIMDLI
 40
7.0
  9
$DIMRND
 40
0.0
  9
$DIMDLE
 40
0.0
  9
$DIMEXE
 40
1.0
  9
$DIMTP
 40
1.0
  9
$DIMTM
 40
1.0
  9
$DIMTXT
 40
3.5
  9
$DIMCEN
 40
1.5
  9
$DIMTSZ
 40
0.0
  9
$DIMTOL
 70
     0
  9
$DIMLIM
 70
     0
  9
$DIMTIH
 70
     0
  9
$DIMTOH
 70
     0
  9
$DIMSE1
 70
     0
  9
$DIMSE2
 70
     0
  9
$DIMTAD
 70
     1
  9
$DIMZIN
 70
     8
  9
$DIMBLK
  1

  9
$DIMASO
 70
     1
  9
$DIMSHO
 70
     0
  9
$DIMPOST
  1

  9
$DIMAPOST
  1

  9
$DIMALT
 70
     0
  9
$DIMALTD
 70
     2
  9
$DIMALTF
 40
25.3999999999999986
  9
$DIMLFAC
 40
1.0
  9
$DIMTOFL
 70
     1
  9
$DIMTVP
 40
0.0
  9
$DIMTIX
 70
     0
  9
$DIMSOXD
 70
     0
  9
$DIMSAH
 70
     0
  9
$DIMBLK1
  1

  9
$DIMBLK2
  1

  9
$DIMSTYLE
  2
STANDARD
  9
$DIMCLRD
 70
     0
  9
$DIMCLRE
 70
     0
  9
$DIMCLRT
 70
     1
  9
$DIMTFAC
 40
0.5142857142857143
  9
$DIMGAP
 40
1.5
  9
$LUNITS
 70
     2
  9
$LUPREC
 70
     2
  9
$SKETCHINC
 40
1.0
  9
$FILLETRAD
 40
0.0
  9
$AUNITS
 70
     0
  9
$AUPREC
 70
     0
  9
$MENU
  1
ACAD
  9
$ELEVATION
 40
0.0
  9
$PELEVATION
 40
0.0
  9
$THICKNESS
 40
0.0
  9
$LIMCHECK
 70
     0
  9
$BLIPMODE
 70
     0
  9
$CHAMFERA
 40
0.0
  9
$CHAMFERB
 40
0.0
  9
$SKPOLY
 70
     0
  9
$TDCREATE
 40
2452545.4519097218289971
  9
$TDUPDATE
 40
2458387.5830439818091691
  9
$TDINDWG
 40
0.1915780903
  9
$TDUSRTIMER
 40
0.1915780903
  9
$USRTIMER
 70
     1
  9
$ANGBASE
 50
0.0
  9
$ANGDIR
 70
     0
  9
$PDMODE
 70
     0
  9
$PDSIZE
 40
0.0
  9
$PLINEWID
 40
0.0
  9
$COORDS
 70
     1
  9
$SPLFRAME
 70
     0
  9
$SPLINETYPE
 70
     6
  9
$SPLINESEGS
 70
     8
  9
$ATTDIA
 70
     1
  9
$ATTREQ
 70
     1
  9
$HANDLING
 70
     1
  9
$HANDSEED
  5
11EF
  9
$SURFTAB1
 70
     6
  9
$SURFTAB2
 70
     6
  9
$SURFTYPE
 70
     6
  9
$SURFU
 70
     6
  9
$SURFV
 70
     6
  9
$UCSNAME
  2

  9
$UCSORG
 10
0.0
 20
0.0
 30
0.0
  9
$UCSXDIR
 10
1.0
 20
0.0
 30
0.0
  9
$UCSYDIR
 10
0.0
 20
1.0
 30
0.0
  9
$PUCSNAME
  2

  9
$PUCSORG
 10
0.0
 20
0.0
 30
0.0
  9
$PUCSXDIR
 10
1.0
 20
0.0
 30
0.0
  9
$PUCSYDIR
 10
0.0
 20
1.0
 30
0.0
  9
$USERI1
 70
     0
  9
$USERI2
 70
     0
  9
$USERI3
 70
     0
  9
$USERI4
 70
     0
  9
$USERI5
 70
     0
  9
$USERR1
 40
0.0
  9
$USERR2
 40
0.0
  9
$USERR3
 40
0.0
  9
$USERR4
 40
0.0
  9
$USERR5
 40
0.0
  9
$WORLDVIEW
 70
     1
  9
$SHADEDGE
 70
     3
  9
$SHADEDIF
 70
    70
  9
$TILEMODE
 70
     1
  9
$MAXACTVP
 70
    16
  9
$PLIMCHECK
 70
     0
  9
$PEXTMIN
 10
-0.1283636891772204
 20
-0.104725638825002
 30
-0.0000000349181948
  9
$PEXTMAX
 10
18.160654464674721
 20
25.6222470143761889
 30
0.0000000814935746
  9
$PLIMMIN
 10
-0.2500002402958907
 20
-0.2499999962453767
  9
$PLIMMAX
 10
10.7499995194082203
 20
8.2499997634587334
  9
$UNITMODE
 70
     0
  9
$VISRETAIN
 70
     0
  9
$PLINEGEN
 70
     0
  9
$PSLTSCALE
 70
     0
  0
ENDSEC
  0
SECTION
  2
TABLES
  0
TABLE
  2
VPORT
 70
     1
  0
VPORT
  2
*ACTIVE
 70
     0
 10
0.0
 20
0.0
 11
1.0
 21
1.0
 12
-0.5246268217028957
 22
-50.3008020238045219
 13
0.0
 23
0.0
 14
1.0
 24
1.0
 15
10.0
 25
10.0
 16
-0.0000000000001334
 26
0.0
 36
600.8761087911699406
 17
0.0
 27
54.7017650604248118
 37
-0.0000000000000151
 40
312.8243640207846852
 41
1.868197278911564
 42
50.0
 43
0.0
 44
0.0
 50
0.0
 51
0.0
 71
     0
 72
  1500
 73
     1
 74
     0
 75
     0
 76
     0
 77
     0
 78
     0
  0
ENDTAB
  0
TABLE
  2
LTYPE
 70
     3
  0
LTYPE
  2
CONTINUOUS
 70
     0
  3
Solid line
 72
    65
 73
     0
 40
0.0
  0
LTYPE
  2
VERDECKT
 70
     0
  3
_ _ _ _ _ _ _ _ _ _ _ _ _ _ _ _ _ _ _ _ _ _ _
 72
    65
 73
     2
 40
0.375
 49
0.25
 49
-0.125
  0
ENDTAB
  0
TABLE
  2
LAYER
 70
    11
  0
LAYER
  2
0
 70
     0
 62
     7
  6
CONTINUOUS
  0
LAYER
  2
DEFPOINTS
 70
     0
 62
     7
  6
CONTINUOUS
  0
LAYER
  2
STEMPEL
 70
     0
 62
     3
  6
CONTINUOUS
  0
ENDTAB
  0
TABLE
  2
STYLE
 70
     2
  0
STYLE
  2
STANDARD
 70
     0
 40
0.0
 41
0.8
 50
0.0
 71
     0
 42
3.5
  3
simplex.shx
  4

  0
ENDTAB
  0
TABLE
  2
VIEW
 70
     0
  0
ENDTAB
  0
TABLE
  2
UCS
 70
     0
  0
ENDTAB
  0
TABLE
  2
APPID
 70
     9
  0
APPID
  2
ACAD
 70
     0
  0
APPID
  2
ACAD_NAV_VCDISPLAY
 70
     0
  0
APPID
  2
ACAECLAYERSTANDARD
 70
     0
  0
APPID
  2
ACCMTRANSPARENCY
 70
     0
  0
APPID
  2
ACAD_PSEXT
 70
     0
  0
APPID
  2
ACAD_EXEMPT_FROM_CAD_STANDARDS
 70
     0
  0
APPID
  2
ACAD_MLEADERVER
 70
     0
  0
APPID
  2
ACAD_OBJECT_CHANGE_GUID
 70
     0
  0
APPID
  2
ACADANNOMONITORALERTICONDI
 70
     0
  0
ENDTAB
  0
TABLE
  2
DIMSTYLE
 70
     1
  0
DIMSTYLE
  2
STANDARD
 70
     0
  3

  4

  5

  6

  7

 40
1.0
 41
0.18
 42
0.0625
 43
0.38
 44
0.18
 45
0.0
 46
0.0
 47
0.0
 48
0.0
140
0.18
141
0.09
142
0.0
143
25.3999999999999986
144
1.0
145
0.0
146
1.0
147
0.09
 71
     0
 72
     0
 73
     1
 74
     1
 75
     0
 76
     0
 77
     0
 78
     0
170
     0
171
     2
172
     0
173
     0
174
     0
175
     0
176
     0
177
     0
178
     0
  0
ENDTAB
  0
ENDSEC
  0
SECTION
  2
BLOCKS
  0
BLOCK
  8
0
  2
$MODEL_SPACE
 70
     0
 10
0.0
 20
0.0
 30
0.0
  3
$MODEL_SPACE
  1

  0
ENDBLK
  5
53
  8
0
  0
BLOCK
 67
     1
  8
0
  2
$PAPER_SPACE
 70
     0
 10
0.0
 20
0.0
 30
0.0
  3
$PAPER_SPACE
  1

  0
ENDBLK
  5
51
 67
     1
  8
0
  0
BLOCK
  8
0
  2
A$C7F522F4B
 70
     0
 10
0.0
 20
0.0
 30
0.0
  3
A$C7F522F4B
  1

  0
LINE
  5
10A1
  8
0
  6
CONTINUOUS
 62
     3
 10
22.2990381056765017
 20
-35.6230669589463389
 30
0.0
 11
15.29903810567661
 21
-23.4987113059642887
 31
-0.0000000000000018
  0
LINE
  5
10A2
  8
0
  6
CONTINUOUS
 62
     3
 10
12.7009618943233402
 20
-24.9987113059642887
 30
0.0
 11
15.2990381056767202
 21
-23.4987113059642887
 31
0.0000000000000006
  0
LINE
  5
10A3
  8
0
  6
CONTINUOUS
 62
     3
 10
12.7009618943233402
 20
-24.9987113059642887
 30
0.0
 11
19.7009618943232283
 21
-37.1230669589463389
 31
0.0000000000000018
  0
LINE
  5
10A4
  8
0
  6
CONTINUOUS
 62
     3
 10
19.7009618943232283
 20
-37.1230669589463389
 30
0.0
 11
22.2990381056766083
 21
-35.6230669589463389
 31
0.0000000000000006
  0
LINE
  5
10A5
  8
0
  6
CONTINUOUS
 62
     3
 10
15.2990381056765994
 20
-23.4987113059644201
 30
0.0
 11
11.7990381056765994
 21
-17.4365334794733506
 31
-0.0000000000000008
  0
LINE
  5
10A6
  8
0
  6
CONTINUOUS
 62
     3
 10
9.2009618943233455
 20
-18.9365334794732405
 30
0.0
 11
11.7990381056767202
 21
-17.4365334794732405
 31
0.0000000000000006
  0
LINE
  5
10A7
  8
0
  6
CONTINUOUS
 62
     3
 10
9.2009618943233455
 20
-18.9365334794732405
 30
0.0
 11
12.7009618943233402
 21
-24.99871130596431
 31
0.0000000000000008
  0
LINE
  5
10A8
  8
0
  6
CONTINUOUS
 62
     3
 10
25.7875558231702797
 20
-41.665356888749578
 30
0.0
 11
22.2990381056766083
 21
-35.6230669589463389
 31
-0.0000000000000008
  0
LINE
  5
10A9
  8
0
  6
CONTINUOUS
 62
     3
 10
19.7009618943232283
 20
-37.1230669589463389
 30
0.0
 11
23.1894796118168998
 21
-43.1653568887495922
 31
0.0000000000000008
  0
ARC
  5
10AA
  8
0
  6
CONTINUOUS
 62
     3
 10
-0.0000000000000875
 20
0.0000000000000891
 30
0.0
 40
43.3999999999999133
 50
180.0000000000001137
 51
298.0193366568641977
  0
ARC
  5
10AB
  8
0
  6
CONTINUOUS
 62
     3
 10
-0.0000000000000875
 20
0.0000000000000181
 30
0.0
 40
43.3999999999998991
 50
301.9806633431358023
 51
58.0193366568641835
  0
ARC
  5
10AC
  8
0
  6
CONTINUOUS
 62
     3
 10
-0.0000000000000875
 20
-0.0000000000000494
 30
0.0
 40
43.3999999999999488
 50
61.9806633431357596
 51
179.9999999999998863
  0
LINE
  5
10AD
  8
0
  6
CONTINUOUS
 62
     3
 10
46.9999999999996874
 20
-13.8564064605510602
 30
0.0
 11
46.9999999999996874
 21
13.8564064605504207
 31
0.0
  0
LINE
  5
10AE
  8
0
  6
CONTINUOUS
 62
     3
 10
-35.5000000000003126
 20
-33.7749907475934918
 30
0.0
 11
-11.5000000000003002
 21
-47.6313972081444774
 31
0.0000000000000053
  0
LINE
  5
10AF
  8
0
  6
CONTINUOUS
 62
     3
 10
-47.0000000000002984
 20
13.8564064605508506
 30
0.0
 11
-47.0000000000002984
 21
-13.8564064605514794
 31
0.0
  0
LINE
  5
10B0
  8
0
  6
CONTINUOUS
 62
     3
 10
-11.5000000000004192
 20
47.6313972081437811
 30
0.0
 11
-35.5000000000001918
 21
33.7749907475929092
 31
-0.0000000000000053
  0
CIRCLE
  5
10B1
  8
0
  6
CONTINUOUS
 62
     3
 10
-0.0000000000000782
 20
0.0000000000000246
 30
0.0
 40
50.6000000000000014
  0
CIRCLE
  5
10B2
  8
0
  6
CONTINUOUS
 62
     3
 10
-0.0000000000000782
 20
0.0000000000000206
 30
0.0
 40
49.0
  0
LINE
  5
10B3
  8
0
  6
CONTINUOUS
 62
     3
 10
19.7009618943233491
 20
37.1230669589465094
 30
0.0
 11
12.7009618943233509
 21
24.9987113059644592
 31
-0.0000000000000018
  0
LINE
  5
10B4
  8
0
  6
CONTINUOUS
 62
     3
 10
15.2990381056765994
 20
23.4987113059644699
 30
0.0
 11
12.7009618943233402
 21
24.9987113059644699
 31
-0.0000000000000006
  0
LINE
  5
10B5
  8
0
  6
CONTINUOUS
 62
     3
 10
15.2990381056765994
 20
23.4987113059644699
 30
0.0
 11
22.2990381056766083
 21
35.6230669589465094
 31
0.0000000000000018
  0
LINE
  5
10B6
  8
0
  6
CONTINUOUS
 62
     3
 10
22.2990381056766083
 20
35.6230669589464526
 30
0.0
 11
19.7009618943233491
 21
37.1230669589464526
 31
-0.0000000000000006
  0
LINE
  5
10B7
  8
0
  6
CONTINUOUS
 62
     3
 10
12.7009618943233402
 20
24.9987113059644805
 30
0.0
 11
9.2009618943233455
 21
18.936533479473411
 31
-0.0000000000000008
  0
LINE
  5
10B8
  8
0
  6
CONTINUOUS
 62
     3
 10
11.7990381056765994
 20
17.436533479473411
 30
0.0
 11
9.2009618943233455
 21
18.936533479473411
 31
-0.0000000000000006
  0
LINE
  5
10B9
  8
0
  6
CONTINUOUS
 62
     3
 10
11.7990381056765994
 20
17.436533479473411
 30
0.0
 11
15.2990381056765994
 21
23.4987113059644912
 31
0.0000000000000008
  0
LINE
  5
10BA
  8
0
  6
CONTINUOUS
 62
     3
 10
23.1894796118168998
 20
43.1653568887496633
 30
0.0
 11
19.7009618943232283
 21
37.1230669589464526
 31
-0.0000000000000008
  0
LINE
  5
10BB
  8
0
  6
CONTINUOUS
 62
     3
 10
22.2990381056766083
 20
35.6230669589464526
 30
0.0
 11
25.7875558231702797
 21
41.6653568887496419
 31
0.0000000000000008
  0
ARC
  5
10BC
  8
0
  6
CONTINUOUS
 62
     3
 10
-0.0000000000001132
 20
0.0000000000000091
 30
0.0
 40
24.3818495990034307
 50
63.5271309306102623
 51
180.0
  0
ARC
  5
10BD
  8
0
  6
CONTINUOUS
 62
     3
 10
-0.0000000000001132
 20
0.0000000000000127
 30
0.0
 40
24.3818495990034414
 50
303.5271309306102125
 51
56.4728690693898088
  0
ARC
  5
10BE
  8
0
  6
CONTINUOUS
 62
     3
 10
-0.0000000000001132
 20
0.0000000000000642
 30
0.0
 40
24.3818495990034698
 50
180.0000000000001137
 51
296.4728690693896738
  0
ARC
  5
10BF
  8
0
  6
CONTINUOUS
 62
     3
 10
-0.0000000000002069
 20
0.0000000000000608
 30
0.0
 40
37.8356902976493075
 50
62.2720927772248913
 51
180.0
  0
ARC
  5
10C0
  8
0
  6
CONTINUOUS
 62
     3
 10
-0.0000000000002069
 20
0.0000000000000235
 30
0.0
 40
37.8356902976493217
 50
302.2720927772252821
 51
57.7279072227747321
  0
ARC
  5
10C1
  8
0
  6
CONTINUOUS
 62
     3
 10
-0.0000000000002069
 20
-0.0000000000000315
 30
0.0
 40
37.8356902976492577
 50
179.9999999999998863
 51
297.7279072227751158
  0
ARC
  5
10C2
  8
0
  6
CONTINUOUS
 62
     3
 10
-0.0000000000002073
 20
0.0000000000000252
 30
0.0
 40
38.4063667010278209
 50
62.2383146604246704
 51
180.0
  0
ARC
  5
10C3
  8
0
  6
CONTINUOUS
 62
     3
 10
-0.0000000000000936
 20
0.0000000000000252
 30
0.0
 40
38.4063667010277712
 50
302.2383146604246917
 51
57.7616853395752088
  0
ARC
  5
10C4
  8
0
  6
CONTINUOUS
 62
     3
 10
-0.0000000000002073
 20
-0.0000000000000139
 30
0.0
 40
38.4063667010277996
 50
179.9999999999998863
 51
297.7616853395753083
  0
ARC
  5
10C5
  8
0
  6
CONTINUOUS
 62
     3
 10
-0.0000000000001974
 20
0.0000000000000249
 30
0.0
 40
24.9999996845067294
 50
0.0
 51
56.5601871890230115
  0
ARC
  5
10C6
  8
0
  6
CONTINUOUS
 62
     3
 10
-0.0000000000002116
 20
0.0000000000000178
 30
0.0
 40
24.99999968450674
 50
63.4398128109767612
 51
296.5601871890233951
  0
ARC
  5
10C7
  8
0
  6
CONTINUOUS
 62
     3
 10
-0.0000000000002259
 20
0.0000000000000284
 30
0.0
 40
24.9999996845067507
 50
303.4398128109771164
 51
360.0
  0
LINE
  5
10C8
  8
0
  6
VERDECKT
 62
     1
 10
22.2009618943232283
 20
-41.4531939778685512
 30
0.0
 11
24.7990381056766083
 21
-39.9531939778685512
 31
0.0000000000000006
  0
LINE
  5
10C9
  8
0
  6
VERDECKT
 62
     1
 10
23.2009618943232283
 20
-43.1852447854374475
 30
0.0
 11
25.7990381056766083
 21
-41.6852447854374404
 31
0.0000000000000006
  0
LINE
  5
10CA
  8
0
  6
VERDECKT
 62
     1
 10
25.7990381056766083
 20
-41.685244785437412
 30
0.0
 11
25.7875558231702797
 21
-41.665356888749578
 31
0.0
  0
LINE
  5
10CB
  8
0
  6
VERDECKT
 62
     1
 10
23.1894796118168998
 20
-43.1653568887495922
 30
0.0
 11
23.2009618943232283
 21
-43.185244785437412
 31
0.0
  0
CIRCLE
  5
10CC
  8
0
  6
VERDECKT
 62
     1
 10
0.0
 20
0.0000000000000108
 30
0.0
 40
45.1512007751937219
  0
CIRCLE
  5
10CD
  8
0
  6
VERDECKT
 62
     1
 10
-0.0000000000000936
 20
0.0000000000000164
 30
0.0
 40
39.9999999999999432
  0
CIRCLE
  5
10CE
  8
0
  6
VERDECKT
 62
     1
 10
-0.0000000000000875
 20
0.0000000000000181
 30
0.0
 40
44.9999999999999218
  0
ARC
  5
10CF
  8
0
  6
VERDECKT
 62
     1
 10
-0.0000000000232796
 20
0.0000000000402632
 30
0.0
 40
43.4000000000463189
 50
298.0193366568664146
 51
301.9806633431336991
  0
ARC
  5
10D0
  8
0
  6
VERDECKT
 62
     1
 10
-0.0000000000232796
 20
-0.0000000000402271
 30
0.0
 40
43.4000000000463189
 50
58.0193366568663365
 51
61.9806633431336493
  0
CIRCLE
  5
10D1
  8
0
  6
VERDECKT
 62
     1
 10
0.0
 20
0.0000000000000108
 30
0.0
 40
43.5000000000001066
  0
LINE
  5
10D2
  8
0
  6
VERDECKT
 62
     1
 10
-24.5000000000000817
 20
-42.4352447854374617
 30
0.0
 11
-13.5674797050268907
 21
-48.7471383206612714
 31
0.0000000000000024
  0
LINE
  5
10D3
  8
0
  6
VERDECKT
 62
     1
 10
-35.4325202949732727
 20
-36.123351250213652
 30
0.0
 11
-24.5000000000000817
 21
-42.4352447854374617
 31
0.0000000000000024
  0
LINE
  5
10D4
  8
0
  6
VERDECKT
 62
     1
 10
-24.5000000000000817
 20
42.4352447854375114
 30
0.0
 11
-35.4325202949732727
 21
36.1233512502137017
 31
-0.0000000000000024
  0
LINE
  5
10D5
  8
0
  6
VERDECKT
 62
     1
 10
-13.5674797050268907
 20
48.7471383206613282
 30
0.0
 11
-24.5000000000000817
 21
42.4352447854375114
 31
-0.0000000000000024
  0
LINE
  5
10D6
  8
0
  6
VERDECKT
 62
     1
 10
49.0000000000000284
 20
0.0000000000000202
 30
0.0
 11
49.0000000000000284
 21
12.6237870704471806
 31
0.0
  0
LINE
  5
10D7
  8
0
  6
VERDECKT
 62
     1
 10
49.0000000000000284
 20
-12.6237870704471309
 30
0.0
 11
49.0000000000000284
 21
0.0000000000000195
 31
0.0
  0
LINE
  5
10D8
  8
0
  6
VERDECKT
 62
     1
 10
-49.0000000000000782
 20
12.62378707044763
 30
0.0
 11
-49.0000000000000782
 21
0.0000000000000195
 31
0.0
  0
LINE
  5
10D9
  8
0
  6
VERDECKT
 62
     1
 10
-49.0000000000000782
 20
0.0000000000000202
 30
0.0
 11
-49.0000000000000782
 21
-12.6237870704475803
 31
0.0
  0
CIRCLE
  5
10DA
  8
0
  6
VERDECKT
 62
     1
 10
0.0000000000000047
 20
0.0000000000000121
 30
0.0
 40
38.3999999596101205
  0
LINE
  5
10DB
  8
0
  6
VERDECKT
 62
     1
 10
24.7990381056766083
 20
39.953193977868672
 30
0.0
 11
22.2009618943233384
 21
41.4531939778686578
 31
-0.0000000000000006
  0
LINE
  5
10DC
  8
0
  6
VERDECKT
 62
     1
 10
25.7990381056766083
 20
41.6852447854374972
 30
0.0
 11
23.2009618943233491
 21
43.1852447854374972
 31
-0.0000000000000006
  0
LINE
  5
10DD
  8
0
  6
VERDECKT
 62
     1
 10
23.2009618943232283
 20
43.1852447854375185
 30
0.0
 11
23.1894796118168998
 21
43.1653568887496633
 31
0.0
  0
LINE
  5
10DE
  8
0
  6
VERDECKT
 62
     1
 10
25.7875558231702797
 20
41.6653568887496419
 30
0.0
 11
25.7990381056766083
 21
41.6852447854375114
 31
0.0
  0
ARC
  5
10DF
  8
0
  6
VERDECKT
 62
     1
 10
-0.0000000000059113
 20
-0.0000000000099101
 30
0.0
 40
24.3818495990148989
 50
56.4728690693913222
 51
63.527130930608493
  0
ARC
  5
10E0
  8
0
  6
VERDECKT
 62
     1
 10
-0.0000000000062523
 20
0.0000000000106602
 30
0.0
 40
24.3818495990156983
 50
296.4728690693914928
 51
303.5271309306083936
  0
ARC
  5
10E1
  8
0
  6
VERDECKT
 62
     1
 10
0.0000000000041132
 20
0.0000000000075642
 30
0.0
 40
37.8356902976406317
 50
57.7279072227741779
 51
62.2720927772254171
  0
ARC
  5
10E2
  8
0
  6
VERDECKT
 62
     1
 10
0.0000000000042269
 20
-0.0000000000075988
 30
0.0
 40
37.8356902976405109
 50
297.7279072227744905
 51
302.27209277722568
  0
ARC
  5
10E3
  8
0
  6
VERDECKT
 62
     1
 10
0.0000000000050223
 20
0.0000000000090704
 30
0.0
 40
38.4063667010173688
 50
57.7616853395744911
 51
62.2383146604253028
  0
ARC
  5
10E4
  8
0
  6
VERDECKT
 62
     1
 10
0.000000000002976
 20
-0.0000000000054957
 30
0.0
 40
38.4063667010214616
 50
297.761685339575024
 51
302.238314660425317
  0
CIRCLE
  5
10E5
  8
0
  6
VERDECKT
 62
     1
 10
-0.0000000000002116
 20
0.0000000000000169
 30
0.0
 40
26.4999999999999183
  0
CIRCLE
  5
10E6
  8
0
  6
VERDECKT
 62
     1
 10
-0.0000000000001132
 20
0.0000000000000127
 30
0.0
 40
25.8875793553184508
  0
ARC
  5
10E7
  8
0
  6
VERDECKT
 62
     1
 10
0.0000000000000619
 20
0.0000000000004761
 30
0.0
 40
24.9999996845062
 50
56.5601871890229191
 51
63.439812810976818
  0
ARC
  5
10E8
  8
0
  6
VERDECKT
 62
     1
 10
-0.0000000000006557
 20
0.0000000000008136
 30
0.0
 40
24.9999996845076495
 50
296.5601871890235088
 51
303.4398128109768891
  0
ENDBLK
  5
10EA
  8
0
  0
BLOCK
  8
0
  2
A$C106A1153
 70
     0
 10
0.0
 20
0.0
 30
0.0
  3
A$C106A1153
  1

  0
LINE
  5
10EE
  8
0
  6
CONTINUOUS
 62
     3
 10
45.1512007751937219
 20
0.0000000000000853
 30
0.0
 11
-45.1512007751937219
 21
-0.0000000000000284
 31
0.0
210
0.0
220
1.0
230
-0.0000000000000002
  0
LINE
  5
10EF
  8
0
  6
CONTINUOUS
 62
     3
 10
-13.5674797050269191
 20
144.9999999999996874
 30
-0.0000000000000322
 11
-35.4325202949733011
 21
144.9999999999996874
 31
-0.0000000000000322
210
0.0
220
1.0
230
-0.0000000000000002
  0
LINE
  5
10F0
  8
0
  6
CONTINUOUS
 62
     3
 10
-35.4325202949733011
 20
151.9999999999996874
 30
-0.0000000000000338
 11
-35.4325202949733011
 21
144.9999999999996874
 31
-0.0000000000000322
210
0.0
220
1.0
230
-0.0000000000000002
  0
LINE
  5
10F1
  8
0
  6
CONTINUOUS
 62
     3
 10
-13.5674797050269298
 20
144.9999999999996874
 30
-0.0000000000000322
 11
-13.5674797050269298
 21
151.9999999999996874
 31
-0.0000000000000338
210
0.0
220
1.0
230
-0.0000000000000002
  0
LINE
  5
10F2
  8
0
  6
CONTINUOUS
 62
     3
 10
50.5999999999999091
 20
144.9999999999996874
 30
-0.0000000000000322
 11
49.0
 21
144.9999999999996874
 31
-0.0000000000000322
210
0.0
220
1.0
230
-0.0000000000000002
  0
LINE
  5
10F3
  8
0
  6
CONTINUOUS
 62
     3
 10
49.0
 20
151.9999999999996874
 30
-0.0000000000000338
 11
49.0
 21
144.9999999999996874
 31
-0.0000000000000322
210
0.0
220
1.0
230
-0.0000000000000002
  0
LINE
  5
10F4
  8
0
  6
CONTINUOUS
 62
     3
 10
-50.6000000000001222
 20
151.9999999999996874
 30
-0.0000000000000338
 11
-49.0000000000001066
 21
151.9999999999996874
 31
-0.0000000000000338
210
0.0
220
1.0
230
-0.0000000000000002
  0
LINE
  5
10F5
  8
0
  6
CONTINUOUS
 62
     3
 10
-49.0000000000001066
 20
144.9999999999996874
 30
-0.0000000000000322
 11
-49.0000000000001066
 21
151.9999999999996874
 31
-0.0000000000000338
210
0.0
220
1.0
230
-0.0000000000000002
  0
LINE
  5
10F6
  8
0
  6
CONTINUOUS
 62
     3
 10
-35.4325202949733225
 20
151.9999999999996874
 30
-0.0000000000000338
 11
-13.5674797050269298
 21
151.9999999999996874
 31
-0.0000000000000338
210
0.0
220
1.0
230
-0.0000000000000002
  0
LINE
  5
10F7
  8
0
  6
CONTINUOUS
 62
     3
 10
49.0
 20
151.9999999999996874
 30
-0.0000000000000338
 11
50.5999999999999091
 21
151.9999999999996874
 31
-0.0000000000000338
210
0.0
220
1.0
230
-0.0000000000000002
  0
LINE
  5
10F8
  8
0
  6
CONTINUOUS
 62
     3
 10
-49.0000000000001066
 20
144.9999999999996874
 30
-0.0000000000000322
 11
-50.6000000000001293
 21
144.9999999999996874
 31
-0.0000000000000322
210
0.0
220
1.0
230
-0.0000000000000002
  0
LINE
  5
10F9
  8
0
  6
CONTINUOUS
 62
     3
 10
50.5999999999999019
 20
159.9999999999998863
 30
-0.0000000000000355
 11
-50.6000000000001222
 21
159.9999999999998863
 31
-0.0000000000000355
210
0.0
220
1.0
230
-0.0000000000000002
  0
LINE
  5
10FA
  8
0
  6
CONTINUOUS
 62
     3
 10
40.2480656548268385
 20
19.2279808641835395
 30
-0.0000000000000043
 11
45.1512007751937432
 21
0.0000000000000284
 31
0.0
210
0.0
220
1.0
230
-0.0000000000000002
  0
LINE
  5
10FB
  8
0
  6
CONTINUOUS
 62
     3
 10
-40.2480656548268598
 20
19.2279808641834791
 30
-0.0000000000000043
 11
-45.1512007751937219
 21
-0.0000000000000284
 31
0.0
210
0.0
220
1.0
230
-0.0000000000000002
  0
ARC
  5
10FC
  8
0
  6
CONTINUOUS
 62
     3
 10
-48.0000000000041069
 20
21.2047241222034408
 30
0.0
 40
8.0000000000041283
210
0.0
220
-0.0000000000000002
230
-1.0
 50
345.6944481533802218
 51
359.9999999999951115
  0
ARC
  5
10FD
  8
0
  6
CONTINUOUS
 62
     3
 10
48.0000000000041922
 20
21.2047241222033911
 30
0.0
 40
8.0000000000041993
210
0.0
220
-0.0000000000000002
230
-1.0
 50
180.0000000000048885
 51
194.3055518466196929
  0
LINE
  5
10FE
  8
0
  6
CONTINUOUS
 62
     3
 10
-39.9999999999999787
 20
21.2047241222026912
 30
-0.0000000000000047
 11
-40.0000000000000213
 21
90.5145787565056139
 31
-0.0000000000000201
210
0.0
220
1.0
230
-0.0000000000000002
  0
LINE
  5
10FF
  8
0
  6
CONTINUOUS
 62
     3
 10
40.0000000000000213
 20
21.2047241222027516
 30
-0.0000000000000047
 11
39.9999999999999787
 21
90.514578756505685
 31
-0.0000000000000201
210
0.0
220
1.0
230
-0.0000000000000002
  0
ARC
  5
1100
  8
0
  6
CONTINUOUS
 62
     3
 10
-47.9999999999968594
 20
90.5145787565059265
 30
0.0
 40
7.999999999997037
210
0.0
220
-0.0000000000000002
230
-1.0
 50
0.0
 51
21.0375110254298185
  0
ARC
  5
1101
  8
0
  6
CONTINUOUS
 62
     3
 10
47.9999999999972928
 20
90.5145787565058271
 30
0.0
 40
7.999999999997244
210
0.0
220
-0.0000000000000002
230
-1.0
 50
158.9624889745724943
 51
180.0000000000015064
  0
LINE
  5
1102
  8
0
  6
CONTINUOUS
 62
     3
 10
-40.5332351503756101
 20
93.3864113909765621
 30
-0.0000000000000207
 11
-44.3601178195492523
 21
103.3363063308281937
 31
-0.0000000000000229
210
0.0
220
1.0
230
-0.0000000000000002
  0
LINE
  5
1103
  8
0
  6
CONTINUOUS
 62
     3
 10
40.5332351503754111
 20
93.3864113909766473
 30
-0.0000000000000207
 11
44.360117819549032
 21
103.3363063308282932
 31
-0.0000000000000229
210
0.0
220
1.0
230
-0.0000000000000002
  0
ARC
  5
1104
  8
0
  6
CONTINUOUS
 62
     3
 10
-35.3999999999986912
 20
106.7825054921939056
 30
0.0
 40
9.6000000000011312
210
0.0
220
-0.0000000000000002
230
-1.0
 50
180.0000000000025011
 51
201.0375110254221056
  0
ARC
  5
1105
  8
0
  6
CONTINUOUS
 62
     3
 10
35.3999999999987907
 20
106.7825054921938062
 30
0.0
 40
9.6000000000012502
210
0.0
220
-0.0000000000000002
230
-1.0
 50
338.9624889745779228
 51
359.9999999999972147
  0
LINE
  5
1106
  8
0
  6
CONTINUOUS
 62
     3
 10
-44.9999999999999929
 20
106.7825054921932946
 30
-0.0000000000000237
 11
-45.0
 21
117.9125156778349037
 31
-0.0000000000000262
210
0.0
220
1.0
230
-0.0000000000000002
  0
LINE
  5
1107
  8
0
  6
CONTINUOUS
 62
     3
 10
44.9999999999997726
 20
106.782505492193394
 30
-0.0000000000000237
 11
44.9999999999997584
 21
117.9125156778350032
 31
-0.0000000000000262
210
0.0
220
1.0
230
-0.0000000000000002
  0
ARC
  5
1108
  8
0
  6
CONTINUOUS
 62
     3
 10
-52.9999999999994174
 20
117.9125156778350032
 30
0.0
 40
7.9999999999996092
210
0.0
220
-0.0000000000000002
230
-1.0
 50
0.0
 51
29.2488263365479391
  0
ARC
  5
1109
  8
0
  6
CONTINUOUS
 62
     3
 10
52.9999999999998934
 20
117.9125156778349037
 30
0.0
 40
7.9999999999998499
210
0.0
220
-0.0000000000000002
230
-1.0
 50
150.7511736634525903
 51
179.9999999999998863
  0
LINE
  5
110A
  8
0
  6
CONTINUOUS
 62
     3
 10
-46.0199518724022809
 20
121.8213426292896031
 30
-0.000000000000027
 11
-49.3760577531173368
 21
127.8143888448521039
 31
-0.0000000000000284
210
0.0
220
1.0
230
-0.0000000000000002
  0
LINE
  5
110B
  8
0
  6
CONTINUOUS
 62
     3
 10
46.0199518724020535
 20
121.8213426292897026
 30
-0.000000000000027
 11
49.3760577531171307
 21
127.8143888448521039
 31
-0.0000000000000284
210
0.0
220
1.0
230
-0.0000000000000002
  0
ARC
  5
110C
  8
0
  6
CONTINUOUS
 62
     3
 10
-40.9999999999998295
 20
132.5049811865980871
 30
0.0
 40
9.6000000000001151
210
0.0
220
-0.0000000000000002
230
-1.0
 50
180.0000000000005969
 51
209.2488263365484045
  0
ARC
  5
110D
  8
0
  6
CONTINUOUS
 62
     3
 10
41.0000000000000568
 20
132.5049811865980871
 30
0.0
 40
9.6000000000001275
210
0.0
220
-0.0000000000000002
230
-1.0
 50
330.7511736634511976
 51
359.9999999999989768
  0
LINE
  5
110E
  8
0
  6
CONTINUOUS
 62
     3
 10
-50.6000000000003567
 20
132.5049811865978882
 30
-0.0000000000000294
 11
-50.6000000000003567
 21
144.9999999999996874
 31
-0.0000000000000322
210
0.0
220
1.0
230
-0.0000000000000002
  0
LINE
  5
110F
  8
0
  6
CONTINUOUS
 62
     3
 10
-50.6000000000003567
 20
151.9999999999996874
 30
-0.0000000000000338
 11
-50.6000000000003567
 21
159.9999999999998863
 31
-0.0000000000000355
210
0.0
220
1.0
230
-0.0000000000000002
  0
LINE
  5
1110
  8
0
  6
CONTINUOUS
 62
     3
 10
50.6000000000001293
 20
132.5049811865980018
 30
-0.0000000000000294
 11
50.6000000000001293
 21
144.9999999999996874
 31
-0.0000000000000322
210
0.0
220
1.0
230
-0.0000000000000002
  0
LINE
  5
1111
  8
0
  6
CONTINUOUS
 62
     3
 10
50.6000000000001293
 20
151.9999999999996874
 30
-0.0000000000000338
 11
50.6000000000001293
 21
159.9999999999998863
 31
-0.0000000000000355
210
0.0
220
1.0
230
-0.0000000000000002
  0
LINE
  5
1112
  8
0
  6
VERDECKT
 62
     1
 10
22.2990381056764591
 20
151.9999999999996874
 30
-0.0000000000000338
 11
15.2990381056765692
 21
146.9999999999996874
 31
-0.0000000000000326
210
0.0
220
1.0
230
-0.0000000000000002
  0
LINE
  5
1113
  8
0
  6
VERDECKT
 62
     1
 10
12.70096189432331
 20
146.9999999999996874
 30
-0.0000000000000326
 11
15.2990381056766793
 21
146.9999999999996874
 31
-0.0000000000000326
210
0.0
220
1.0
230
-0.0000000000000002
  0
LINE
  5
1114
  8
0
  6
VERDECKT
 62
     1
 10
12.70096189432331
 20
146.9999999999996874
 30
-0.0000000000000326
 11
19.7009618943231999
 21
151.9999999999996874
 31
-0.0000000000000338
210
0.0
220
1.0
230
-0.0000000000000002
  0
LINE
  5
1115
  8
0
  6
VERDECKT
 62
     1
 10
9.2009618943233136
 20
146.999999999999801
 30
-0.0000000000000326
 11
12.70096189432331
 21
146.9999999999996874
 31
-0.0000000000000326
210
0.0
220
1.0
230
-0.0000000000000002
  0
LINE
  5
1116
  8
0
  6
VERDECKT
 62
     1
 10
11.7990381056766793
 20
146.999999999999801
 30
-0.0000000000000326
 11
11.7990381056765692
 21
139.7999999999998977
 31
-0.000000000000031
210
0.0
220
1.0
230
-0.0000000000000002
  0
LINE
  5
1117
  8
0
  6
VERDECKT
 62
     1
 10
9.2009618943231999
 20
139.7999999999998977
 30
-0.000000000000031
 11
9.2009618943233136
 21
146.999999999999801
 31
-0.0000000000000326
210
0.0
220
1.0
230
-0.0000000000000002
  0
LINE
  5
1118
  8
0
  6
VERDECKT
 62
     1
 10
12.70096189432331
 20
139.7999999999998977
 30
-0.000000000000031
 11
15.2990381056766793
 21
139.7999999999998977
 31
-0.000000000000031
210
0.0
220
1.0
230
-0.0000000000000002
  0
LINE
  5
1119
  8
0
  6
VERDECKT
 62
     1
 10
12.70096189432331
 20
139.7999999999998977
 30
-0.000000000000031
 11
9.2009618943233136
 21
139.7999999999998977
 31
-0.000000000000031
210
0.0
220
1.0
230
-0.0000000000000002
  0
LINE
  5
111A
  8
0
  6
VERDECKT
 62
     1
 10
15.2990381056766793
 20
139.7999999999998977
 30
-0.000000000000031
 11
22.2990381056765692
 21
134.7999999999998124
 31
-0.0000000000000299
210
0.0
220
1.0
230
-0.0000000000000002
  0
LINE
  5
111B
  8
0
  6
VERDECKT
 62
     1
 10
19.7009618943231999
 20
134.7999999999998124
 30
-0.0000000000000299
 11
12.70096189432331
 21
139.7999999999998977
 31
-0.000000000000031
210
0.0
220
1.0
230
-0.0000000000000002
  0
LINE
  5
111C
  8
0
  6
VERDECKT
 62
     1
 10
23.2009618943231999
 20
134.7999999999996987
 30
-0.0000000000000299
 11
25.7990381056765692
 21
134.7999999999996987
 31
-0.0000000000000299
210
0.0
220
1.0
230
-0.0000000000000002
  0
LINE
  5
111D
  8
0
  6
VERDECKT
 62
     1
 10
23.2009618943231999
 20
134.7999999999996987
 30
-0.0000000000000299
 11
19.7009618943231999
 21
134.7999999999998124
 31
-0.0000000000000299
210
0.0
220
1.0
230
-0.0000000000000002
  0
LINE
  5
111E
  8
0
  6
VERDECKT
 62
     1
 10
25.7990381056765692
 20
134.7999999999996987
 30
-0.0000000000000299
 11
25.7990381056765692
 21
137.2999999999996987
 31
-0.0000000000000305
210
0.0
220
1.0
230
-0.0000000000000002
  0
LINE
  5
111F
  8
0
  6
VERDECKT
 62
     1
 10
23.2009618943231999
 20
137.2999999999996987
 30
-0.0000000000000305
 11
25.7990381056765692
 21
137.2999999999996987
 31
-0.0000000000000305
210
0.0
220
1.0
230
-0.0000000000000002
  0
LINE
  5
1120
  8
0
  6
VERDECKT
 62
     1
 10
23.2009618943231999
 20
137.2999999999996987
 30
-0.0000000000000305
 11
23.2009618943231999
 21
134.7999999999996987
 31
-0.0000000000000299
210
0.0
220
1.0
230
-0.0000000000000002
  0
LINE
  5
1121
  8
0
  6
VERDECKT
 62
     1
 10
25.7990381056765692
 20
137.2999999999996987
 30
-0.0000000000000305
 11
24.7990381056765798
 21
138.4547005383790008
 31
-0.0000000000000307
210
0.0
220
1.0
230
-0.0000000000000002
  0
LINE
  5
1122
  8
0
  6
VERDECKT
 62
     1
 10
22.2009618943231999
 20
138.4547005383790008
 30
-0.0000000000000307
 11
24.7990381056765798
 21
138.4547005383790008
 31
-0.0000000000000307
210
0.0
220
1.0
230
-0.0000000000000002
  0
LINE
  5
1123
  8
0
  6
VERDECKT
 62
     1
 10
22.2009618943231999
 20
138.4547005383790008
 30
-0.0000000000000307
 11
23.2009618943231999
 21
137.2999999999996987
 31
-0.0000000000000305
210
0.0
220
1.0
230
-0.0000000000000002
  0
LINE
  5
1124
  8
0
  6
VERDECKT
 62
     1
 10
24.7990381056765798
 20
138.4547005383790008
 30
-0.0000000000000307
 11
24.7990381056765798
 21
148.345299461620499
 31
-0.0000000000000329
210
0.0
220
1.0
230
-0.0000000000000002
  0
LINE
  5
1125
  8
0
  6
VERDECKT
 62
     1
 10
22.2009618943231999
 20
148.345299461620499
 30
-0.0000000000000329
 11
24.7990381056765798
 21
148.345299461620499
 31
-0.0000000000000329
210
0.0
220
1.0
230
-0.0000000000000002
  0
LINE
  5
1126
  8
0
  6
VERDECKT
 62
     1
 10
22.2009618943231999
 20
148.345299461620499
 30
-0.0000000000000329
 11
22.2009618943231999
 21
138.4547005383790008
 31
-0.0000000000000307
210
0.0
220
1.0
230
-0.0000000000000002
  0
LINE
  5
1127
  8
0
  6
VERDECKT
 62
     1
 10
24.7990381056765798
 20
148.345299461620499
 30
-0.0000000000000329
 11
25.7990381056765692
 21
149.499999999999801
 31
-0.0000000000000332
210
0.0
220
1.0
230
-0.0000000000000002
  0
LINE
  5
1128
  8
0
  6
VERDECKT
 62
     1
 10
23.2009618943231999
 20
149.499999999999801
 30
-0.0000000000000332
 11
25.7990381056765692
 21
149.499999999999801
 31
-0.0000000000000332
210
0.0
220
1.0
230
-0.0000000000000002
  0
LINE
  5
1129
  8
0
  6
VERDECKT
 62
     1
 10
23.2009618943231999
 20
149.499999999999801
 30
-0.0000000000000332
 11
22.2009618943231999
 21
148.345299461620499
 31
-0.0000000000000329
210
0.0
220
1.0
230
-0.0000000000000002
  0
LINE
  5
112A
  8
0
  6
VERDECKT
 62
     1
 10
25.7990381056765692
 20
149.499999999999801
 30
-0.0000000000000332
 11
25.7990381056765692
 21
151.999999999999801
 31
-0.0000000000000338
210
0.0
220
1.0
230
-0.0000000000000002
  0
LINE
  5
112B
  8
0
  6
VERDECKT
 62
     1
 10
23.2009618943231999
 20
151.999999999999801
 30
-0.0000000000000338
 11
25.7990381056765692
 21
151.999999999999801
 31
-0.0000000000000338
210
0.0
220
1.0
230
-0.0000000000000002
  0
LINE
  5
112C
  8
0
  6
VERDECKT
 62
     1
 10
23.2009618943231999
 20
151.999999999999801
 30
-0.0000000000000338
 11
23.2009618943231999
 21
149.499999999999801
 31
-0.0000000000000332
210
0.0
220
1.0
230
-0.0000000000000002
  0
LINE
  5
112D
  8
0
  6
VERDECKT
 62
     1
 10
19.7009618943231999
 20
151.9999999999996874
 30
-0.0000000000000338
 11
23.2009618943231999
 21
151.999999999999801
 31
-0.0000000000000338
210
0.0
220
1.0
230
-0.0000000000000002
  0
LINE
  5
112E
  8
0
  6
VERDECKT
 62
     1
 10
46.9999999999996589
 20
152.0
 30
-0.0000000000000338
 11
46.9999999999996589
 21
145.0
 31
-0.0000000000000322
210
0.0
220
1.0
230
-0.0000000000000002
  0
LINE
  5
112F
  8
0
  6
VERDECKT
 62
     1
 10
48.9999999999998792
 20
145.0
 30
-0.0000000000000322
 11
46.9999999999998792
 21
145.0
 31
-0.0000000000000322
210
0.0
220
1.0
230
-0.0000000000000002
  0
LINE
  5
1130
  8
0
  6
VERDECKT
 62
     1
 10
46.9999999999998792
 20
152.0
 30
-0.0000000000000338
 11
48.9999999999998792
 21
152.0
 31
-0.0000000000000338
210
0.0
220
1.0
230
-0.0000000000000002
  0
LINE
  5
1131
  8
0
  6
VERDECKT
 62
     1
 10
-11.5000000000017
 20
145.0
 30
-0.0000000000000322
 11
-11.5000000000017
 21
152.0
 31
-0.0000000000000338
210
0.0
220
1.0
230
-0.0000000000000002
  0
LINE
  5
1132
  8
0
  6
VERDECKT
 62
     1
 10
-35.4999999999989768
 20
152.0
 30
-0.0000000000000338
 11
-35.4999999999989768
 21
145.0
 31
-0.0000000000000322
210
0.0
220
1.0
230
-0.0000000000000002
  0
LINE
  5
1133
  8
0
  6
VERDECKT
 62
     1
 10
-13.5674797050269191
 20
152.0
 30
-0.0000000000000338
 11
-11.5000000000002292
 21
152.0
 31
-0.0000000000000338
210
0.0
220
1.0
230
-0.0000000000000002
  0
LINE
  5
1134
  8
0
  6
VERDECKT
 62
     1
 10
-35.5
 20
152.0
 30
-0.0000000000000338
 11
-35.4325202949733082
 21
152.0
 31
-0.0000000000000338
210
0.0
220
1.0
230
-0.0000000000000002
  0
LINE
  5
1135
  8
0
  6
VERDECKT
 62
     1
 10
-11.5000000000002292
 20
145.0
 30
-0.0000000000000322
 11
-13.5674797050269298
 21
145.0
 31
-0.0000000000000322
210
0.0
220
1.0
230
-0.0000000000000002
  0
LINE
  5
1136
  8
0
  6
VERDECKT
 62
     1
 10
-35.4325202949733011
 20
145.0
 30
-0.0000000000000322
 11
-35.5
 21
145.0
 31
-0.0000000000000322
210
0.0
220
1.0
230
-0.0000000000000002
  0
LINE
  5
1137
  8
0
  6
VERDECKT
 62
     1
 10
-47.0000000000003268
 20
145.0
 30
-0.0000000000000322
 11
-47.0000000000003268
 21
152.0
 31
-0.0000000000000338
210
0.0
220
1.0
230
-0.0000000000000002
  0
LINE
  5
1138
  8
0
  6
VERDECKT
 62
     1
 10
-47.0
 20
145.0
 30
-0.0000000000000322
 11
-49.0000000000001066
 21
145.0
 31
-0.0000000000000322
210
0.0
220
1.0
230
-0.0000000000000002
  0
LINE
  5
1139
  8
0
  6
VERDECKT
 62
     1
 10
-49.0000000000001066
 20
152.0
 30
-0.0000000000000338
 11
-47.0
 21
152.0
 31
-0.0000000000000338
210
0.0
220
1.0
230
-0.0000000000000002
  0
ARC
  5
113A
  8
0
  6
VERDECKT
 62
     1
 10
-40.9999999999994387
 20
132.5049811865980018
 30
0.0
 40
8.0000000000003553
210
0.0
220
-0.0000000000000002
230
-1.0
 50
180.0000000000005969
 51
212.4535106935938131
  0
ARC
  5
113B
  8
0
  6
VERDECKT
 62
     1
 10
40.9999999999996518
 20
132.5049811865978882
 30
0.0
 40
8.0000000000003801
210
0.0
220
-0.0000000000000002
230
-1.0
 50
327.5464893064063858
 51
359.9999999999992042
  0
LINE
  5
113C
  8
0
  6
VERDECKT
 62
     1
 10
-44.6239422468827129
 20
122.6031080195806027
 30
-0.0000000000000272
 11
-47.7506170276383628
 21
128.2120602991182068
 31
-0.0000000000000285
210
0.0
220
1.0
230
-0.0000000000000002
  0
LINE
  5
113D
  8
0
  6
VERDECKT
 62
     1
 10
44.6239422468824998
 20
122.6031080195807021
 30
-0.0000000000000272
 11
47.7506170276381283
 21
128.2120602991182068
 31
-0.0000000000000285
210
0.0
220
1.0
230
-0.0000000000000002
  0
ARC
  5
113E
  8
0
  6
VERDECKT
 62
     1
 10
-53.0722145897122815
 20
117.8936723248528011
 30
0.0
 40
9.6722329449511673
210
0.0
220
-0.0000000000000002
230
-1.0
 50
0.1116231677675152
 51
29.1372031687799584
  0
ARC
  5
113F
  8
0
  6
VERDECKT
 62
     1
 10
53.0722145897123028
 20
117.8936723248528011
 30
0.0
 40
9.6722329449509523
210
0.0
220
-0.0000000000000002
230
-1.0
 50
150.8627968312200096
 51
179.888376832233007
  0
LINE
  5
1140
  8
0
  6
VERDECKT
 62
     1
 10
-43.4000000000000199
 20
106.503937726649994
 30
-0.0000000000000236
 11
-43.4000000000000412
 21
117.9125156778347048
 31
-0.0000000000000262
210
0.0
220
1.0
230
-0.0000000000000002
  0
LINE
  5
1141
  8
0
  6
VERDECKT
 62
     1
 10
43.3999999999998067
 20
106.5039377266500935
 30
-0.0000000000000236
 11
43.3999999999997996
 21
117.9125156778348043
 31
-0.0000000000000262
210
0.0
220
1.0
230
-0.0000000000000002
  0
ARC
  5
1142
  8
0
  6
VERDECKT
 62
     1
 10
-35.4000000000028621
 20
106.5039377266497951
 30
0.0
 40
7.9999999999970441
210
0.0
220
-0.0000000000000002
230
-1.0
 50
179.9999999999982094
 51
201.0375110254281026
  0
ARC
  5
1143
  8
0
  6
VERDECKT
 62
     1
 10
35.4000000000031108
 20
106.5039377266497951
 30
0.0
 40
7.9999999999970219
210
0.0
220
-0.0000000000000002
230
-1.0
 50
338.9624889745716132
 51
0.0000000000016284
  0
LINE
  5
1144
  8
0
  6
VERDECKT
 62
     1
 10
-39.0398821804508387
 20
93.6822101523272721
 30
-0.0000000000000208
 11
-42.8667648496244666
 21
103.6321050921790032
 31
-0.000000000000023
210
0.0
220
1.0
230
-0.0000000000000002
  0
LINE
  5
1145
  8
0
  6
VERDECKT
 62
     1
 10
39.0398821804506326
 20
93.6822101523273716
 30
-0.0000000000000208
 11
42.8667648496242606
 21
103.6321050921791027
 31
-0.000000000000023
210
0.0
220
1.0
230
-0.0000000000000002
  0
ARC
  5
1146
  8
0
  6
VERDECKT
 62
     1
 10
-48.0000000000039506
 20
90.2360109909611054
 30
0.0
 40
9.6000000000040302
210
0.0
220
-0.0000000000000002
230
-1.0
 50
2.0868116221833719
 51
21.0375110254194695
  0
ARC
  5
1147
  8
0
  6
VERDECKT
 62
     1
 10
48.0000000000034319
 20
90.2360109909612191
 30
0.0
 40
9.600000000003277
210
0.0
220
-0.0000000000000002
230
-1.0
 50
158.9624889745801113
 51
177.9131883778175904
  0
LINE
  5
1148
  8
0
  6
VERDECKT
 62
     1
 10
-38.4000000000000625
 20
21.2047241222032596
 30
-0.0000000000000047
 11
-38.4063667010280199
 21
90.5855823354028757
 31
-0.0000000000000201
210
0.0
220
1.0
230
-0.0000000000000002
  0
LINE
  5
1149
  8
0
  6
VERDECKT
 62
     1
 10
38.4000000000001123
 20
21.20472412220332
 30
-0.0000000000000047
 11
38.4063667010279701
 21
90.5855823354029468
 31
-0.0000000000000201
210
0.0
220
1.0
230
-0.0000000000000002
  0
ARC
  5
114A
  8
0
  6
VERDECKT
 62
     1
 10
-47.9929852500867113
 20
21.2038438265333689
 30
0.0
 40
9.5929852904765873
210
0.0
220
-0.0000000000000002
230
-1.0
 50
345.6891904337879282
 51
0.0052577195893501
  0
ARC
  5
114B
  8
0
  6
VERDECKT
 62
     1
 10
47.9929852500867469
 20
21.2038438265333191
 30
0.0
 40
9.5929852904766317
210
0.0
220
-0.0000000000000002
230
-1.0
 50
179.9947422804106054
 51
194.3108095662119865
  0
LINE
  5
114C
  8
0
  6
VERDECKT
 62
     1
 10
38.6976787857922702
 20
18.832632212580279
 30
-0.0000000000000042
 11
43.5000000000001066
 21
0.0000000000000817
 31
0.0
210
0.0
220
1.0
230
-0.0000000000000002
  0
LINE
  5
114D
  8
0
  6
VERDECKT
 62
     1
 10
-38.6976787857922773
 20
18.8326322125802292
 30
-0.0000000000000042
 11
-43.5000000000001066
 21
0.0000000000000249
 31
0.0
210
0.0
220
1.0
230
-0.0000000000000002
  0
LINE
  5
114E
  8
0
  6
VERDECKT
 62
     1
 10
-49.0000000000001066
 20
132.5049811865978029
 30
-0.0000000000000294
 11
-49.0000000000001066
 21
145.0
 31
-0.0000000000000322
210
0.0
220
1.0
230
-0.0000000000000002
  0
LINE
  5
114F
  8
0
  6
VERDECKT
 62
     1
 10
-49.0000000000001066
 20
152.0
 30
-0.0000000000000338
 11
-49.0000000000001066
 21
160.0
 31
-0.0000000000000355
210
0.0
220
1.0
230
-0.0000000000000002
  0
LINE
  5
1150
  8
0
  6
VERDECKT
 62
     1
 10
48.9999999999998792
 20
132.5049811865978882
 30
-0.0000000000000294
 11
48.9999999999998792
 21
145.0
 31
-0.0000000000000322
210
0.0
220
1.0
230
-0.0000000000000002
  0
LINE
  5
1151
  8
0
  6
VERDECKT
 62
     1
 10
48.9999999999998792
 20
152.0
 30
-0.0000000000000338
 11
48.9999999999998792
 21
160.0
 31
-0.0000000000000355
210
0.0
220
1.0
230
-0.0000000000000002
  0
LINE
  5
1152
  8
0
  6
VERDECKT
 62
     1
 10
-37.8356902976495419
 20
92.0504073814836659
 30
-0.0000000000000204
 11
37.8356902976490801
 21
92.0504073814837938
 31
-0.0000000000000204
210
0.0
220
1.0
230
-0.0000000000000002
  0
LINE
  5
1153
  8
0
  6
VERDECKT
 62
     1
 10
-38.406366701028098
 20
90.5855823354030747
 30
-0.0000000000000201
 11
38.4063667010276504
 21
90.5855823354032026
 31
-0.0000000000000201
210
0.0
220
1.0
230
-0.0000000000000002
  0
LINE
  5
1154
  8
0
  6
VERDECKT
 62
     1
 10
-25.887579355318401
 20
1.9999999999999709
 30
-0.0000000000000004
 11
25.887579355318401
 21
2.000000000000028
 31
-0.0000000000000004
210
0.0
220
1.0
230
-0.0000000000000002
  0
LINE
  5
1155
  8
0
  6
VERDECKT
 62
     1
 10
-24.3818495990035409
 20
1.9999999999999429
 30
-0.0000000000000004
 11
-25.0000000000001101
 21
9.0654914143626701
 31
-0.000000000000002
210
0.0
220
1.0
230
-0.0000000000000002
  0
LINE
  5
1156
  8
0
  6
VERDECKT
 62
     1
 10
24.3818495990033313
 20
1.9999999999999989
 30
-0.0000000000000004
 11
24.9999999999998792
 21
9.0654914143627252
 31
-0.000000000000002
210
0.0
220
1.0
230
-0.0000000000000002
  0
LINE
  5
1157
  8
0
  6
VERDECKT
 62
     1
 10
24.9999999999999112
 20
70.8258493095720638
 30
-0.0000000000000157
 11
24.9999999999999787
 21
9.0654914143627252
 31
-0.000000000000002
210
0.0
220
1.0
230
-0.0000000000000002
  0
LINE
  5
1158
  8
0
  6
VERDECKT
 62
     1
 10
-25.0000000000002096
 20
70.8258493095720354
 30
-0.0000000000000157
 11
-25.0000000000001386
 21
9.0654914143626701
 31
-0.000000000000002
210
0.0
220
1.0
230
-0.0000000000000002
  0
ARC
  5
1159
  8
0
  6
VERDECKT
 62
     1
 10
34.4833330273099605
 20
70.8282955017586744
 30
0.0
 40
9.483333342802986
210
0.0
220
-0.0000000000000002
230
-1.0
 50
163.2859765228195101
 51
180.0147792431901053
  0
ARC
  5
115A
  8
0
  6
VERDECKT
 62
     1
 10
-34.4833330273095271
 20
70.8282955017587739
 30
0.0
 40
9.4833333428030144
210
0.0
220
-0.0000000000000002
230
-1.0
 50
359.9852207568093831
 51
16.7140234771800991
  0
LINE
  5
115B
  8
0
  6
VERDECKT
 62
     1
 10
-25.4006502903992093
 20
73.5556542224521621
 30
-0.0000000000000163
 11
-28.0545571680477295
 21
82.3937267503138031
 31
-0.0000000000000183
210
0.0
220
1.0
230
-0.0000000000000002
  0
LINE
  5
115C
  8
0
  6
VERDECKT
 62
     1
 10
25.4006502903987617
 20
73.5556542224521905
 30
-0.0000000000000163
 11
28.0545571680472605
 21
82.3937267503138457
 31
-0.0000000000000183
210
0.0
220
1.0
230
-0.0000000000000002
  0
ARC
  5
115D
  8
0
  6
VERDECKT
 62
     1
 10
37.1859840811867102
 20
79.4311193632284329
 30
0.0
 40
9.6000000000006036
210
0.0
220
-0.0000000000000002
230
-1.0
 50
127.6119684579468014
 51
162.0248224324195121
  0
ARC
  5
115E
  8
0
  6
VERDECKT
 62
     1
 10
-37.1859840811862625
 20
79.4311193632285182
 30
0.0
 40
9.6000000000006054
210
0.0
220
-0.0000000000000002
230
-1.0
 50
17.9751775675801291
 51
52.3880315420533123
  0
LINE
  5
115F
  8
0
  6
VERDECKT
 62
     1
 10
-31.3270018298802491
 20
87.0358762284337644
 30
-0.0000000000000193
 11
-37.8356902976495277
 21
92.0504073814836943
 31
-0.0000000000000204
210
0.0
220
1.0
230
-0.0000000000000002
  0
LINE
  5
1160
  8
0
  6
VERDECKT
 62
     1
 10
31.3270018298798192
 20
87.0358762284338638
 30
-0.0000000000000193
 11
37.8356902976490801
 21
92.0504073814837938
 31
-0.0000000000000204
210
0.0
220
1.0
230
-0.0000000000000002
  0
LINE
  5
1161
  8
0
  6
VERDECKT
 62
     1
 10
37.8356902976490517
 20
92.0504073814837653
 30
-0.0000000000000204
 11
38.4063667010275722
 21
90.5855823354031742
 31
-0.0000000000000201
210
0.0
220
1.0
230
-0.0000000000000002
  0
LINE
  5
1162
  8
0
  6
VERDECKT
 62
     1
 10
-37.8356902976495135
 20
92.0504073814836659
 30
-0.0000000000000204
 11
-38.406366701028027
 21
90.5855823354030747
 31
-0.0000000000000201
210
0.0
220
1.0
230
-0.0000000000000002
  0
LINE
  5
1163
  8
0
  6
VERDECKT
 62
     1
 10
-32.2310530965337776
 20
85.8388137528873045
 30
-0.0000000000000191
 11
-38.406366701028027
 21
90.5855823354031173
 31
-0.0000000000000201
210
0.0
220
1.0
230
-0.0000000000000002
  0
LINE
  5
1164
  8
0
  6
VERDECKT
 62
     1
 10
32.2310530965333371
 20
85.8388137528873756
 30
-0.0000000000000191
 11
38.4063667010275793
 21
90.5855823354032168
 31
-0.0000000000000201
210
0.0
220
1.0
230
-0.0000000000000002
  0
ARC
  5
1165
  8
0
  6
VERDECKT
 62
     1
 10
37.0994517492976073
 20
79.4906884738954744
 30
0.0
 40
8.0000000000004352
210
0.0
220
-0.0000000000000002
230
-1.0
 50
127.4847200510393037
 51
163.3007557660058922
  0
ARC
  5
1166
  8
0
  6
VERDECKT
 62
     1
 10
-37.0994517492972875
 20
79.4906884738954744
 30
0.0
 40
8.0000000000005898
210
0.0
220
-0.0000000000000002
230
-1.0
 50
16.6992442339944098
 51
52.5152799489604334
  0
LINE
  5
1167
  8
0
  6
VERDECKT
 62
     1
 10
-26.8373897182307708
 20
73.124632394102477
 30
-0.0000000000000162
 11
-29.4368414675279801
 21
81.7894715584264134
 31
-0.0000000000000182
210
0.0
220
1.0
230
-0.0000000000000002
  0
LINE
  5
1168
  8
0
  6
VERDECKT
 62
     1
 10
26.8373897182303196
 20
73.1246323941025196
 30
-0.0000000000000162
 11
29.4368414675275183
 21
81.7894715584265271
 31
-0.0000000000000182
210
0.0
220
1.0
230
-0.0000000000000002
  0
ARC
  5
1169
  8
0
  6
VERDECKT
 62
     1
 10
34.5000000000001492
 20
70.8258493095721349
 30
0.0
 40
8.0000000000000018
210
0.0
220
-0.0000000000000002
230
-1.0
 50
163.3007557660095017
 51
180.0000000000027001
  0
ARC
  5
116A
  8
0
  6
VERDECKT
 62
     1
 10
-34.49999999999946
 20
70.825849309572277
 30
0.0
 40
7.9999999999997646
210
0.0
220
-0.0000000000000002
230
-1.0
 50
0.0
 51
16.6992442339932907
  0
LINE
  5
116B
  8
0
  6
VERDECKT
 62
     1
 10
26.4999999999998508
 20
70.8258493095718364
 30
-0.0000000000000157
 11
26.4999999999999183
 21
9.0000000000000586
 31
-0.000000000000002
210
0.0
220
1.0
230
-0.0000000000000002
  0
LINE
  5
116C
  8
0
  6
VERDECKT
 62
     1
 10
-26.5000000000001492
 20
70.8258493095717512
 30
-0.0000000000000157
 11
-26.5000000000000817
 21
9.0000000000000018
 31
-0.000000000000002
210
0.0
220
1.0
230
-0.0000000000000002
  0
LINE
  5
116D
  8
0
  6
VERDECKT
 62
     1
 10
-25.8875793553185396
 20
1.999999999999974
 30
-0.0000000000000004
 11
-26.5000000000000888
 21
9.0000000000000036
 31
-0.000000000000002
210
0.0
220
1.0
230
-0.0000000000000002
  0
LINE
  5
116E
  8
0
  6
VERDECKT
 62
     1
 10
25.8875793553183193
 20
2.000000000000032
 30
-0.0000000000000004
 11
26.4999999999998508
 21
9.0000000000000622
 31
-0.000000000000002
210
0.0
220
1.0
230
-0.0000000000000002
  0
ENDBLK
  5
1170
  8
0
  0
BLOCK
  8
0
  2
*U16
 70
     1
 10
0.0
 20
0.0
 30
0.0
  3
*U16
  1

  0
TEXT
  5
11C4
  8
STEMPEL
 62
     1
 10
123.5423547115770049
 20
360.0643992836817233
 30
0.0
 40
3.5
  1
8
 50
90.0
 41
0.8
  0
ENDBLK
  5
11C6
  8
0
  0
BLOCK
  8
0
  2
*U17
 70
     1
 10
0.0
 20
0.0
 30
0.0
  3
*U17
  1

  0
TEXT
  5
11C8
  8
STEMPEL
 62
     1
 10
186.9748150248998115
 20
375.8888434399211746
 30
0.0
 40
3.5
  1
1.6
 41
0.8
  0
ENDBLK
  5
11CA
  8
0
  0
BLOCK
  8
0
  2
*U18
 70
     1
 10
0.0
 20
0.0
 30
0.0
  3
*U18
  1

  0
TEXT
  5
11CC
  8
STEMPEL
 62
     1
 10
88.9748150248998542
 20
375.9885488244152043
 30
0.0
 40
3.5
  1
1.6
 41
0.8
  0
ENDBLK
  5
11CE
  8
0
  0
BLOCK
  8
0
  2
*U19
 70
     1
 10
0.0
 20
0.0
 30
0.0
  3
*U19
  1

  0
TEXT
  5
11D0
  8
STEMPEL
 62
     1
 10
140.6414816915664971
 20
191.3232408022616085
 30
0.0
 40
3.5
  1
1.5
 41
0.8
  0
ENDBLK
  5
11D2
  8
0
  0
BLOCK
  8
0
  2
*U20
 70
     1
 10
0.0
 20
0.0
 30
0.0
  3
*U20
  1

  0
TEXT
  5
11D4
  8
STEMPEL
 62
     1
 10
125.9414816915664943
 20
183.1546845284464098
 30
0.0
 40
3.5
  1
\U+220553
 41
0.8
  0
ENDBLK
  5
11D6
  8
0
  0
BLOCK
  8
0
  2
*U21
 70
     1
 10
0.0
 20
0.0
 30
0.0
  3
*U21
  1

  0
TEXT
  5
11D8
  8
STEMPEL
 62
     1
 10
125.9414816915664943
 20
174.4235188006337012
 30
0.0
 40
3.5
  1
\U+220580
 41
0.8
  0
ENDBLK
  5
11DA
  8
0
  0
BLOCK
  8
0
  2
*U22
 70
     1
 10
0.0
 20
0.0
 30
0.0
  3
*U22
  1

  0
TEXT
  5
11DC
  8
STEMPEL
 62
     1
 10
125.9414816915664943
 20
166.415130195388997
 30
0.0
 40
3.5
  1
\U+220587
 41
0.8
  0
ENDBLK
  5
11DE
  8
0
  0
BLOCK
  8
0
  2
*U23
 70
     1
 10
0.0
 20
0.0
 30
0.0
  3
*U23
  1

  0
TEXT
  5
11E0
  8
STEMPEL
 62
     1
 10
125.9414816915664943
 20
388.1168897908829081
 30
0.0
 40
3.5
  1
\U+220598
 41
0.8
  0
ENDBLK
  5
11E2
  8
0
  0
BLOCK
  8
0
  2
*U24
 70
     1
 10
0.0
 20
0.0
 30
0.0
  3
*U24
  1

  0
TEXT
  5
11E4
  8
STEMPEL
 62
     1
 10
73.7512176910880441
 20
215.4977326170150889
 30
0.0
 40
3.5
  1
2
 50
90.0
 41
0.8
  0
ENDBLK
  5
11E6
  8
0
  0
BLOCK
  8
0
  2
*U25
 70
     1
 10
0.0
 20
0.0
 30
0.0
  3
*U25
  1

  0
TEXT
  5
11E8
  8
STEMPEL
 62
     1
 10
189.1229349905923982
 20
360.0643992836817233
 30
0.0
 40
3.5
  1
8
 50
90.0
 41
0.8
  0
ENDBLK
  5
11EA
  8
0
  0
BLOCK
  8
0
  2
*U26
 70
     1
 10
0.0
 20
0.0
 30
0.0
  3
*U26
  1

  0
TEXT
  5
11EC
  8
STEMPEL
 62
     1
 10
63.8157705513303313
 20
281.6643992836816892
 30
0.0
 40
3.5
  1
160
 50
90.0
 41
0.8
  0
ENDBLK
  5
11EE
  8
0
  0
ENDSEC
  0
SECTION
  2
ENTITIES
  0
INSERT
  5
10EB
  8
STEMPEL
  2
A$C7F522F4B
 10
0.0000000000000637
 20
-100.5999999999999943
 30
0.0
  0
INSERT
  5
1171
  8
STEMPEL
  2
A$C106A1153
 10
0.0
 20
0.0
 30
0.0
  0
VIEWPORT
  5
D77
 67
     1
  8
0
 10
9.0156989550820121
 20
12.75860567811511
 30
0.0
 40
45.6345856236161609
 41
25.9080814795430499
 68
     1
 69
     1
1001
ACAD
1000
MVIEW
1002
{
1070
    16
1010
0.0
1020
0.0
1030
0.0
1010
0.0
1020
0.0
1030
1.0
1040
0.0
1040
25.9080814795430499
1040
9.0156989550820121
1040
12.75860567811511
1040
50.0
1040
0.0
1040
0.0
1070
     0
1070
  1500
1070
     1
1070
     1
1070
     0
1070
     0
1070
     0
1070
     0
1040
0.0
1040
0.0
1040
0.0
1040
10.0
1040
10.0
1040
10.0
1040
10.0
1070
     0
1002
{
1002
}
1002
}
  0
VIEWPORT
  5
D7B
 67
     1
  8
DEFPOINTS
 10
9.0163413286907037
 20
12.7588426264588595
 30
0.0
 40
18.2871801050077494
 41
25.7246899823963595
 68
     2
 69
     2
1001
ACAD
1000
MVIEW
1002
{
1070
    16
1010
660.6031516195721451
1020
309.8005369506394118
1030
-45.5525769325324816
1010
0.0
1020
0.0
1030
1.0
1040
0.0
1040
433.792615380589325
1040
-509.2115160711132944
1040
-95.3865551601746091
1040
50.0
1040
0.0
1040
0.0
1070
     0
1070
  1500
1070
     1
1070
     0
1070
     0
1070
     0
1070
     0
1070
     0
1040
0.0
1040
0.0
1040
0.0
1040
1.0
1040
1.0
1040
10.0
1040
10.0
1070
     0
1002
{
1002
}
1002
}
  0
VIEWPORT
  5
D7F
 67
     1
  8
DEFPOINTS
 10
14.3108175885885096
 20
6.5446923084993962
 30
0.0
 40
5.6016775398995691
 41
8.171292530350847
 68
     3
 69
     3
1001
ACAD
1000
MVIEW
1002
{
1070
    16
1010
508.1116020628816159
1020
274.8017793508847717
1030
-32.5946664244250925
1010
57.7131738406447425
1020
92.3991588776819981
1030
256.1658667279809833
1040
2.549631148081978
1040
192.8628470237536021
1040
0.0
1040
0.0
1040
50.0
1040
0.0
1040
0.0
1070
     0
1070
  1500
1070
     1
1070
     0
1070
     0
1070
     0
1070
     0
1070
     0
1040
0.0
1040
0.0
1040
0.0
1040
1.0
1040
1.0
1040
10.0
1040
10.0
1070
     0
1002
{
1002
}
1002
}
  0
ENDSEC
  0
EOF
